  0
SECTION
  2
HEADER
  9
$ACADVER
  1
AC1009
  9
$INSBASE
 10
3458.4060144762897835
 20
190.7138067090546087
 30
0.0
  9
$EXTMIN
 10
3454.4886916415880478
 20
186.4421531883423881
 30
0.0
  9
$EXTMAX
 10
3458.4169892490408529
 20
194.257113795629607
 30
0.0
  9
$LIMMIN
 10
0.0
 20
0.0
  9
$LIMMAX
 10
11.6929133858000007
 20
8.2677165353999982
  9
$ORTHOMODE
 70
     0
  9
$REGENMODE
 70
     1
  9
$FILLMODE
 70
     1
  9
$QTEXTMODE
 70
     0
  9
$MIRRTEXT
 70
     0
  9
$DRAGMODE
 70
     2
  9
$LTSCALE
 40
0.6431102362
  9
$OSMODE
 70
  4095
  9
$ATTMODE
 70
     1
  9
$TEXTSIZE
 40
0.2
  9
$TRACEWID
 40
0.05
  9
$TEXTSTYLE
  7
STANDARD
  9
$CLAYER
  8
0
  9
$CELTYPE
  6
BYLAYER
  9
$CECOLOR
 62
   256
  9
$DIMSCALE
 40
1.0
  9
$DIMASZ
 40
0.1875
  9
$DIMEXO
 40
0.0625
  9
$DIMDLI
 40
0.4443307087
  9
$DIMRND
 40
0.0
  9
$DIMDLE
 40
0.0
  9
$DIMEXE
 40
0.125
  9
$DIMTP
 40
0.01
  9
$DIMTM
 40
0.01
  9
$DIMTXT
 40
2.0
  9
$DIMCEN
 40
0.1052362205
  9
$DIMTSZ
 40
0.0
  9
$DIMTOL
 70
     1
  9
$DIMLIM
 70
     0
  9
$DIMTIH
 70
     1
  9
$DIMTOH
 70
     1
  9
$DIMSE1
 70
     0
  9
$DIMSE2
 70
     0
  9
$DIMTAD
 70
     0
  9
$DIMZIN
 70
     0
  9
$DIMBLK
  1

  9
$DIMASO
 70
     1
  9
$DIMSHO
 70
     1
  9
$DIMPOST
  1
\X
  9
$DIMAPOST
  1

  9
$DIMALT
 70
     1
  9
$DIMALTD
 70
     2
  9
$DIMALTF
 40
25.3999999999999986
  9
$DIMLFAC
 40
1.0
  9
$DIMTOFL
 70
     0
  9
$DIMTVP
 40
0.0
  9
$DIMTIX
 70
     0
  9
$DIMSOXD
 70
     0
  9
$DIMSAH
 70
     0
  9
$DIMBLK1
  1

  9
$DIMBLK2
  1

  9
$DIMSTYLE
  2
STANDARD
  9
$DIMCLRD
 70
     0
  9
$DIMCLRE
 70
     0
  9
$DIMCLRT
 70
     0
  9
$DIMTFAC
 40
1.0
  9
$DIMGAP
 40
0.09
  9
$LUNITS
 70
     2
  9
$LUPREC
 70
     4
  9
$SKETCHINC
 40
0.1
  9
$FILLETRAD
 40
0.0
  9
$AUNITS
 70
     0
  9
$AUPREC
 70
     0
  9
$MENU
  1
.
  9
$ELEVATION
 40
0.0
  9
$PELEVATION
 40
0.0
  9
$THICKNESS
 40
0.0
  9
$LIMCHECK
 70
     0
  9
$BLIPMODE
 70
     0
  9
$CHAMFERA
 40
0.0
  9
$CHAMFERB
 40
0.0
  9
$SKPOLY
 70
     0
  9
$TDCREATE
 40
2458060.468368056230247
  9
$TDUPDATE
 40
2459010.3708796300925314
  9
$TDINDWG
 40
0.5063728009
  9
$TDUSRTIMER
 40
0.5063728009
  9
$USRTIMER
 70
     1
  9
$ANGBASE
 50
0.0
  9
$ANGDIR
 70
     0
  9
$PDMODE
 70
     0
  9
$PDSIZE
 40
0.3125
  9
$PLINEWID
 40
0.0
  9
$COORDS
 70
     1
  9
$SPLFRAME
 70
     0
  9
$SPLINETYPE
 70
     6
  9
$SPLINESEGS
 70
     8
  9
$ATTDIA
 70
     1
  9
$ATTREQ
 70
     1
  9
$HANDLING
 70
     1
  9
$HANDSEED
  5
9D59
  9
$SURFTAB1
 70
     6
  9
$SURFTAB2
 70
     6
  9
$SURFTYPE
 70
     6
  9
$SURFU
 70
     6
  9
$SURFV
 70
     6
  9
$UCSNAME
  2

  9
$UCSORG
 10
0.0
 20
0.0
 30
0.0
  9
$UCSXDIR
 10
1.0
 20
0.0
 30
0.0
  9
$UCSYDIR
 10
0.0
 20
1.0
 30
0.0
  9
$PUCSNAME
  2

  9
$PUCSORG
 10
0.0
 20
0.0
 30
0.0
  9
$PUCSXDIR
 10
1.0
 20
0.0
 30
0.0
  9
$PUCSYDIR
 10
0.0
 20
1.0
 30
0.0
  9
$USERI1
 70
     0
  9
$USERI2
 70
     0
  9
$USERI3
 70
     0
  9
$USERI4
 70
     0
  9
$USERI5
 70
     0
  9
$USERR1
 40
0.0
  9
$USERR2
 40
0.0
  9
$USERR3
 40
0.0
  9
$USERR4
 40
0.0
  9
$USERR5
 40
0.0
  9
$WORLDVIEW
 70
     1
  9
$SHADEDGE
 70
     3
  9
$SHADEDIF
 70
    70
  9
$TILEMODE
 70
     1
  9
$MAXACTVP
 70
    64
  9
$PLIMCHECK
 70
     0
  9
$PEXTMIN
 10
1.0000000000000000E+20
 20
1.0000000000000000E+20
 30
1.0000000000000000E+20
  9
$PEXTMAX
 10
-1.0000000000000000E+20
 20
-1.0000000000000000E+20
 30
-1.0000000000000000E+20
  9
$PLIMMIN
 10
0.0
 20
0.0
  9
$PLIMMAX
 10
12.0
 20
9.0
  9
$UNITMODE
 70
     0
  9
$VISRETAIN
 70
     1
  9
$PLINEGEN
 70
     0
  9
$PSLTSCALE
 70
     1
  0
ENDSEC
  0
SECTION
  2
TABLES
  0
TABLE
  2
VPORT
 70
     1
  0
VPORT
  2
*ACTIVE
 70
     0
 10
0.0
 20
0.0
 11
1.0
 21
1.0
 12
152.759725210940104
 22
-4.9118780839017537
 13
0.0
 23
0.0
 14
1.0
 24
1.0
 15
0.0
 25
0.0
 16
0.0
 26
0.0
 36
96.5995694866707311
 17
3303.693115234375
 27
195.2615115758877096
 37
0.0
 40
7.8799949535337417
 41
2.6486111111111108
 42
50.0
 43
0.0
 44
0.0
 50
0.0
 51
0.0
 71
     0
 72
   100
 73
     1
 74
     1
 75
     0
 76
     0
 77
     0
 78
     0
  0
ENDTAB
  0
TABLE
  2
LTYPE
 70
     2
  0
LTYPE
  2
CONTINUOUS
 70
     0
  3
Solid line
 72
    65
 73
     0
 40
0.0
  0
LTYPE
  2
PHANTOM2
 70
     0
  3
___ _ _ ___ _ _ ___ _ _ ___ _ _
 72
    65
 73
     6
 40
1.25
 49
0.625
 49
-0.125
 49
0.125
 49
-0.125
 49
0.125
 49
-0.125
  0
ENDTAB
  0
TABLE
  2
LAYER
 70
     2
  0
LAYER
  2
0
 70
     0
 62
   255
  6
CONTINUOUS
  0
LAYER
  2
DEFPOINTS
 70
     0
 62
     7
  6
CONTINUOUS
  0
ENDTAB
  0
TABLE
  2
STYLE
 70
     1
  0
STYLE
  2
STANDARD
 70
     0
 40
0.0
 41
0.8
 50
0.0
 71
     0
 42
0.2
  3
txt
  4

  0
ENDTAB
  0
TABLE
  2
VIEW
 70
     0
  0
ENDTAB
  0
TABLE
  2
UCS
 70
     0
  0
ENDTAB
  0
TABLE
  2
APPID
 70
     9
  0
APPID
  2
ACAD
 70
     0
  0
APPID
  2
ACAD_MLEADERVER
 70
     0
  0
APPID
  2
ACAD_EXEMPT_FROM_CAD_STANDARDS
 70
     0
  0
APPID
  2
ACAD_NAV_VCDISPLAY
 70
     0
  0
APPID
  2
ACAECLAYERSTANDARD
 70
     0
  0
APPID
  2
ACCMTRANSPARENCY
 70
     0
  0
APPID
  2
ACAD_DSTYLE_DIMJAG
 70
     0
  0
APPID
  2
ACAD_DSTYLE_DIMTALN
 70
     0
  0
APPID
  2
ACDBATTR
 70
     0
  0
ENDTAB
  0
TABLE
  2
DIMSTYLE
 70
     1
  0
DIMSTYLE
  2
STANDARD
 70
     0
  3

  4

  5

  6

  7

 40
1.0
 41
0.1875
 42
0.0625
 43
0.38
 44
0.125
 45
0.0
 46
0.0
 47
0.01
 48
0.01
140
0.15625
141
0.09
142
0.0
143
25.3999999999999986
144
1.0
145
0.0
146
1.0
147
0.09
 71
     1
 72
     0
 73
     1
 74
     1
 75
     0
 76
     0
 77
     0
 78
     4
170
     0
171
     2
172
     0
173
     0
174
     0
175
     0
176
     0
177
     0
178
     0
  0
ENDTAB
  0
ENDSEC
  0
SECTION
  2
BLOCKS
  0
BLOCK
  8
0
  2
$MODEL_SPACE
 70
     0
 10
0.0
 20
0.0
 30
0.0
  3
$MODEL_SPACE
  1

  0
ENDBLK
  5
21
  8
0
  0
BLOCK
 67
     1
  8
0
  2
$PAPER_SPACE
 70
     0
 10
0.0
 20
0.0
 30
0.0
  3
$PAPER_SPACE
  1

  0
ENDBLK
  5
1D
 67
     1
  8
0
  0
BLOCK
  8
0
  2
_FILLED
 70
     0
 10
0.0
 20
0.0
 30
0.0
  3
_FILLED
  1

  0
SOLID
  5
9978
  8
0
  6
BYBLOCK
 62
     0
 10
0.0
 20
0.0
 30
0.0
 11
-1.0
 21
0.1666666667
 31
0.0
 12
-1.0
 22
-0.1666666667
 32
0.0
 13
-1.0
 23
-0.1666666667
 33
0.0
  0
ENDBLK
  5
9979
  8
0
  6
BYBLOCK
 62
     0
  0
ENDSEC
  0
SECTION
  2
ENTITIES
  0
ATTDEF
  5
9762
  8
DEFPOINTS
 10
3458.4063225823729226
 20
190.7173208766915877
 30
0.0
 40
0.001
  1
K-72807T-4
  3

  2
MODELNUMBER
 70
     0
1001
ACDBATTR
1070
     0
1070
     1
  0
ATTDEF
  5
9763
  8
DEFPOINTS
 10
3458.4063225823729226
 20
190.7156542100248942
 30
0.0
 40
0.001
  1
MODULO
  3

  2
TRADENAME
 70
     0
1001
ACDBATTR
1070
     0
1070
     1
  0
ATTDEF
  5
9764
  8
DEFPOINTS
 10
3458.4063225823729226
 20
190.7139875433582858
 30
0.0
 40
0.001
  1
VALVE TRIM 
  3

  2
PRODUCT
 70
     0
1001
ACDBATTR
1070
     0
1070
     1
  0
LINE
  5
9B9E
  8
0
 10
3458.4060144762920572
 20
187.1704996224794968
 30
0.0
 11
3458.406014476288874
 21
194.257113795629607
 31
0.0
  0
LINE
  5
9B9F
  8
0
 10
3458.406014476288874
 20
194.257113795629607
 30
0.0
 11
3458.1263019372590861
 21
194.2473460186141097
 31
0.0
  0
ARC
  5
9BA0
  8
0
 10
3458.130423925085779
 20
194.1293077319797078
 30
0.0
 40
0.1181102361999985
 50
92.0000000135605376
 51
180.0000000000015916
  0
LINE
  5
9BA1
  8
0
 10
3458.0123136888860245
 20
194.1293077319797078
 30
0.0
 11
3458.0123136888860245
 21
187.29830568627969
 31
0.0
  0
ARC
  5
9BA2
  8
0
 10
3458.1304239251530817
 20
187.29830568627969
 30
0.0
 40
0.1181102362670039
 50
180.0
 51
267.9999999680333076
  0
LINE
  5
9BA3
  8
0
 10
3458.1263019372859162
 20
187.1802673995796908
 30
0.0
 11
3458.4060144762861455
 21
187.1704996224796957
 31
0.0
  0
ARC
  5
9BA4
  8
0
 10
3457.9138884919861994
 20
187.3445547405796958
 30
0.0
 40
0.0984251969000028
 50
0.0
 51
84.7840914135910282
  0
ARC
  5
9BA5
  8
0
 10
3457.9335735314220983
 20
187.5601935428065019
 30
0.0
 40
0.1181102362360068
 50
180.0000000129917055
 51
264.7840914135909998
  0
LINE
  5
9BA6
  8
0
 10
3457.8154632951859639
 20
187.5601935427797002
 30
0.0
 11
3457.8154632951859639
 21
193.8674198754796976
 31
0.0
  0
ARC
  5
9BA7
  8
0
 10
3457.9335735312829456
 20
193.8674198754796976
 30
0.0
 40
0.1181102360971202
 50
95.2159085248988646
 51
179.9999999999984084
  0
ARC
  5
9BA8
  8
0
 10
3457.9138884921021599
 20
194.0830586774740993
 30
0.0
 40
0.0984251967842638
 50
275.2159085248989072
 51
0.0000000615030729
  0
LINE
  5
9BA9
  8
0
 10
3457.8154632951859639
 20
192.7118382051797028
 30
0.0
 11
3457.0083766809862027
 21
192.7118382051797028
 31
0.0
  0
LINE
  5
9BAA
  8
0
 10
3457.0083766809862027
 20
192.7118382051797028
 30
0.0
 11
3456.9886916415857741
 21
192.6921531657797004
 31
0.0
  0
LINE
  5
9BAB
  8
0
 10
3456.9886916415857741
 20
192.6921531657797004
 30
0.0
 11
3456.9886916415857741
 21
191.7669563153797014
 31
0.0
  0
LINE
  5
9BAC
  8
0
 10
3456.9886916415857741
 20
191.7669563153797014
 30
0.0
 11
3457.0083766809862027
 21
191.7472712760796867
 31
0.0
  0
LINE
  5
9BAD
  8
0
 10
3457.0083766809862027
 20
191.7472712760796867
 30
0.0
 11
3457.8154632951859639
 21
191.7472712760796867
 31
0.0
  0
LINE
  5
9BAE
  8
0
 10
3456.9886916415857741
 20
191.8358539531797078
 30
0.0
 11
3456.8976405362859623
 21
191.8358539531797078
 31
0.0
  0
LINE
  5
9BAF
  8
0
 10
3456.8976405362859623
 20
191.8358539531797078
 30
0.0
 11
3456.8976405362859623
 21
192.6232555279796941
 31
0.0
  0
LINE
  5
9BB0
  8
0
 10
3456.8976405362859623
 20
192.6232555279796941
 30
0.0
 11
3456.8948668788921168
 21
192.702682683447307
 31
0.0
  0
ARC
  5
9BB1
  8
0
 10
3456.8751938392651937
 20
192.7019956891201105
 30
0.0
 40
0.0196850310993113
 50
1.999990241389749
 51
90.0000238049330648
  0
LINE
  5
9BB2
  8
0
 10
3456.8751938310861078
 20
192.7216807202194104
 30
0.0
 11
3456.4005901942859964
 21
192.7216807202599114
 31
0.0
  0
ARC
  5
9BB3
  8
0
 10
3456.4005901858208745
 20
192.7019956896185136
 30
0.0
 40
0.0196850306414032
 50
89.9999753606522148
 51
175.5882832275592023
  0
ARC
  5
9BB4
  8
0
 10
3462.524123354630774
 20
192.2295547411337964
 30
0.0
 40
6.1614159690110668
 50
175.5882732443947134
 51
184.4117267556052866
  0
ARC
  5
9BB5
  8
0
 10
3456.4005902036969928
 20
191.7571138008696039
 30
0.0
 40
0.019685049097452
 50
184.4117366258060997
 51
269.9999726070706743
  0
LINE
  5
9BB6
  8
0
 10
3456.4005901942859964
 20
191.7374287517721996
 30
0.0
 11
3456.8751938310861078
 21
191.7374287517721996
 31
0.0
  0
ARC
  5
9BB7
  8
0
 10
3456.8751938682030413
 20
191.7571137525692961
 30
0.0
 40
0.019685000797168
 50
269.9998919647521802
 51
358.000121922789674
  0
ARC
  5
9BB8
  8
0
 10
32305.3973426202792325
 20
-815.6157200203859929
 30
0.0
 40
28866.0855284370409208
 50
177.9999211178640053
 51
178.0000788675073125
  0
LINE
  5
9BB9
  8
0
 10
3457.0083766809862027
 20
192.7118382051797028
 30
0.0
 11
3457.0083766809862027
 21
191.7472712760796867
 31
0.0
  0
LINE
  5
9BBA
  8
0
 10
3457.8154632951859639
 20
190.6350665516796994
 30
0.0
 11
3456.744597153486211
 21
190.6350665515797118
 31
0.0
  0
ARC
  5
9BBB
  8
0
 10
3456.7445971534871205
 20
190.6232555279786141
 30
0.0
 40
0.0118110236011031
 50
90.0000000053412634
 51
180.0000037188482054
  0
LINE
  5
9BBC
  8
0
 10
3456.73278612978811
 20
190.6350665554421084
 30
0.0
 11
3456.7327861297858362
 21
188.705932071599392
 31
0.0
  0
ARC
  5
9BBD
  8
0
 10
3456.744597153486211
 20
188.7177437169796974
 30
0.0
 40
0.0118110235999999
 50
180.2622099442224055
 51
270.0
  0
LINE
  5
9BBE
  8
0
 10
3456.744597153486211
 20
188.7059326933797081
 30
0.0
 11
3457.8154632951859639
 21
188.7059326933797081
 31
0.0
  0
LINE
  5
9BBF
  8
0
 10
3456.7267392602861946
 20
192.6581252969797049
 30
0.0
 11
3456.5498566212859259
 21
192.6581262498797003
 31
0.0
  0
ARC
  5
9BC0
  8
0
 10
3456.9871763060391459
 20
192.3620399295216998
 30
0.0
 40
0.5281246214444748
 50
145.9001226849335069
 51
164.6576255395077055
  0
ARC
  5
9BC1
  8
0
 10
3457.1481423506488682
 20
192.2369215335203876
 30
0.0
 40
0.7134968743449426
 50
166.1158407155461987
 51
175.7257231932088075
  0
ARC
  5
9BC2
  8
0
 10
3352.238931200135994
 20
192.2298273792688121
 30
0.0
 40
104.1977161602725062
 50
359.9665581059734905
 51
0.0331419983907764
  0
ARC
  5
9BC3
  8
0
 10
3457.1558281047277887
 20
192.22341618729331
 30
0.0
 40
0.7212534130067824
 50
184.3260777652930926
 51
193.8323820178100902
  0
ARC
  5
9BC4
  8
0
 10
2984.7555972739542085
 20
79.2605744487965893
 30
0.0
 40
484.9973868156210983
 50
13.4363908853352907
 51
13.4477650480345297
  0
ARC
  5
9BC5
  8
0
 10
3456.9876541867838569
 20
192.0972895652514865
 30
0.0
 40
0.5286437229412181
 50
195.3516866203204074
 51
214.090590491840004
  0
LINE
  5
9BC6
  8
0
 10
3456.5498566212859259
 20
191.800983174079704
 30
0.0
 11
3456.7267392603857843
 21
191.800983174079704
 31
0.0
  0
ARC
  5
9BC7
  8
0
 10
3456.2727052802129037
 20
192.1047648525425871
 30
0.0
 40
0.5462876195936044
 50
326.2146054171374203
 51
344.3431033005912809
  0
ARC
  5
9BC8
  8
0
 10
3455.6153982164200897
 20
192.2889920901872074
 30
0.0
 40
1.2289238706105581
 50
344.3431033005912809
 51
348.7731068395390821
  0
ARC
  5
9BC9
  8
0
 10
3455.2048871759579924
 20
192.3704757213253913
 30
0.0
 40
1.647443758411812
 50
348.7731068395390821
 51
352.975733082378099
  0
ARC
  5
9BCA
  8
0
 10
-9054.4656637728694477
 20
192.2639629007736914
 30
0.0
 40
12511.3056300900698261
 50
359.9995651626117024
 51
0.0001196919821246
  0
ARC
  5
9BCB
  8
0
 10
3455.1861521252849343
 20
192.0863345970988973
 30
0.0
 40
1.666319695661298
 50
7.0239517722159599
 51
11.1348414940517699
  0
ARC
  5
9BCC
  8
0
 10
3455.6477208622591206
 20
192.1771823009673028
 30
0.0
 40
1.1958954145590459
 50
11.1348414940517699
 51
15.7488972116720696
  0
ARC
  5
9BCD
  8
0
 10
3456.2756493523647805
 20
192.3556982224210969
 30
0.0
 40
0.5430876913116456
 50
15.6032060864304807
 51
33.8393371821151518
  0
LINE
  5
9BCE
  8
0
 10
3456.4778730233479109
 20
192.5017748128381072
 30
0.0
 11
3456.4556181552611633
 21
192.408660609769413
 31
0.0
  0
LINE
  5
9BCF
  8
0
 10
3456.5498566213859704
 20
192.6581252969797049
 30
0.0
 11
3456.5498566213859704
 21
191.800984201879686
 31
0.0
  0
LINE
  5
9BD0
  8
0
 10
3456.7267392603857843
 20
191.800983174079704
 30
0.0
 11
3456.7267392602861946
 21
192.658125541279702
 31
0.0
  0
LINE
  5
9BD2
  8
0
 10
3456.9886916415857741
 20
192.6232555279796941
 30
0.0
 11
3456.8976405362859623
 21
192.6232555279796941
 31
0.0
  0
ARC
  5
9BD3
  8
0
 10
3456.6737310119779067
 20
190.6350665513398042
 30
0.0
 40
0.059055118389783
 50
359.9919728727796837
 51
179.9999997188490966
  0
LINE
  5
9BD4
  8
0
 10
3456.6146758935888101
 20
190.6350665516295919
 30
0.0
 11
3456.6146758841218798
 21
188.7059409671296066
 31
0.0
  0
ARC
  5
9BD5
  8
0
 10
3456.6737310069561318
 20
188.7059409668399041
 30
0.0
 40
0.059055122833108
 50
179.9999997188490966
 51
0.0000002811508561
  0
ARC
  5
9BD6
  8
0
 10
3456.5753058148889068
 20
188.72570043112961
 30
0.0
 40
0.0393700787000027
 50
0.0395279301053028
 51
88.9497364550869918
  0
LINE
  5
9BD7
  8
0
 10
3456.5760274499411935
 20
188.7650638956581872
 30
0.0
 11
3456.5556128697808163
 21
188.7656147326439111
 31
0.0
  0
ARC
  5
9BD8
  8
0
 10
3456.5753058148889068
 20
190.6152988138296109
 30
0.0
 40
0.0393700787000055
 50
271.0502635449130935
 51
355.4389493927271815
  0
ARC
  5
9BD9
  8
0
 10
3456.5976765015361707
 20
189.3950314121686915
 30
0.0
 40
1.1811023622741741
 50
91.0502635449130224
 51
111.1983620994107014
  0
LINE
  5
9BDA
  8
0
 10
3456.5556207754889328
 20
188.664602064229598
 30
0.0
 11
3456.5556207754889328
 21
189.6704996224295883
 31
0.0
  0
LINE
  5
9BDB
  8
0
 10
3456.5556207754889328
 20
189.6704996224295883
 30
0.0
 11
3456.0536982984890528
 21
190.7468758478296138
 31
0.0
  0
LINE
  5
9BDC
  8
0
 10
3456.0536982984890528
 20
190.7468758478296138
 30
0.0
 11
3455.8025089144671256
 21
190.7732769160064095
 31
0.0
  0
ARC
  5
9BDD
  8
0
 10
3455.7971680183318313
 20
190.7223626098486022
 30
0.0
 40
0.0511946815176469
 50
90.002167519356135
 51
157.0158554496300098
  0
LINE
  5
9BDE
  8
0
 10
3455.7500375318031729
 20
190.7423529238839137
 30
0.0
 11
3455.5125109842879283
 21
190.1827754451296073
 31
0.0
  0
ARC
  5
9BDF
  8
0
 10
3455.3928453465218809
 20
190.2335704947412012
 30
0.0
 40
0.130000007411889
 50
287.1466035940164829
 51
336.9999999942991167
  0
ARC
  5
9BE0
  8
0
 10
3455.4462607291288805
 20
190.0604422703445096
 30
0.0
 40
0.051181076539416
 50
107.1466035940164971
 51
151.5569235346358141
  0
ARC
  5
9BE1
  8
0
 10
3455.3666399763669688
 20
190.1035704438162099
 30
0.0
 40
0.0393700339866296
 50
269.9999613213024077
 51
331.5569235346357004
  0
LINE
  5
9BE2
  8
0
 10
3455.3666399497888051
 20
190.0642004098295956
 30
0.0
 11
3455.2564037292891044
 21
190.0642004842468964
 31
0.0
  0
ARC
  5
9BE3
  8
0
 10
3455.2564037558668133
 20
190.103570710066208
 30
0.0
 40
0.0393702258193907
 50
214.4176470394963872
 51
269.9999613213024077
  0
ARC
  5
9BE4
  8
0
 10
3455.1816659021060332
 20
190.0523166127009063
 30
0.0
 40
0.0512538901610519
 50
34.4602541739147696
 51
89.9571196437416347
  0
ARC
  5
9BE5
  8
0
 10
3454.6509483476361311
 20
190.0445153712063018
 30
0.0
 40
0.0590551173018757
 50
89.9999972587946218
 51
135.000000154025912
  0
LINE
  5
9BE6
  8
0
 10
3454.6091900736159914
 20
190.0862736450019099
 30
0.0
 11
3454.578963028166072
 21
190.0560465995517916
 31
0.0
  0
ARC
  5
9BE7
  8
0
 10
3454.6068018777978068
 20
190.0282077499211937
 30
0.0
 40
0.039370078708654
 50
135.0000000001957119
 51
179.9999999876856975
  0
LINE
  5
9BE8
  8
0
 10
3454.5674317990888085
 20
190.0282077499296065
 30
0.0
 11
3454.5674317983339279
 21
186.5175206397296108
 31
0.0
  0
ARC
  5
9BE9
  8
0
 10
3454.6068133081889755
 20
186.517520639721198
 30
0.0
 40
0.0393815098549375
 50
179.9999999876872891
 51
224.99311237136979
  0
LINE
  5
9BEA
  8
0
 10
3454.5789630281878999
 20
186.489677054780401
 30
0.0
 11
3454.6091864397508289
 21
186.4594463759227096
 31
0.0
  0
ARC
  5
9BEB
  8
0
 10
3454.6509287573790061
 20
186.5011786111599008
 30
0.0
 40
0.0590254228175884
 50
224.9930795867871041
 51
270.0190166365953246
  0
ARC
  5
9BEC
  8
0
 10
3455.0283168036148709
 20
186.4816961844948935
 30
0.0
 40
0.0395430629483598
 50
270.1078442380594993
 51
320.3667192467373752
  0
LINE
  5
9BED
  8
0
 10
3455.0587706111878106
 20
186.4564727939296063
 30
0.0
 11
3455.0931360192880675
 21
186.4980868656296025
 31
0.0
  0
ARC
  5
9BEE
  8
0
 10
3455.0625818770081423
 20
186.5231659397481963
 30
0.0
 40
0.0395286676874577
 50
320.62058810793269
 51
8.4363917211192572
  0
ARC
  5
9BEF
  8
0
 10
3471.5067347296840126
 20
189.6697030456334119
 30
0.0
 40
16.7029926103693604
 50
181.8886673153511992
 51
190.8380983270868967
  0
ARC
  5
9BF0
  8
0
 10
3454.9309038596461505
 20
189.1193294672557954
 30
0.0
 40
0.1180879666466457
 50
89.9896780102757816
 51
180.0558933104279902
  0
LINE
  5
9BF1
  8
0
 10
3454.9309251335130284
 20
189.2374174319861879
 30
0.0
 11
3455.1815745170388254
 21
189.2374287563295923
 31
0.0
  0
ARC
  5
9BF2
  8
0
 10
3455.1817037698178865
 20
189.2886104056684928
 30
0.0
 40
0.0511818134837683
 50
269.8548985564863187
 51
325.5824252714725731
  0
ARC
  5
9BF3
  8
0
 10
3455.2564038474602057
 20
189.2374285321656942
 30
0.0
 40
0.039370302864155
 50
90.0001719761664845
 51
145.5824252714739089
  0
LINE
  5
9BF4
  8
0
 10
3455.2564037292891044
 20
189.2767988350296093
 30
0.0
 11
3455.3666399497878956
 21
189.2767991659092104
 31
0.0
  0
ARC
  5
9BF5
  8
0
 10
3455.366640067957178
 20
189.2374295865139118
 30
0.0
 40
0.0393695793954849
 50
28.4421347882648092
 51
90.0001719761664845
  0
ARC
  5
9BF6
  8
0
 10
3455.4462593174080212
 20
189.2805552531866056
 30
0.0
 40
0.0511790153421309
 50
208.4421347882677082
 51
252.8543384269185026
  0
ARC
  5
9BF7
  8
0
 10
3455.3928487446892177
 20
189.1074325147230013
 30
0.0
 40
0.1299954084911509
 50
22.9990579083925404
 51
72.8543384269184457
  0
LINE
  5
9BF8
  8
0
 10
3455.5125109842879283
 20
189.1582237998296137
 30
0.0
 11
3455.7500373781431335
 21
188.5986211004097868
 31
0.0
  0
ARC
  5
9BF9
  8
0
 10
3455.797145314340014
 20
188.6186163188355067
 30
0.0
 40
0.0511758381710894
 50
202.9990579083925013
 51
276.0160629713245726
  0
LINE
  5
9BFA
  8
0
 10
3455.8025089144889535
 20
188.5677223289551137
 30
0.0
 11
3456.5379716821830698
 21
188.6452310528742089
 31
0.0
  0
ARC
  5
9BFB
  8
0
 10
3456.5359051962409467
 20
188.6648394710387038
 30
0.0
 40
0.0197170085727998
 50
276.0160629713245726
 51
359.310101386057795
  0
LINE
  5
9BFC
  8
0
 10
3455.2239257034511866
 20
189.2596814176204134
 30
0.0
 11
3455.2239256789389401
 21
190.0813178630536129
 31
0.0
  0
LINE
  5
9BFD
  8
0
 10
3455.4012576825880387
 20
190.0848190707463914
 30
0.0
 11
3455.4012587467709636
 21
189.2561782096053946
 31
0.0
  0
LINE
  5
9BFE
  8
0
 10
3455.7500375318031729
 20
190.7423529238839137
 30
0.0
 11
3455.7500373781431335
 21
188.5986211004097868
 31
0.0
  0
ARC
  5
9BFF
  8
0
 10
3454.5574318302701613
 20
190.0010508347112079
 30
0.0
 40
0.009999968818472
 50
359.9998213423132256
 51
90.0001786578415448
  0
ARC
  5
9C00
  8
0
 10
3454.5398727439878712
 20
189.9598697012295929
 30
0.0
 40
0.0511811023999993
 50
90.0
 51
180.0000000000015916
  0
LINE
  5
9C01
  8
0
 10
3454.4886916415880478
 20
189.9598697012295929
 30
0.0
 11
3454.4886916415880478
 21
189.3811295437295996
 31
0.0
  0
ARC
  5
9C02
  8
0
 10
3454.5398727439878712
 20
189.3811295437295996
 30
0.0
 40
0.0511811024000011
 50
180.0000000000015916
 51
267.2967799308765962
  0
LINE
  5
9C03
  8
0
 10
3454.5374589106891108
 20
189.3300053943314936
 30
0.0
 11
3454.5390854141610362
 21
189.3334946303131119
 31
0.0
  0
LINE
  5
9C04
  8
0
 10
3454.5390854141592172
 20
189.3334946303075981
 30
0.0
 11
3454.5398727439878712
 21
189.3339664313295998
 31
0.0
  0
ARC
  5
9C05
  8
0
 10
3454.5545373582908724
 20
189.2495829000185097
 30
0.0
 40
0.0856482998615812
 50
88.063349478647055
 51
99.8587005241061263
  0
ARC
  5
9C06
  8
0
 10
3454.5572386107751299
 20
189.3453738465811966
 30
0.0
 40
0.0101933995969712
 50
271.0859515334313983
 51
0.3690309472099696
  0
LINE
  5
9C07
  8
0
 10
3456.3809634810891112
 20
191.7555995615520033
 30
0.0
 11
3456.3809634810891112
 21
192.7035099184990088
 31
0.0
  0
LINE
  5
9C08
  8
0
 10
3454.6508930779818911
 20
186.4421531915934906
 30
0.0
 11
3454.6509483480908784
 21
186.4421531915934906
 31
0.0
  0
ARC
  5
9C09
  8
0
 10
3455.7971545542759486
 20
190.7222909342169999
 30
0.0
 40
0.0512663584085961
 50
84.0049821366234539
 51
89.987116929251826
  0
LINE
  5
9C0A
  8
0
 10
3455.1817042606871837
 20
190.1035704885080975
 30
0.0
 11
3454.6509483476361311
 21
190.1035704885080975
 31
0.0
  0
LINE
  5
9C0B
  8
0
 10
3454.5398695440821939
 20
190.0110508035295993
 30
0.0
 11
3454.5574318302701613
 21
190.0110508035295993
 31
0.0
  0
LINE
  5
9C0C
  8
0
 10
3454.6509091666671338
 20
186.4421531915934906
 30
0.0
 11
3455.0283912329878149
 21
186.4421531915934906
 31
0.0
  0
LINE
  5
9C0D
  8
0
 10
3458.40601447563904
 20
187.2152746334386961
 30
0.0
 11
3458.287904239989075
 21
187.2178071699854058
 31
0.0
  0
LINE
  5
9C0E
  8
0
 10
3458.287904239989075
 20
187.2178071699854058
 30
0.0
 11
3458.287904239989075
 21
187.1825161139296085
 31
0.0
  0
LINE
  5
9C0F
  8
0
 10
3458.287904239989075
 20
187.1825161139296085
 30
0.0
 11
3458.4060144755881083
 21
187.1777071482190138
 31
0.0
  0
ENDSEC
  0
EOF
