  0
SECTION
  2
HEADER
  9
$ACADVER
  1
AC1009
  9
$INSBASE
 10
509.8072283438071963
 20
51.0987165585864105
 30
0.0
  9
$EXTMIN
 10
505.6900470359587985
 20
47.5554086610111924
 30
0.0
  9
$EXTMAX
 10
509.8250326826413925
 20
54.6420244561616215
 30
0.0
  9
$LIMMIN
 10
0.0
 20
0.0
  9
$LIMMAX
 10
11.6929133858000007
 20
8.2677165353999982
  9
$ORTHOMODE
 70
     0
  9
$REGENMODE
 70
     1
  9
$FILLMODE
 70
     1
  9
$QTEXTMODE
 70
     0
  9
$MIRRTEXT
 70
     0
  9
$DRAGMODE
 70
     2
  9
$LTSCALE
 40
0.6431102362
  9
$OSMODE
 70
  4095
  9
$ATTMODE
 70
     1
  9
$TEXTSIZE
 40
0.2
  9
$TRACEWID
 40
0.05
  9
$TEXTSTYLE
  7
STANDARD
  9
$CLAYER
  8
0
  9
$CELTYPE
  6
BYLAYER
  9
$CECOLOR
 62
   256
  9
$DIMSCALE
 40
1.0
  9
$DIMASZ
 40
0.1875
  9
$DIMEXO
 40
0.0625
  9
$DIMDLI
 40
0.4443307087
  9
$DIMRND
 40
0.0
  9
$DIMDLE
 40
0.0
  9
$DIMEXE
 40
0.125
  9
$DIMTP
 40
0.01
  9
$DIMTM
 40
0.01
  9
$DIMTXT
 40
1.0
  9
$DIMCEN
 40
0.1052362205
  9
$DIMTSZ
 40
0.0
  9
$DIMTOL
 70
     1
  9
$DIMLIM
 70
     0
  9
$DIMTIH
 70
     0
  9
$DIMTOH
 70
     1
  9
$DIMSE1
 70
     0
  9
$DIMSE2
 70
     0
  9
$DIMTAD
 70
     0
  9
$DIMZIN
 70
     0
  9
$DIMBLK
  1

  9
$DIMASO
 70
     1
  9
$DIMSHO
 70
     1
  9
$DIMPOST
  1
\X
  9
$DIMAPOST
  1

  9
$DIMALT
 70
     1
  9
$DIMALTD
 70
     2
  9
$DIMALTF
 40
25.3999999999999986
  9
$DIMLFAC
 40
1.0
  9
$DIMTOFL
 70
     0
  9
$DIMTVP
 40
0.0
  9
$DIMTIX
 70
     0
  9
$DIMSOXD
 70
     0
  9
$DIMSAH
 70
     0
  9
$DIMBLK1
  1

  9
$DIMBLK2
  1

  9
$DIMSTYLE
  2
STANDARD
  9
$DIMCLRD
 70
     0
  9
$DIMCLRE
 70
     0
  9
$DIMCLRT
 70
     0
  9
$DIMTFAC
 40
1.0
  9
$DIMGAP
 40
0.09
  9
$LUNITS
 70
     2
  9
$LUPREC
 70
     4
  9
$SKETCHINC
 40
0.1
  9
$FILLETRAD
 40
0.0
  9
$AUNITS
 70
     0
  9
$AUPREC
 70
     0
  9
$MENU
  1
.
  9
$ELEVATION
 40
0.0
  9
$PELEVATION
 40
0.0
  9
$THICKNESS
 40
0.0
  9
$LIMCHECK
 70
     0
  9
$BLIPMODE
 70
     0
  9
$CHAMFERA
 40
0.0
  9
$CHAMFERB
 40
0.0
  9
$SKPOLY
 70
     0
  9
$TDCREATE
 40
2458172.5207638889551163
  9
$TDUPDATE
 40
2459115.9558101850561798
  9
$TDINDWG
 40
0.2792448843
  9
$TDUSRTIMER
 40
0.2792448843
  9
$USRTIMER
 70
     1
  9
$ANGBASE
 50
0.0
  9
$ANGDIR
 70
     0
  9
$PDMODE
 70
     0
  9
$PDSIZE
 40
0.3125
  9
$PLINEWID
 40
0.0
  9
$COORDS
 70
     1
  9
$SPLFRAME
 70
     0
  9
$SPLINETYPE
 70
     6
  9
$SPLINESEGS
 70
     8
  9
$ATTDIA
 70
     1
  9
$ATTREQ
 70
     1
  9
$HANDLING
 70
     1
  9
$HANDSEED
  5
F0D8
  9
$SURFTAB1
 70
     6
  9
$SURFTAB2
 70
     6
  9
$SURFTYPE
 70
     6
  9
$SURFU
 70
     6
  9
$SURFV
 70
     6
  9
$UCSNAME
  2

  9
$UCSORG
 10
0.0
 20
0.0
 30
0.0
  9
$UCSXDIR
 10
1.0
 20
0.0
 30
0.0
  9
$UCSYDIR
 10
0.0
 20
1.0
 30
0.0
  9
$PUCSNAME
  2

  9
$PUCSORG
 10
0.0
 20
0.0
 30
0.0
  9
$PUCSXDIR
 10
1.0
 20
0.0
 30
0.0
  9
$PUCSYDIR
 10
0.0
 20
1.0
 30
0.0
  9
$USERI1
 70
     0
  9
$USERI2
 70
     0
  9
$USERI3
 70
     0
  9
$USERI4
 70
     0
  9
$USERI5
 70
     0
  9
$USERR1
 40
0.0
  9
$USERR2
 40
0.0
  9
$USERR3
 40
0.0
  9
$USERR4
 40
0.0
  9
$USERR5
 40
0.0
  9
$WORLDVIEW
 70
     1
  9
$SHADEDGE
 70
     3
  9
$SHADEDIF
 70
    70
  9
$TILEMODE
 70
     1
  9
$MAXACTVP
 70
    64
  9
$PLIMCHECK
 70
     0
  9
$PEXTMIN
 10
1.0000000000000000E+20
 20
1.0000000000000000E+20
 30
1.0000000000000000E+20
  9
$PEXTMAX
 10
-1.0000000000000000E+20
 20
-1.0000000000000000E+20
 30
-1.0000000000000000E+20
  9
$PLIMMIN
 10
0.0
 20
0.0
  9
$PLIMMAX
 10
12.0
 20
9.0
  9
$UNITMODE
 70
     0
  9
$VISRETAIN
 70
     1
  9
$PLINEGEN
 70
     0
  9
$PSLTSCALE
 70
     1
  0
ENDSEC
  0
SECTION
  2
TABLES
  0
TABLE
  2
VPORT
 70
     1
  0
VPORT
  2
*ACTIVE
 70
     0
 10
0.0
 20
0.0
 11
1.0
 21
1.0
 12
103.6925741162658028
 22
-25.7447804491328398
 13
0.0
 23
0.0
 14
1.0
 24
1.0
 15
0.0
 25
0.0
 16
0.0
 26
0.0
 36
14.6338572656650907
 17
429.6292891080536833
 27
69.7025415122186871
 37
0.0
 40
58.6084011967963789
 41
2.005224660397074
 42
50.0
 43
0.0
 44
0.0
 50
0.0
 51
0.0
 71
     0
 72
   100
 73
     1
 74
     1
 75
     0
 76
     0
 77
     0
 78
     0
  0
ENDTAB
  0
TABLE
  2
LTYPE
 70
     2
  0
LTYPE
  2
CONTINUOUS
 70
     0
  3
Solid line
 72
    65
 73
     0
 40
0.0
  0
LTYPE
  2
PHANTOM2
 70
     0
  3
___ _ _ ___ _ _ ___ _ _ ___ _ _
 72
    65
 73
     6
 40
1.25
 49
0.625
 49
-0.125
 49
0.125
 49
-0.125
 49
0.125
 49
-0.125
  0
ENDTAB
  0
TABLE
  2
LAYER
 70
     2
  0
LAYER
  2
0
 70
     0
 62
   255
  6
CONTINUOUS
  0
LAYER
  2
DEFPOINTS
 70
     0
 62
     7
  6
CONTINUOUS
  0
ENDTAB
  0
TABLE
  2
STYLE
 70
     1
  0
STYLE
  2
STANDARD
 70
     0
 40
0.0
 41
0.8
 50
0.0
 71
     0
 42
0.2
  3
txt
  4

  0
ENDTAB
  0
TABLE
  2
VIEW
 70
     0
  0
ENDTAB
  0
TABLE
  2
UCS
 70
     0
  0
ENDTAB
  0
TABLE
  2
APPID
 70
    10
  0
APPID
  2
ACAD
 70
     0
  0
APPID
  2
ACAD_MLEADERVER
 70
     0
  0
APPID
  2
ACAD_EXEMPT_FROM_CAD_STANDARDS
 70
     0
  0
APPID
  2
ACAD_DSTYLE_DIMJAG
 70
     0
  0
APPID
  2
ACAD_DSTYLE_DIMTALN
 70
     0
  0
APPID
  2
ACAD_NAV_VCDISPLAY
 70
     0
  0
APPID
  2
ACAECLAYERSTANDARD
 70
     0
  0
APPID
  2
ACCMTRANSPARENCY
 70
     0
  0
APPID
  2
DCO15
 70
     0
  0
APPID
  2
ACDBATTR
 70
     0
  0
ENDTAB
  0
TABLE
  2
DIMSTYLE
 70
     1
  0
DIMSTYLE
  2
STANDARD
 70
     0
  3

  4

  5

  6

  7

 40
1.0
 41
0.1875
 42
0.0625
 43
0.38
 44
0.125
 45
0.0
 46
0.0
 47
0.01
 48
0.01
140
0.15625
141
0.09
142
0.0
143
25.3999999999999986
144
1.0
145
0.0
146
1.0
147
0.09
 71
     1
 72
     0
 73
     1
 74
     1
 75
     0
 76
     0
 77
     0
 78
     4
170
     0
171
     2
172
     0
173
     0
174
     0
175
     0
176
     0
177
     0
178
     0
  0
ENDTAB
  0
ENDSEC
  0
SECTION
  2
BLOCKS
  0
BLOCK
  8
0
  2
$MODEL_SPACE
 70
     0
 10
0.0
 20
0.0
 30
0.0
  3
$MODEL_SPACE
  1

  0
ENDBLK
  5
21
  8
0
  0
BLOCK
 67
     1
  8
0
  2
$PAPER_SPACE
 70
     0
 10
0.0
 20
0.0
 30
0.0
  3
$PAPER_SPACE
  1

  0
ENDBLK
  5
1D
 67
     1
  8
0
  0
BLOCK
  8
0
  2
_FILLED
 70
     0
 10
0.0
 20
0.0
 30
0.0
  3
_FILLED
  1

  0
SOLID
  5
87E2
  8
0
  6
BYBLOCK
 62
     0
 10
0.0
 20
0.0
 30
0.0
 11
-1.0
 21
0.1666666667
 31
0.0
 12
-1.0
 22
-0.1666666667
 32
0.0
 13
-1.0
 23
-0.1666666667
 33
0.0
  0
ENDBLK
  5
87E3
  8
0
  6
BYBLOCK
 62
     0
  0
ENDSEC
  0
SECTION
  2
ENTITIES
  0
ATTDEF
  5
C848
  8
DEFPOINTS
 10
509.8143660159747128
 20
51.1068326759108089
 30
0.0
 40
0.001
  1
K-72806T-B4
  3

  2
MODELNUMBER
 70
     0
1001
ACDBATTR
1070
     0
1070
     1
  0
ATTDEF
  5
C849
  8
DEFPOINTS
 10
509.8143660159747128
 20
51.1051660092441509
 30
0.0
 40
0.001
  1
MODULO
  3

  2
TRADENAME
 70
     0
1001
ACDBATTR
1070
     0
1070
     1
  0
ATTDEF
  5
C84A
  8
DEFPOINTS
 10
509.8143660159747128
 20
51.1034993425774786
 30
0.0
 40
0.001
  1
VALVE TRIM
  3

  2
PRODUCT
 70
     0
1001
ACDBATTR
1070
     0
1070
     1
  0
LINE
  5
EFB8
  8
0
 10
509.8072283438071963
 20
54.6420244561616215
 30
0.0
 11
509.8072283438071963
 21
47.5554086610111924
 31
0.0
  0
LINE
  5
EFB9
  8
0
 10
509.8072283438071963
 20
47.5554086610111924
 30
0.0
 11
509.5275158049083757
 21
47.5651763081462704
 31
0.0
  0
LINE
  5
EFBA
  8
0
 10
509.5275158049072957
 20
54.632254927116918
 30
0.0
 11
509.8072283438071963
 21
54.6420244561616215
 31
0.0
  0
ARC
  5
EFBB
  8
0
 10
509.5316377851743255
 20
54.5142166574010218
 30
0.0
 40
0.1181102190280108
 50
91.9999966343762736
 51
180.0000216762244918
  0
LINE
  5
EFBC
  8
0
 10
509.413527556407189
 20
54.5142166127173695
 30
0.0
 11
509.413527556607221
 21
47.6832146224458526
 31
0.0
  0
ARC
  5
EFBD
  8
0
 10
509.5316377928224938
 20
47.683214594828172
 30
0.0
 40
0.1181102363152032
 50
179.9999866025420943
 51
267.9999999454460067
  0
ARC
  5
EFBE
  8
0
 10
509.3146474382455153
 20
47.7286054572724865
 30
0.0
 40
0.0993218996002946
 50
5.4060476040917376
 51
84.5677525674709329
  0
ARC
  5
EFBF
  8
0
 10
509.3347873991100982
 20
47.9451024514698005
 30
0.0
 40
0.1181102364027993
 50
179.9999999999886029
 51
264.7840918992923775
  0
LINE
  5
EFC0
  8
0
 10
509.216677162707299
 20
47.9451024514698005
 30
0.0
 11
509.2166771628072865
 21
54.2523287561173788
 31
0.0
  0
ARC
  5
EFC1
  8
0
 10
509.3347873990072117
 20
54.2523287839816604
 30
0.0
 40
0.1181102361999809
 50
95.2160567127300652
 51
180.0000135170703004
  0
ARC
  5
EFC2
  8
0
 10
509.3151023598744018
 20
54.4679675858317012
 30
0.0
 40
0.0984251965341666
 50
275.2157306789491145
 51
0.0000001454949573
  0
LINE
  5
EFC3
  8
0
 10
509.8072283436029011
 20
47.6001835419812096
 30
0.0
 11
509.6891181076072144
 21
47.6027160793816222
 31
0.0
  0
LINE
  5
EFC4
  8
0
 10
509.6891181076072144
 20
47.6027160793816222
 30
0.0
 11
509.6891181076072144
 21
47.5674250224816433
 31
0.0
  0
LINE
  5
EFC5
  8
0
 10
509.6891181076072144
 20
47.5674250224816433
 30
0.0
 11
509.8072283436569023
 21
47.5626160567527165
 31
0.0
  0
ARC
  5
EFC6
  8
0
 10
506.5570904763072235
 20
52.6902736993719998
 30
0.0
 40
0.1598204624000066
 50
38.8252679294119929
 51
132.584010249474801
  0
ARC
  5
EFC7
  8
0
 10
506.5579042396219052
 20
52.6896786061275719
 30
0.0
 40
0.1608093908745662
 50
132.6540155091061024
 51
177.3410370771287887
  0
ARC
  5
EFC8
  8
0
 10
506.3324987435698858
 20
52.6965901639792094
 30
0.0
 40
0.0202884675345344
 50
1.5493274844293301
 51
88.3171264287521751
  0
ARC
  5
EFC9
  8
0
 10
506.3524303206569925
 20
52.513228404021973
 30
0.0
 40
0.2045573819669421
 50
95.4239727834577707
 51
110.6358115181647008
  0
ARC
  5
EFCA
  8
0
 10
506.3445723240911889
 20
52.5322849685158886
 30
0.0
 40
0.1839552355470384
 50
110.4371637720377066
 51
136.7189762568673075
  0
ARC
  5
EFCB
  8
0
 10
506.4383486573980235
 20
52.4439732435633132
 30
0.0
 40
0.3127689050567695
 50
136.7189762568673075
 51
151.9852270318336025
  0
ARC
  5
EFCC
  8
0
 10
506.9453365962805265
 20
52.1742352749549312
 30
0.0
 40
0.8870470100557696
 50
151.9852270318336025
 51
163.5698740849406079
  0
ARC
  5
EFCD
  8
0
 10
507.0544373111197274
 20
52.1420628449220231
 30
0.0
 40
1.000792476922266
 50
163.5698740849406079
 51
196.4301259150578005
  0
ARC
  5
EFCE
  8
0
 10
500.2327381607058783
 20
54.0176510171940123
 30
0.0
 40
6.6264579249151643
 50
331.6028423006476942
 51
338.480119600902583
  0
ARC
  5
EFCF
  8
0
 10
511.3823380371692906
 20
48.3997647299528992
 30
0.0
 40
5.8643915731110168
 50
155.1285110732569876
 51
162.7871652288827136
  0
ARC
  5
EFD0
  8
0
 10
507.4446389284059933
 20
49.578779022365751
 30
0.0
 40
1.754591892447124
 50
161.5121131738245026
 51
181.4583141699743862
  0
ARC
  5
EFD1
  8
0
 10
507.8709921590372005
 20
49.5833333096638924
 30
0.0
 40
2.180932027354102
 50
181.2928649941783021
 51
188.3386837183176112
  0
ARC
  5
EFD2
  8
0
 10
506.634725165383486
 20
49.4117511044549431
 30
0.0
 40
0.9328997233607609
 50
188.9234097143421138
 51
223.2903625968874906
  0
ARC
  5
EFD3
  8
0
 10
506.2241696592748212
 20
49.038906905748469
 30
0.0
 40
0.3785390024964912
 50
224.8234291282122967
 51
248.5384266412251009
  0
ARC
  5
EFD4
  8
0
 10
506.1313980410185991
 20
48.8178002435804714
 30
0.0
 40
0.138926761036276
 50
250.7830673878681864
 51
269.7032708536569885
  0
ARC
  5
EFD5
  8
0
 10
506.1289766598774804
 20
48.8254592416021822
 30
0.0
 40
0.146593775493609
 50
270.6651965633500936
 51
290.1590752033935132
  0
ARC
  5
EFD6
  8
0
 10
506.1432433730248022
 20
48.7718433706413066
 30
0.0
 40
0.0914871522038028
 50
293.3451764306419136
 51
311.331211017645785
  0
ARC
  5
EFD7
  8
0
 10
506.1548669348542262
 20
48.7484688180816477
 30
0.0
 40
0.0665975238098986
 50
317.1126391259804222
 51
349.2076701370812088
  0
ARC
  5
EFD8
  8
0
 10
505.9756011904166826
 20
48.7764739276970332
 30
0.0
 40
0.2480104174585467
 50
350.6072722890896785
 51
9.3927277109102736
  0
ARC
  5
EFD9
  8
0
 10
502.8886142261501959
 20
48.4238246029771702
 30
0.0
 40
3.35478572758077
 50
6.7295696012853554
 51
11.5927383687148104
  0
ARC
  5
EFDA
  8
0
 10
530.2194850255377787
 20
53.6815756561511606
 30
0.0
 40
24.4775058103364884
 50
190.2065428626621895
 51
190.7927725687557938
  0
ARC
  5
EFDB
  8
0
 10
508.1330205465783934
 20
49.6985680605407083
 30
0.0
 40
2.0347835554585791
 50
175.001102291135112
 51
190.0285852328075862
  0
ARC
  5
EFDC
  8
0
 10
509.5635052040868231
 20
49.4425919182955695
 30
0.0
 40
3.4845711604050171
 50
156.3138517245052128
 51
172.8572136218805042
  0
ARC
  5
EFDD
  8
0
 10
508.9932878777751739
 20
49.7339912138633693
 30
0.0
 40
2.845577114652265
 50
146.4641728380391896
 51
157.0745833865358918
  0
LINE
  5
EFDE
  8
0
 10
506.6815984224676868
 20
51.4545239479031835
 30
0.0
 11
506.6815984225071929
 21
52.8295628345220294
 31
0.0
  0
ARC
  5
EFDF
  8
0
 10
506.238069476492285
 20
51.554625961276443
 30
0.0
 40
0.4568567505767402
 50
327.0373750308452827
 51
338.6056818527848122
  0
ARC
  5
EFE0
  8
0
 10
506.4181828361740259
 20
51.4840668052459378
 30
0.0
 40
0.2634157601343529
 50
338.6044881659396992
 51
359.934174935589283
  0
ARC
  5
EFE1
  8
0
 10
506.332961797758685
 20
51.5869178977795997
 30
0.0
 40
0.0198181166352356
 50
270.3838418757496811
 51
0.1997082219566354
  0
ARC
  5
EFE2
  8
0
 10
506.3550968738094866
 20
51.7797114972893198
 30
0.0
 40
0.2137467060712744
 50
249.5279425265601105
 51
264.0917151708413257
  0
ARC
  5
EFE3
  8
0
 10
506.3445723240911889
 20
51.7518407213281719
 30
0.0
 40
0.1839552355470384
 50
223.2810237431326925
 51
249.5628362279622081
  0
ARC
  5
EFE4
  8
0
 10
506.4383486573980235
 20
51.8401524462807402
 30
0.0
 40
0.3127689050567695
 50
208.0147729681663975
 51
223.2810237431326925
  0
ARC
  5
EFE5
  8
0
 10
506.9453365962805265
 20
52.1098904148891293
 30
0.0
 40
0.8870470100557696
 50
196.4301259150578005
 51
208.0147729681663975
  0
LINE
  5
EFE6
  8
0
 10
506.3527797940071764
 20
51.5869869749597569
 30
0.0
 11
506.3527797940071764
 21
52.6971387148842965
 31
0.0
  0
LINE
  5
EFE7
  8
0
 10
506.3578979042072206
 20
51.5869069537720293
 30
0.0
 11
506.3578979042072206
 21
52.6971431742720213
 31
0.0
  0
LINE
  5
EFE8
  8
0
 10
506.3578979042072206
 20
52.6971431742720213
 30
0.0
 11
506.3972681900692123
 21
52.6971431742720213
 31
0.0
  0
LINE
  5
EFE9
  8
0
 10
506.3527797940071764
 20
52.653836087672012
 30
0.0
 11
506.3578979042072206
 21
52.653836087672012
 31
0.0
  0
LINE
  5
EFEA
  8
0
 10
506.3578979042072206
 20
51.5869069537720293
 30
0.0
 11
506.3972679829071808
 21
51.5869069537720293
 31
0.0
  0
LINE
  5
EFEB
  8
0
 10
506.3527797940071764
 20
51.6302140403720173
 30
0.0
 11
506.3578979042072206
 21
51.6302140403720173
 31
0.0
  0
LINE
  5
EFEC
  8
0
 10
506.3972679829071808
 20
51.5869069537720293
 30
0.0
 11
506.3972679829071808
 21
52.6971387148503325
 31
0.0
  0
ARC
  5
EFED
  8
0
 10
506.7391023507778982
 20
52.8198687249699006
 30
0.0
 40
0.073298801140799
 50
41.9514879780772532
 51
71.1080040113641019
  0
ARC
  5
EFEE
  8
0
 10
506.7421226498246938
 20
52.8156914625893705
 30
0.0
 40
0.076389215997691
 50
74.2674180107250805
 51
88.7757145843200277
  0
ARC
  5
EFEF
  8
0
 10
506.7440937396683012
 20
52.832740146569833
 30
0.0
 40
0.0593240619308529
 50
90.3273570228454474
 51
118.6172532682199972
  0
ARC
  5
EFF0
  8
0
 10
506.7429844232576102
 20
52.8298371955912174
 30
0.0
 40
0.0613866138675478
 50
116.4100706195481933
 51
180.2560783641910973
  0
ARC
  5
EFF1
  8
0
 10
507.5028342988979944
 20
52.893630499857089
 30
0.0
 40
0.4433455452600445
 50
50.8004911267998409
 51
84.9047078575555361
  0
ARC
  5
EFF2
  8
0
 10
507.5467071513444921
 20
53.0449845220506973
 30
0.0
 40
0.2902744395585266
 50
90.8879212928948732
 51
117.4461002513921954
  0
ARC
  5
EFF3
  8
0
 10
507.6765155903347022
 20
52.8799434723188497
 30
0.0
 40
0.4981089863681691
 50
121.9515140369777981
 51
150.3057919607074098
  0
ARC
  5
EFF4
  8
0
 10
503.5608248038881243
 20
55.1610594815968582
 30
0.0
 40
4.2075034773187161
 50
327.8285508112483058
 51
331.0851438674940255
  0
ARC
  5
EFF5
  8
0
 10
506.8630542624247823
 20
53.059853196543493
 30
0.0
 40
0.2942070945587045
 50
297.7676599927331154
 51
331.7844674444493762
  0
ARC
  5
EFF6
  8
0
 10
506.9668198689292922
 20
53.0013271024493022
 30
0.0
 40
0.2180479138872237
 50
217.4069497014453987
 51
254.2893050912558124
  0
ARC
  5
EFF7
  8
0
 10
506.9405759516596959
 20
52.9479273294446671
 30
0.0
 40
0.1599021622873732
 50
258.1634778061517181
 51
291.8629691332942002
  0
ARC
  5
EFF8
  8
0
 10
506.7391023507385057
 20
51.4641769435150493
 30
0.0
 40
0.073298801140799
 50
288.8919959886328002
 51
318.0485120219227042
  0
ARC
  5
EFF9
  8
0
 10
506.7427089927198836
 20
51.4582473577596105
 30
0.0
 40
0.0665376010190065
 50
270.90058218814562
 51
287.6067408190775154
  0
ARC
  5
EFFA
  8
0
 10
506.7458322449621733
 20
51.4557106248167386
 30
0.0
 40
0.0640263610115192
 50
241.905115728710598
 51
268.1406102982675179
  0
ARC
  5
EFFB
  8
0
 10
506.7429848801734238
 20
51.4542089738224675
 30
0.0
 40
0.0613872657667336
 50
179.7060177800707947
 51
243.5897553526972104
  0
ARC
  5
EFFC
  8
0
 10
507.4607530962711053
 20
51.4559005096409123
 30
0.0
 40
0.5207636538503766
 50
287.5502740128835057
 51
308.233751137871991
  0
ARC
  5
EFFD
  8
0
 10
507.5422089048129237
 20
51.2196055774398218
 30
0.0
 40
0.270981070669953
 50
241.5018508790774945
 51
286.1945543900833968
  0
ARC
  5
EFFE
  8
0
 10
507.676515590295196
 20
51.4041021961661002
 30
0.0
 40
0.4981089863681691
 50
209.6942080392925902
 51
238.0484859630221877
  0
ARC
  5
EFFF
  8
0
 10
503.5608248038486181
 20
49.1229861868881201
 30
0.0
 40
4.2075034773187161
 50
28.9148561325058111
 51
32.1714491887517013
  0
ARC
  5
F000
  8
0
 10
506.8630542623853898
 20
51.2241924719414783
 30
0.0
 40
0.2942070945587045
 50
28.2155325555505812
 51
62.2323400072668704
  0
ARC
  5
F001
  8
0
 10
506.9668198688898997
 20
51.2827185660356406
 30
0.0
 40
0.2180479138872237
 50
105.7106949087441023
 51
142.5930502985538908
  0
ARC
  5
F002
  8
0
 10
506.9405759516203034
 20
51.3361183390402687
 30
0.0
 40
0.1599021622873732
 50
68.1370308667057429
 51
101.8365221938482961
  0
ARC
  5
F003
  8
0
 10
507.7656940620419164
 20
51.071322376002783
 30
0.0
 40
0.0299999999654372
 50
305.3209209233127126
 51
0.0000000160466871
  0
ARC
  5
F004
  8
0
 10
507.765694062007185
 20
53.2127232925111926
 30
0.0
 40
0.0300000000000127
 50
0.0000000000113991
 51
54.6790790425428526
  0
LINE
  5
F005
  8
0
 10
507.7956940620072146
 20
53.2127232925111926
 30
0.0
 11
507.7956940620072146
 21
51.0713223760111887
 31
0.0
  0
LINE
  5
F006
  8
0
 10
507.7956940620072146
 20
53.0864974505829892
 30
0.0
 11
507.8190393674072993
 21
53.0869047240111982
 31
0.0
  0
LINE
  5
F007
  8
0
 10
507.8190393674072993
 20
53.0869047240111982
 30
0.0
 11
508.133999997307285
 21
53.0869047240111982
 31
0.0
  0
LINE
  5
F008
  8
0
 10
507.7956940620072146
 20
51.1975482179393921
 30
0.0
 11
507.8190393674072993
 21
51.1971409445111902
 31
0.0
  0
LINE
  5
F009
  8
0
 10
507.8190393674072993
 20
51.1971409445111902
 30
0.0
 11
508.133999997307285
 21
51.1971409445111902
 31
0.0
  0
LINE
  5
F00A
  8
0
 10
508.133999997307285
 20
51.1892669295111773
 30
0.0
 11
508.133999997307285
 21
53.0947787390111898
 31
0.0
  0
ARC
  5
F00B
  8
0
 10
508.1458110210779182
 20
53.094778739640482
 30
0.0
 40
0.011811023770715
 50
90.0000003430317292
 51
180.0000030526973944
  0
ARC
  5
F00C
  8
0
 10
508.145811021007205
 20
51.1892669287111985
 30
0.0
 40
0.0118110235999947
 50
180.0000000030028104
 51
270.0000000000259774
  0
LINE
  5
F00D
  8
0
 10
508.145811021007205
 20
51.1774559051111808
 30
0.0
 11
509.216677162707299
 21
51.1774559051111808
 31
0.0
  0
LINE
  5
F00E
  8
0
 10
508.1458110210779182
 20
53.1065897634112005
 30
0.0
 11
509.216677162707299
 21
53.1065897634112005
 31
0.0
  0
ENDSEC
  0
EOF
