  0
SECTION
  2
HEADER
  9
$ACADVER
  1
AC1009
  9
$INSBASE
 10
483.1168820353075262
 20
58.2607115483942692
 30
0.0
  9
$EXTMIN
 10
479.5735733267569003
 20
54.1436568499942794
 30
0.0
  9
$EXTMAX
 10
486.660190743857811
 20
58.2724360971716493
 30
0.0
  9
$LIMMIN
 10
0.0
 20
0.0
  9
$LIMMAX
 10
11.6929133858000007
 20
8.2677165353999982
  9
$ORTHOMODE
 70
     0
  9
$REGENMODE
 70
     1
  9
$FILLMODE
 70
     1
  9
$QTEXTMODE
 70
     0
  9
$MIRRTEXT
 70
     0
  9
$DRAGMODE
 70
     2
  9
$LTSCALE
 40
0.6431102362
  9
$OSMODE
 70
  4095
  9
$ATTMODE
 70
     1
  9
$TEXTSIZE
 40
0.2
  9
$TRACEWID
 40
0.05
  9
$TEXTSTYLE
  7
STANDARD
  9
$CLAYER
  8
0
  9
$CELTYPE
  6
BYLAYER
  9
$CECOLOR
 62
   256
  9
$DIMSCALE
 40
1.0
  9
$DIMASZ
 40
0.1875
  9
$DIMEXO
 40
0.0625
  9
$DIMDLI
 40
0.4443307087
  9
$DIMRND
 40
0.0
  9
$DIMDLE
 40
0.0
  9
$DIMEXE
 40
0.125
  9
$DIMTP
 40
0.01
  9
$DIMTM
 40
0.01
  9
$DIMTXT
 40
1.0
  9
$DIMCEN
 40
0.1052362205
  9
$DIMTSZ
 40
0.0
  9
$DIMTOL
 70
     1
  9
$DIMLIM
 70
     0
  9
$DIMTIH
 70
     0
  9
$DIMTOH
 70
     1
  9
$DIMSE1
 70
     0
  9
$DIMSE2
 70
     0
  9
$DIMTAD
 70
     0
  9
$DIMZIN
 70
     0
  9
$DIMBLK
  1

  9
$DIMASO
 70
     1
  9
$DIMSHO
 70
     1
  9
$DIMPOST
  1
\X
  9
$DIMAPOST
  1

  9
$DIMALT
 70
     1
  9
$DIMALTD
 70
     2
  9
$DIMALTF
 40
25.3999999999999986
  9
$DIMLFAC
 40
1.0
  9
$DIMTOFL
 70
     0
  9
$DIMTVP
 40
0.0
  9
$DIMTIX
 70
     0
  9
$DIMSOXD
 70
     0
  9
$DIMSAH
 70
     0
  9
$DIMBLK1
  1

  9
$DIMBLK2
  1

  9
$DIMSTYLE
  2
STANDARD
  9
$DIMCLRD
 70
     0
  9
$DIMCLRE
 70
     0
  9
$DIMCLRT
 70
     0
  9
$DIMTFAC
 40
1.0
  9
$DIMGAP
 40
0.09
  9
$LUNITS
 70
     2
  9
$LUPREC
 70
     4
  9
$SKETCHINC
 40
0.1
  9
$FILLETRAD
 40
0.0
  9
$AUNITS
 70
     0
  9
$AUPREC
 70
     0
  9
$MENU
  1
.
  9
$ELEVATION
 40
0.0
  9
$PELEVATION
 40
0.0
  9
$THICKNESS
 40
0.0
  9
$LIMCHECK
 70
     0
  9
$BLIPMODE
 70
     0
  9
$CHAMFERA
 40
0.0
  9
$CHAMFERB
 40
0.0
  9
$SKPOLY
 70
     0
  9
$TDCREATE
 40
2458172.5207638889551163
  9
$TDUPDATE
 40
2459115.9558912040665746
  9
$TDINDWG
 40
0.2788397917
  9
$TDUSRTIMER
 40
0.2788397917
  9
$USRTIMER
 70
     1
  9
$ANGBASE
 50
0.0
  9
$ANGDIR
 70
     0
  9
$PDMODE
 70
     0
  9
$PDSIZE
 40
0.3125
  9
$PLINEWID
 40
0.0
  9
$COORDS
 70
     1
  9
$SPLFRAME
 70
     0
  9
$SPLINETYPE
 70
     6
  9
$SPLINESEGS
 70
     8
  9
$ATTDIA
 70
     1
  9
$ATTREQ
 70
     1
  9
$HANDLING
 70
     1
  9
$HANDSEED
  5
F0E0
  9
$SURFTAB1
 70
     6
  9
$SURFTAB2
 70
     6
  9
$SURFTYPE
 70
     6
  9
$SURFU
 70
     6
  9
$SURFV
 70
     6
  9
$UCSNAME
  2

  9
$UCSORG
 10
0.0
 20
0.0
 30
0.0
  9
$UCSXDIR
 10
1.0
 20
0.0
 30
0.0
  9
$UCSYDIR
 10
0.0
 20
1.0
 30
0.0
  9
$PUCSNAME
  2

  9
$PUCSORG
 10
0.0
 20
0.0
 30
0.0
  9
$PUCSXDIR
 10
1.0
 20
0.0
 30
0.0
  9
$PUCSYDIR
 10
0.0
 20
1.0
 30
0.0
  9
$USERI1
 70
     0
  9
$USERI2
 70
     0
  9
$USERI3
 70
     0
  9
$USERI4
 70
     0
  9
$USERI5
 70
     0
  9
$USERR1
 40
0.0
  9
$USERR2
 40
0.0
  9
$USERR3
 40
0.0
  9
$USERR4
 40
0.0
  9
$USERR5
 40
0.0
  9
$WORLDVIEW
 70
     1
  9
$SHADEDGE
 70
     3
  9
$SHADEDIF
 70
    70
  9
$TILEMODE
 70
     1
  9
$MAXACTVP
 70
    64
  9
$PLIMCHECK
 70
     0
  9
$PEXTMIN
 10
1.0000000000000000E+20
 20
1.0000000000000000E+20
 30
1.0000000000000000E+20
  9
$PEXTMAX
 10
-1.0000000000000000E+20
 20
-1.0000000000000000E+20
 30
-1.0000000000000000E+20
  9
$PLIMMIN
 10
0.0
 20
0.0
  9
$PLIMMAX
 10
12.0
 20
9.0
  9
$UNITMODE
 70
     0
  9
$VISRETAIN
 70
     1
  9
$PLINEGEN
 70
     0
  9
$PSLTSCALE
 70
     1
  0
ENDSEC
  0
SECTION
  2
TABLES
  0
TABLE
  2
VPORT
 70
     1
  0
VPORT
  2
*ACTIVE
 70
     0
 10
0.0
 20
0.0
 11
1.0
 21
1.0
 12
74.5969362071822957
 22
-21.8329479344865085
 13
0.0
 23
0.0
 14
1.0
 24
1.0
 15
0.0
 25
0.0
 16
0.0
 26
0.0
 36
14.6338572656650907
 17
429.6292891080536833
 27
69.7025415122186871
 37
0.0
 40
71.7937325059276361
 41
2.005224660397074
 42
50.0
 43
0.0
 44
0.0
 50
0.0
 51
0.0
 71
     0
 72
   100
 73
     1
 74
     1
 75
     0
 76
     0
 77
     0
 78
     0
  0
ENDTAB
  0
TABLE
  2
LTYPE
 70
     2
  0
LTYPE
  2
CONTINUOUS
 70
     0
  3
Solid line
 72
    65
 73
     0
 40
0.0
  0
LTYPE
  2
PHANTOM2
 70
     0
  3
___ _ _ ___ _ _ ___ _ _ ___ _ _
 72
    65
 73
     6
 40
1.25
 49
0.625
 49
-0.125
 49
0.125
 49
-0.125
 49
0.125
 49
-0.125
  0
ENDTAB
  0
TABLE
  2
LAYER
 70
     2
  0
LAYER
  2
0
 70
     0
 62
   255
  6
CONTINUOUS
  0
LAYER
  2
DEFPOINTS
 70
     0
 62
     7
  6
CONTINUOUS
  0
ENDTAB
  0
TABLE
  2
STYLE
 70
     1
  0
STYLE
  2
STANDARD
 70
     0
 40
0.0
 41
0.8
 50
0.0
 71
     0
 42
0.2
  3
txt
  4

  0
ENDTAB
  0
TABLE
  2
VIEW
 70
     0
  0
ENDTAB
  0
TABLE
  2
UCS
 70
     0
  0
ENDTAB
  0
TABLE
  2
APPID
 70
    10
  0
APPID
  2
ACAD
 70
     0
  0
APPID
  2
ACAD_MLEADERVER
 70
     0
  0
APPID
  2
ACAD_EXEMPT_FROM_CAD_STANDARDS
 70
     0
  0
APPID
  2
ACAD_DSTYLE_DIMJAG
 70
     0
  0
APPID
  2
ACAD_DSTYLE_DIMTALN
 70
     0
  0
APPID
  2
ACAD_NAV_VCDISPLAY
 70
     0
  0
APPID
  2
ACAECLAYERSTANDARD
 70
     0
  0
APPID
  2
ACCMTRANSPARENCY
 70
     0
  0
APPID
  2
DCO15
 70
     0
  0
APPID
  2
ACDBATTR
 70
     0
  0
ENDTAB
  0
TABLE
  2
DIMSTYLE
 70
     1
  0
DIMSTYLE
  2
STANDARD
 70
     0
  3

  4

  5

  6

  7

 40
1.0
 41
0.1875
 42
0.0625
 43
0.38
 44
0.125
 45
0.0
 46
0.0
 47
0.01
 48
0.01
140
0.15625
141
0.09
142
0.0
143
25.3999999999999986
144
1.0
145
0.0
146
1.0
147
0.09
 71
     1
 72
     0
 73
     1
 74
     1
 75
     0
 76
     0
 77
     0
 78
     4
170
     0
171
     2
172
     0
173
     0
174
     0
175
     0
176
     0
177
     0
178
     0
  0
ENDTAB
  0
ENDSEC
  0
SECTION
  2
BLOCKS
  0
BLOCK
  8
0
  2
$MODEL_SPACE
 70
     0
 10
0.0
 20
0.0
 30
0.0
  3
$MODEL_SPACE
  1

  0
ENDBLK
  5
21
  8
0
  0
BLOCK
 67
     1
  8
0
  2
$PAPER_SPACE
 70
     0
 10
0.0
 20
0.0
 30
0.0
  3
$PAPER_SPACE
  1

  0
ENDBLK
  5
1D
 67
     1
  8
0
  0
BLOCK
  8
0
  2
_FILLED
 70
     0
 10
0.0
 20
0.0
 30
0.0
  3
_FILLED
  1

  0
SOLID
  5
87E2
  8
0
  6
BYBLOCK
 62
     0
 10
0.0
 20
0.0
 30
0.0
 11
-1.0
 21
0.1666666667
 31
0.0
 12
-1.0
 22
-0.1666666667
 32
0.0
 13
-1.0
 23
-0.1666666667
 33
0.0
  0
ENDBLK
  5
87E3
  8
0
  6
BYBLOCK
 62
     0
  0
ENDSEC
  0
SECTION
  2
ENTITIES
  0
ATTDEF
  5
C848
  8
DEFPOINTS
 10
483.1218493836557855
 20
58.2714360971716587
 30
0.0
 40
0.001
  1
K-72806T-B4
  3

  2
MODELNUMBER
 70
     0
1001
ACDBATTR
1070
     0
1070
     1
  0
ATTDEF
  5
C849
  8
DEFPOINTS
 10
483.1218493836557855
 20
58.2697694305050007
 30
0.0
 40
0.001
  1
MODULO
  3

  2
TRADENAME
 70
     0
1001
ACDBATTR
1070
     0
1070
     1
  0
ATTDEF
  5
C84A
  8
DEFPOINTS
 10
483.1218493836557855
 20
58.2681027638383284
 30
0.0
 40
0.001
  1
VALVE TRIM
  3

  2
PRODUCT
 70
     0
1001
ACDBATTR
1070
     0
1070
     1
  0
LINE
  5
EFBC
  8
0
 10
479.5735733267569003
 20
58.2607115483942692
 30
0.0
 11
486.660190743857811
 21
58.2607115483942692
 31
0.0
  0
LINE
  5
EFBD
  8
0
 10
486.660190743857811
 20
58.2607115483942692
 30
0.0
 11
486.6504231439405999
 21
57.9809990094942478
 31
0.0
  0
ARC
  5
EFBE
  8
0
 10
486.5323848571650842
 20
57.9851209973723911
 30
0.0
 40
0.118110236378147
 50
270.0000000851480877
 51
357.9999999650841005
  0
ARC
  5
EFBF
  8
0
 10
486.4861358027089864
 20
57.7685855644089798
 30
0.0
 40
0.098425196585275
 50
89.9999998651876467
 51
141.9321667499114881
  0
ARC
  5
EFC0
  8
0
 10
486.4861358029405096
 20
57.7685855641942467
 30
0.0
 40
0.0984251968999702
 50
141.9321667346139009
 51
174.7840908006469931
  0
ARC
  5
EFC1
  8
0
 10
486.2704970007750944
 20
57.7882706036436176
 30
0.0
 40
0.1181102362805954
 50
312.3920457220701792
 51
354.7840913603645845
  0
ARC
  5
EFC2
  8
0
 10
486.2704970004443794
 20
57.7882706042333467
 30
0.0
 40
0.1181102369390921
 50
270.0000002027347819
 51
312.3920456476647018
  0
LINE
  5
EFC3
  8
0
 10
486.2704970008405212
 20
57.6701603673942387
 30
0.0
 11
479.9632707879181908
 21
57.6701603672942582
 31
0.0
  0
LINE
  5
EFC4
  8
0
 10
479.5735733267569003
 20
58.2607115483942692
 30
0.0
 11
479.5833445249406282
 21
57.9809990094942478
 31
0.0
  0
ARC
  5
EFC5
  8
0
 10
479.7013828117563889
 20
57.9851209967783205
 30
0.0
 40
0.1181102363624626
 50
181.9999997474066902
 51
270.0000265319122832
  0
LINE
  5
EFC6
  8
0
 10
479.7013828664495918
 20
57.8670107605158677
 30
0.0
 11
486.5323848573406167
 21
57.8670107609942619
 31
0.0
  0
ARC
  5
EFC7
  8
0
 10
479.7476318659358867
 20
57.7685855634430965
 30
0.0
 40
0.0984251970806122
 50
38.0678529073104315
 51
89.9999999584942145
  0
ARC
  5
EFC8
  8
0
 10
479.747631867479015
 20
57.7685855644588599
 30
0.0
 40
0.0984251952394869
 50
5.2159084615015914
 51
38.0678529956369971
  0
ARC
  5
EFC9
  8
0
 10
479.9632706683728998
 20
57.7882706032504387
 30
0.0
 40
0.1181102365106005
 50
185.2159084379266005
 51
227.6079542667499993
  0
ARC
  5
EFCA
  8
0
 10
479.9632706685168841
 20
57.7882706036997291
 30
0.0
 40
0.1181102369395396
 50
227.6079543620811876
 51
270.0000579115265964
  0
ARC
  5
EFCB
  8
0
 10
482.43903614464881
 20
55.1925855553649711
 30
0.0
 40
0.073298801140799
 50
131.9514879780770968
 51
161.1080040113660061
  0
ARC
  5
EFCC
  8
0
 10
482.4570912170153747
 20
55.1931795914419894
 30
0.0
 40
0.0904162779663813
 50
165.1720898647672868
 51
177.4273673751270053
  0
ARC
  5
EFCD
  8
0
 10
482.4273577400670092
 20
55.1980478426745407
 30
0.0
 40
0.060597084334278
 50
180.7657450271258881
 51
208.4678324875548867
  0
ARC
  5
EFCE
  8
0
 10
482.429067674027408
 20
55.1964676278446476
 30
0.0
 40
0.0613866138675478
 50
206.4100706195497139
 51
270.2560783641911257
  0
ARC
  5
EFCF
  8
0
 10
482.5686238273934805
 20
55.0105771896430795
 30
0.0
 40
0.1598115428403842
 50
128.8244622194004023
 51
179.8362020995994897
  0
ARC
  5
EFD0
  8
0
 10
482.5843994522169851
 20
55.0166881268474981
 30
0.0
 40
0.1756775244060708
 50
181.8443457998835129
 51
220.572458379997812
  0
ARC
  5
EFD1
  8
0
 10
482.5692262635409975
 20
55.0113854130089095
 30
0.0
 40
0.1608093908745662
 50
222.654015509106614
 51
267.341037077128874
  0
ARC
  5
EFD2
  8
0
 10
482.5616392963707995
 20
54.7865807115760717
 30
0.0
 40
0.0196806646771807
 50
89.6306779229544048
 51
179.4849176755824942
  0
ARC
  5
EFD3
  8
0
 10
482.5775961758100152
 20
54.7874068974623825
 30
0.0
 40
0.0356426627607406
 50
181.0437490665590019
 51
185.000705521446406
  0
ARC
  5
EFD4
  8
0
 10
482.7567584470168072
 20
54.8092841800909198
 30
0.0
 40
0.2161182605718983
 50
186.6384766576825882
 51
200.4371637720356887
  0
ARC
  5
EFD5
  8
0
 10
482.7266199011526737
 20
54.7980534974782501
 30
0.0
 40
0.1839552355470384
 50
200.4371637720356887
 51
226.718976256866199
  0
ARC
  5
EFD6
  8
0
 10
482.8149316261053059
 20
54.8918298307850279
 30
0.0
 40
0.3127689050567695
 50
226.718976256866199
 51
241.9852270318322951
  0
ARC
  5
EFD7
  8
0
 10
483.0846695947137164
 20
55.3988177696674811
 30
0.0
 40
0.8870470100557696
 50
241.9852270318322951
 51
253.5698740849423984
  0
ARC
  5
EFD8
  8
0
 10
483.1168420247465747
 20
55.507918484506817
 30
0.0
 40
1.000792476922266
 50
253.5698740849423984
 51
286.4301259150573742
  0
LINE
  5
EFD9
  8
0
 10
483.8043846397220022
 20
55.135081627094273
 30
0.0
 11
482.4293420350977044
 21
55.135081627094273
 31
0.0
  0
ARC
  5
EFDA
  8
0
 10
483.7393043358516138
 20
54.7814785735081813
 30
0.0
 40
0.0478859993654932
 50
173.469133345594912
 51
176.6221992442814042
  0
ARC
  5
EFDB
  8
0
 10
483.6720656521619048
 20
54.7865953284958707
 30
0.0
 40
0.0196661939774286
 50
0.9606700786223838
 51
90.4304828913628569
  0
ARC
  5
EFDC
  8
0
 10
483.4828977815635085
 20
54.8074604126405376
 30
0.0
 40
0.2098855106487998
 50
339.4600861040943869
 51
353.664631938643879
  0
ARC
  5
EFDD
  8
0
 10
483.5070641483404756
 20
54.7980534974782501
 30
0.0
 40
0.1839552355470384
 50
313.2810237431315272
 51
339.5628362279642829
  0
ARC
  5
EFDE
  8
0
 10
483.4187524233879003
 20
54.8918298307850279
 30
0.0
 40
0.3127689050567695
 50
298.0147729681647775
 51
313.2810237431315272
  0
ARC
  5
EFDF
  8
0
 10
483.1490144547794898
 20
55.3988177696674811
 30
0.0
 40
0.8870470100557696
 50
286.4301259150573742
 51
298.0147729681647775
  0
LINE
  5
EFE0
  8
0
 10
483.6719178947088267
 20
54.8062609673942731
 30
0.0
 11
482.5617661547843227
 21
54.8062609673942731
 31
0.0
  0
LINE
  5
EFE1
  8
0
 10
483.6719979158964975
 20
54.8113790775942817
 30
0.0
 11
482.5617616953966262
 21
54.8113790775942817
 31
0.0
  0
LINE
  5
EFE2
  8
0
 10
482.5617616953966262
 20
54.8113790775942817
 30
0.0
 11
482.5617616953966262
 21
54.8507493634563019
 31
0.0
  0
LINE
  5
EFE3
  8
0
 10
482.6050687819965788
 20
54.8062609673942731
 30
0.0
 11
482.6050687819965788
 21
54.8113790775942817
 31
0.0
  0
LINE
  5
EFE4
  8
0
 10
483.6719979158964975
 20
54.8113790775942817
 30
0.0
 11
483.6719979158964975
 21
54.8507491562942704
 31
0.0
  0
LINE
  5
EFE5
  8
0
 10
483.6286908292966018
 20
54.8062609673942731
 30
0.0
 11
483.6286908292966018
 21
54.8113790775942817
 31
0.0
  0
LINE
  5
EFE6
  8
0
 10
483.6719979158964975
 20
54.8507491562942704
 30
0.0
 11
482.561766154818315
 21
54.8507491562942704
 31
0.0
  0
ARC
  5
EFE7
  8
0
 10
483.6412327115119751
 20
55.0132947212185428
 30
0.0
 40
0.1837101388176494
 50
322.8790989873676835
 51
358.449311803870728
  0
ARC
  5
EFE8
  8
0
 10
483.6446899741774814
 20
55.0058151231102812
 30
0.0
 40
0.180203052827708
 50
0.7974985747827157
 51
45.8351388253473431
  0
ARC
  5
EFE9
  8
0
 10
483.669993451339792
 20
55.01063927518193
 30
0.0
 40
0.1599026828920382
 50
270.7182516594714912
 51
317.4101548334483027
  0
ARC
  5
EFEA
  8
0
 10
483.4131180697976902
 20
54.4259709412820172
 30
0.0
 40
0.1803454000991325
 50
15.2487712455721809
 51
61.2572453343716816
  0
ARC
  5
EFEB
  8
0
 10
483.3021918601507991
 20
54.442625452874708
 30
0.0
 40
0.2894605019896237
 50
340.6647799089525961
 51
357.4142407323670909
  0
ARC
  5
EFEC
  8
0
 10
483.4240217074208772
 20
54.4354917797959033
 30
0.0
 40
0.167440801649068
 50
357.9720434874764123
 51
13.0863769240642895
  0
ARC
  5
EFED
  8
0
 10
483.3080709238290069
 20
54.4741556166868435
 30
0.0
 40
0.2960543436744026
 50
287.6776806656910139
 51
334.5183826224605923
  0
ARC
  5
EFEE
  8
0
 10
483.1446778880564921
 20
54.8253259937564081
 30
0.0
 40
0.682024044456448
 50
278.5225033520812872
 51
291.801056501613914
  0
ARC
  5
EFEF
  8
0
 10
483.1542061049423182
 20
54.731134159616218
 30
0.0
 40
0.5874777524204035
 50
270.0703469058835253
 51
278.9648989128061203
  0
ARC
  5
EFF0
  8
0
 10
482.8233659926847849
 20
54.4241132275053374
 30
0.0
 40
0.1833816661273601
 50
119.243847335779094
 51
164.6661748523627864
  0
ARC
  5
EFF1
  8
0
 10
482.9230928607370856
 20
54.4410364449630819
 30
0.0
 40
0.2809403033547672
 50
182.3382338082334968
 51
199.5489642275030917
  0
ARC
  5
EFF2
  8
0
 10
482.7833976305770989
 20
54.437768438817109
 30
0.0
 40
0.1412490287932272
 50
165.7207982242150877
 51
183.3256338316020049
  0
ARC
  5
EFF3
  8
0
 10
482.9258311655373177
 20
54.4743380977601674
 30
0.0
 40
0.2962346661086384
 50
205.4518857536247083
 51
252.2269010022590976
  0
ARC
  5
EFF4
  8
0
 10
483.0943274911891194
 20
54.8414636202760803
 30
0.0
 40
0.698948624492911
 50
248.2569877191988894
 51
261.4722348008526751
  0
ARC
  5
EFF5
  8
0
 10
483.0809882913969773
 20
54.7658520567819807
 30
0.0
 40
0.6221981097627407
 50
261.6545089318209989
 51
269.8038051870652794
  0
ARC
  5
EFF6
  8
0
 10
482.4508837038114848
 20
54.6686413303595273
 30
0.0
 40
0.3425695387940633
 50
304.9687577985458233
 51
342.6794160167610812
  0
ARC
  5
EFF7
  8
0
 10
483.7733228302237194
 20
54.6646813739628925
 30
0.0
 40
0.3322681698287706
 50
197.179612475660889
 51
235.8451046604006081
  0
ARC
  5
EFF8
  8
0
 10
482.0461815770989915
 20
56.2191772666288472
 30
0.0
 40
0.0299999999654252
 50
89.9999999839337761
 51
144.6790790766916928
  0
ARC
  5
EFF9
  8
0
 10
482.3674217959681982
 20
55.9553738375999288
 30
0.0
 40
0.4456065508307619
 50
140.8809725690354071
 51
174.8088052365334022
  0
ARC
  5
EFFA
  8
0
 10
482.2456445779931187
 20
56.008292474817452
 30
0.0
 40
0.322248035795754
 50
182.2409193232886082
 51
206.1245791962539045
  0
ARC
  5
EFFB
  8
0
 10
482.378961397299804
 20
56.1299987949216899
 30
0.0
 40
0.4981089863681691
 50
211.951514036977386
 51
240.3057919607078077
  0
ARC
  5
EFFC
  8
0
 10
480.0978453880217103
 20
52.0143080084751119
 30
0.0
 40
4.2075034773187161
 50
57.8285508112479008
 51
61.0851438674945797
  0
ARC
  5
EFFD
  8
0
 10
482.1990516730750755
 20
55.3165374670118268
 30
0.0
 40
0.2942070945587045
 50
27.7676599927329413
 51
61.7844674444475928
  0
ARC
  5
EFFE
  8
0
 10
482.2575777671693231
 20
55.4203030735163722
 30
0.0
 40
0.2180479138872237
 50
307.4069497014457966
 51
344.289305091257404
  0
ARC
  5
EFFF
  8
0
 10
482.3109775401738943
 20
55.3940591562467404
 30
0.0
 40
0.1599021622873732
 50
348.1634778061518887
 51
21.862969133294019
  0
LINE
  5
F000
  8
0
 10
482.0461815771074043
 20
56.2491772665942733
 30
0.0
 11
484.1875862116514213
 21
56.2491772665942733
 31
0.0
  0
ARC
  5
F001
  8
0
 10
482.1641261298472045
 20
56.5992942255107465
 30
0.0
 40
0.0118110236397433
 50
180.00000007987191
 51
270.0035973404349079
  0
LINE
  5
F002
  8
0
 10
482.1720001456073987
 20
56.272522571994287
 30
0.0
 11
482.1724074189356202
 21
56.249177266594252
 31
0.0
  0
LINE
  5
F003
  8
0
 10
482.1720001456073987
 20
56.272522571994287
 30
0.0
 11
482.1720001456073987
 21
56.5874832018942726
 31
0.0
  0
LINE
  5
F004
  8
0
 10
482.1523151062074248
 20
56.5992942255107465
 30
0.0
 11
482.1523151062074248
 21
57.6701603672942866
 31
0.0
  0
ARC
  5
F005
  8
0
 10
483.7947316441100725
 20
55.1925855553649711
 30
0.0
 40
0.073298801140799
 50
18.8919959886339583
 51
48.0485120219228889
  0
ARC
  5
F006
  8
0
 10
483.7925891702071226
 20
55.1959236575415488
 30
0.0
 40
0.0743448901575743
 50
1.012984639188969
 51
15.9220382613784608
  0
ARC
  5
F007
  8
0
 10
483.8076612091053903
 20
55.1975540888807004
 30
0.0
 40
0.0592620751905908
 50
331.3752202225936117
 51
359.6943979442975206
  0
ARC
  5
F008
  8
0
 10
483.8046996138027112
 20
55.1964680847998892
 30
0.0
 40
0.0613872657667336
 50
269.7060177800707947
 51
333.5897553526993988
  0
ARC
  5
F009
  8
0
 10
484.1875862116597773
 20
56.2191772666288472
 30
0.0
 40
0.0299999999654252
 50
35.3209209233082291
 51
90.0000000160662239
  0
ARC
  5
F00A
  8
0
 10
483.8663830115575024
 20
55.9553957617067823
 30
0.0
 40
0.4455639976965077
 50
5.1888610417040111
 51
39.1198435822265225
  0
ARC
  5
F00B
  8
0
 10
483.983556030439388
 20
56.0094372948489223
 30
0.0
 40
0.3268541982000839
 50
334.047766694726306
 51
357.5898323375429868
  0
ARC
  5
F00C
  8
0
 10
483.8548063914590784
 20
56.1299987949216899
 30
0.0
 40
0.4981089863681691
 50
299.6942080392922207
 51
328.0484859630225856
  0
ARC
  5
F00D
  8
0
 10
486.1359224007371154
 20
52.0143080084751119
 30
0.0
 40
4.2075034773187161
 50
118.9148561325054061
 51
122.1714491887521064
  0
ARC
  5
F00E
  8
0
 10
484.0347161156836933
 20
55.3165374670118268
 30
0.0
 40
0.2942070945587045
 50
118.2155325555524001
 51
152.232340007267112
  0
ARC
  5
F00F
  8
0
 10
483.9761900215895025
 20
55.4203030735163722
 30
0.0
 40
0.2180479138872237
 50
195.7106949087425107
 51
232.5930502985536918
  0
ARC
  5
F010
  8
0
 10
483.9227902485848745
 20
55.3940591562467404
 30
0.0
 40
0.1599021622873732
 50
158.1370308667059135
 51
191.8365221938481113
  0
ARC
  5
F011
  8
0
 10
484.069641658911678
 20
56.5992942255107465
 30
0.0
 40
0.0118110236397433
 50
269.9964026595650921
 51
359.9999999201281184
  0
LINE
  5
F012
  8
0
 10
484.0617676431514269
 20
56.272522571994287
 30
0.0
 11
484.0613566516792048
 21
56.249177266594252
 31
0.0
  0
LINE
  5
F013
  8
0
 10
484.0617676431514269
 20
56.272522571994287
 30
0.0
 11
484.0617676431514269
 21
56.5874832018942726
 31
0.0
  0
LINE
  5
F014
  8
0
 10
484.0814526825514008
 20
56.5992942255107465
 30
0.0
 11
484.0814526825514008
 21
57.6701603672942866
 31
0.0
  0
LINE
  5
F015
  8
0
 10
483.0788577365074161
 20
54.14365759479427
 30
0.0
 11
483.1549274012073738
 21
54.1436568499942794
 31
0.0
  0
LINE
  5
F016
  8
0
 10
482.1641268714074045
 20
56.5874832018942726
 30
0.0
 11
484.069641658911678
 21
56.5874832018710023
 31
0.0
  0
ENDSEC
  0
EOF
