  0
SECTION
  2
HEADER
  9
$ACADVER
  1
AC1009
  9
$INSBASE
 10
500.4980831232081755
 20
49.3844026475839115
 30
0.0
  9
$EXTMIN
 10
496.954774414657777
 20
45.8410947500086934
 30
0.0
  9
$EXTMAX
 10
504.0413918317586877
 20
52.9277105451591225
 30
0.0
  9
$LIMMIN
 10
0.0
 20
0.0
  9
$LIMMAX
 10
11.6929133858000007
 20
8.2677165353999982
  9
$ORTHOMODE
 70
     0
  9
$REGENMODE
 70
     1
  9
$FILLMODE
 70
     1
  9
$QTEXTMODE
 70
     0
  9
$MIRRTEXT
 70
     0
  9
$DRAGMODE
 70
     2
  9
$LTSCALE
 40
0.6431102362
  9
$OSMODE
 70
  4095
  9
$ATTMODE
 70
     1
  9
$TEXTSIZE
 40
0.2
  9
$TRACEWID
 40
0.05
  9
$TEXTSTYLE
  7
STANDARD
  9
$CLAYER
  8
0
  9
$CELTYPE
  6
BYLAYER
  9
$CECOLOR
 62
   256
  9
$DIMSCALE
 40
1.0
  9
$DIMASZ
 40
0.1875
  9
$DIMEXO
 40
0.0625
  9
$DIMDLI
 40
0.4443307087
  9
$DIMRND
 40
0.0
  9
$DIMDLE
 40
0.0
  9
$DIMEXE
 40
0.125
  9
$DIMTP
 40
0.01
  9
$DIMTM
 40
0.01
  9
$DIMTXT
 40
1.0
  9
$DIMCEN
 40
0.1052362205
  9
$DIMTSZ
 40
0.0
  9
$DIMTOL
 70
     1
  9
$DIMLIM
 70
     0
  9
$DIMTIH
 70
     0
  9
$DIMTOH
 70
     1
  9
$DIMSE1
 70
     0
  9
$DIMSE2
 70
     0
  9
$DIMTAD
 70
     0
  9
$DIMZIN
 70
     0
  9
$DIMBLK
  1

  9
$DIMASO
 70
     1
  9
$DIMSHO
 70
     1
  9
$DIMPOST
  1
\X
  9
$DIMAPOST
  1

  9
$DIMALT
 70
     1
  9
$DIMALTD
 70
     2
  9
$DIMALTF
 40
25.3999999999999986
  9
$DIMLFAC
 40
1.0
  9
$DIMTOFL
 70
     0
  9
$DIMTVP
 40
0.0
  9
$DIMTIX
 70
     0
  9
$DIMSOXD
 70
     0
  9
$DIMSAH
 70
     0
  9
$DIMBLK1
  1

  9
$DIMBLK2
  1

  9
$DIMSTYLE
  2
STANDARD
  9
$DIMCLRD
 70
     0
  9
$DIMCLRE
 70
     0
  9
$DIMCLRT
 70
     0
  9
$DIMTFAC
 40
1.0
  9
$DIMGAP
 40
0.09
  9
$LUNITS
 70
     2
  9
$LUPREC
 70
     4
  9
$SKETCHINC
 40
0.1
  9
$FILLETRAD
 40
0.0
  9
$AUNITS
 70
     0
  9
$AUPREC
 70
     0
  9
$MENU
  1
.
  9
$ELEVATION
 40
0.0
  9
$PELEVATION
 40
0.0
  9
$THICKNESS
 40
0.0
  9
$LIMCHECK
 70
     0
  9
$BLIPMODE
 70
     0
  9
$CHAMFERA
 40
0.0
  9
$CHAMFERB
 40
0.0
  9
$SKPOLY
 70
     0
  9
$TDCREATE
 40
2458172.5207638889551163
  9
$TDUPDATE
 40
2459115.9562268517911434
  9
$TDINDWG
 40
0.2787240509
  9
$TDUSRTIMER
 40
0.2787240509
  9
$USRTIMER
 70
     1
  9
$ANGBASE
 50
0.0
  9
$ANGDIR
 70
     0
  9
$PDMODE
 70
     0
  9
$PDSIZE
 40
0.3125
  9
$PLINEWID
 40
0.0
  9
$COORDS
 70
     1
  9
$SPLFRAME
 70
     0
  9
$SPLINETYPE
 70
     6
  9
$SPLINESEGS
 70
     8
  9
$ATTDIA
 70
     1
  9
$ATTREQ
 70
     1
  9
$HANDLING
 70
     1
  9
$HANDSEED
  5
EFE0
  9
$SURFTAB1
 70
     6
  9
$SURFTAB2
 70
     6
  9
$SURFTYPE
 70
     6
  9
$SURFU
 70
     6
  9
$SURFV
 70
     6
  9
$UCSNAME
  2

  9
$UCSORG
 10
0.0
 20
0.0
 30
0.0
  9
$UCSXDIR
 10
1.0
 20
0.0
 30
0.0
  9
$UCSYDIR
 10
0.0
 20
1.0
 30
0.0
  9
$PUCSNAME
  2

  9
$PUCSORG
 10
0.0
 20
0.0
 30
0.0
  9
$PUCSXDIR
 10
1.0
 20
0.0
 30
0.0
  9
$PUCSYDIR
 10
0.0
 20
1.0
 30
0.0
  9
$USERI1
 70
     0
  9
$USERI2
 70
     0
  9
$USERI3
 70
     0
  9
$USERI4
 70
     0
  9
$USERI5
 70
     0
  9
$USERR1
 40
0.0
  9
$USERR2
 40
0.0
  9
$USERR3
 40
0.0
  9
$USERR4
 40
0.0
  9
$USERR5
 40
0.0
  9
$WORLDVIEW
 70
     1
  9
$SHADEDGE
 70
     3
  9
$SHADEDIF
 70
    70
  9
$TILEMODE
 70
     1
  9
$MAXACTVP
 70
    64
  9
$PLIMCHECK
 70
     0
  9
$PEXTMIN
 10
1.0000000000000000E+20
 20
1.0000000000000000E+20
 30
1.0000000000000000E+20
  9
$PEXTMAX
 10
-1.0000000000000000E+20
 20
-1.0000000000000000E+20
 30
-1.0000000000000000E+20
  9
$PLIMMIN
 10
0.0
 20
0.0
  9
$PLIMMAX
 10
12.0
 20
9.0
  9
$UNITMODE
 70
     0
  9
$VISRETAIN
 70
     1
  9
$PLINEGEN
 70
     0
  9
$PSLTSCALE
 70
     1
  0
ENDSEC
  0
SECTION
  2
TABLES
  0
TABLE
  2
VPORT
 70
     1
  0
VPORT
  2
*ACTIVE
 70
     0
 10
0.0
 20
0.0
 11
1.0
 21
1.0
 12
70.8862928805370842
 22
-20.2957356225563501
 13
0.0
 23
0.0
 14
1.0
 24
1.0
 15
0.0
 25
0.0
 16
0.0
 26
0.0
 36
14.6338572656650907
 17
429.6292891080536833
 27
69.7025415122186871
 37
0.0
 40
0.0774689805157548
 41
2.005224660397074
 42
50.0
 43
0.0
 44
0.0
 50
0.0
 51
0.0
 71
     0
 72
   100
 73
     1
 74
     1
 75
     0
 76
     0
 77
     0
 78
     0
  0
ENDTAB
  0
TABLE
  2
LTYPE
 70
     2
  0
LTYPE
  2
CONTINUOUS
 70
     0
  3
Solid line
 72
    65
 73
     0
 40
0.0
  0
LTYPE
  2
PHANTOM2
 70
     0
  3
___ _ _ ___ _ _ ___ _ _ ___ _ _
 72
    65
 73
     6
 40
1.25
 49
0.625
 49
-0.125
 49
0.125
 49
-0.125
 49
0.125
 49
-0.125
  0
ENDTAB
  0
TABLE
  2
LAYER
 70
     2
  0
LAYER
  2
0
 70
     0
 62
   255
  6
CONTINUOUS
  0
LAYER
  2
DEFPOINTS
 70
     0
 62
     7
  6
CONTINUOUS
  0
ENDTAB
  0
TABLE
  2
STYLE
 70
     1
  0
STYLE
  2
STANDARD
 70
     0
 40
0.0
 41
0.8
 50
0.0
 71
     0
 42
0.2
  3
txt
  4

  0
ENDTAB
  0
TABLE
  2
VIEW
 70
     0
  0
ENDTAB
  0
TABLE
  2
UCS
 70
     0
  0
ENDTAB
  0
TABLE
  2
APPID
 70
    10
  0
APPID
  2
ACAD
 70
     0
  0
APPID
  2
ACAD_MLEADERVER
 70
     0
  0
APPID
  2
ACAD_EXEMPT_FROM_CAD_STANDARDS
 70
     0
  0
APPID
  2
ACAD_DSTYLE_DIMJAG
 70
     0
  0
APPID
  2
ACAD_DSTYLE_DIMTALN
 70
     0
  0
APPID
  2
ACAD_NAV_VCDISPLAY
 70
     0
  0
APPID
  2
ACAECLAYERSTANDARD
 70
     0
  0
APPID
  2
ACCMTRANSPARENCY
 70
     0
  0
APPID
  2
DCO15
 70
     0
  0
APPID
  2
ACDBATTR
 70
     0
  0
ENDTAB
  0
TABLE
  2
DIMSTYLE
 70
     1
  0
DIMSTYLE
  2
STANDARD
 70
     0
  3

  4

  5

  6

  7

 40
1.0
 41
0.1875
 42
0.0625
 43
0.38
 44
0.125
 45
0.0
 46
0.0
 47
0.01
 48
0.01
140
0.15625
141
0.09
142
0.0
143
25.3999999999999986
144
1.0
145
0.0
146
1.0
147
0.09
 71
     1
 72
     0
 73
     1
 74
     1
 75
     0
 76
     0
 77
     0
 78
     4
170
     0
171
     2
172
     0
173
     0
174
     0
175
     0
176
     0
177
     0
178
     0
  0
ENDTAB
  0
ENDSEC
  0
SECTION
  2
BLOCKS
  0
BLOCK
  8
0
  2
$MODEL_SPACE
 70
     0
 10
0.0
 20
0.0
 30
0.0
  3
$MODEL_SPACE
  1

  0
ENDBLK
  5
21
  8
0
  0
BLOCK
 67
     1
  8
0
  2
$PAPER_SPACE
 70
     0
 10
0.0
 20
0.0
 30
0.0
  3
$PAPER_SPACE
  1

  0
ENDBLK
  5
1D
 67
     1
  8
0
  0
BLOCK
  8
0
  2
_FILLED
 70
     0
 10
0.0
 20
0.0
 30
0.0
  3
_FILLED
  1

  0
SOLID
  5
87E2
  8
0
  6
BYBLOCK
 62
     0
 10
0.0
 20
0.0
 30
0.0
 11
-1.0
 21
0.1666666667
 31
0.0
 12
-1.0
 22
-0.1666666667
 32
0.0
 13
-1.0
 23
-0.1666666667
 33
0.0
  0
ENDBLK
  5
87E3
  8
0
  6
BYBLOCK
 62
     0
  0
ENDSEC
  0
SECTION
  2
ENTITIES
  0
ATTDEF
  5
C848
  8
DEFPOINTS
 10
500.509733595581281
 20
49.398558468075457
 30
0.0
 40
0.001
  1
K-72806T-B4
  3

  2
MODELNUMBER
 70
     0
1001
ACDBATTR
1070
     0
1070
     1
  0
ATTDEF
  5
C849
  8
DEFPOINTS
 10
500.509733595581281
 20
49.396891801408799
 30
0.0
 40
0.001
  1
MODULO
  3

  2
TRADENAME
 70
     0
1001
ACDBATTR
1070
     0
1070
     1
  0
ATTDEF
  5
C84A
  8
DEFPOINTS
 10
500.509733595581281
 20
49.3952251347421267
 30
0.0
 40
0.001
  1
VALVE TRIM
  3

  2
PRODUCT
 70
     0
1001
ACDBATTR
1070
     0
1070
     1
  0
ARC
  5
EEF8
  8
0
 10
500.4993351718521239
 20
47.42779053914294
 30
0.0
 40
0.4632291045273174
 50
269.8404636411502793
 51
293.7493164859286026
  0
ARC
  5
EEF9
  8
0
 10
500.5272198775604124
 20
47.3604890062813766
 30
0.0
 40
0.3903999500985286
 50
293.9814075444377863
 51
328.6328670430676198
  0
ARC
  5
EEFA
  8
0
 10
500.2278692055161855
 20
47.5429778194197326
 30
0.0
 40
0.7409894419175344
 50
328.6328670430676198
 51
348.2626701741212969
  0
ARC
  5
EEFB
  8
0
 10
500.0415782556394788
 20
47.5816834167174321
 30
0.0
 40
0.9312588332240652
 50
348.2626701741212969
 51
1.2600036411969839
  0
ARC
  5
EEFC
  8
0
 10
496.2255422196178074
 20
47.5560190665949705
 30
0.0
 40
4.7472939429004608
 50
0.5569057976364467
 51
8.7632636197625988
  0
ARC
  5
EEFD
  8
0
 10
519.3367049235653212
 20
51.1696343745031896
 30
0.0
 40
18.6446855322283511
 50
186.9574541386548958
 51
188.9181290386522107
  0
ARC
  5
EEFE
  8
0
 10
502.3664090578454875
 20
49.1317173720181728
 30
0.0
 40
1.552840231704792
 50
163.8113388049175114
 51
188.1655676693085013
  0
ARC
  5
EEFF
  8
0
 10
502.5536457742985021
 20
48.9832631255833206
 30
0.0
 40
1.7763420441650291
 50
148.8325097321398118
 51
160.8953291730057913
  0
ARC
  5
EF00
  8
0
 10
497.4904482825784271
 20
51.7092613964293122
 30
0.0
 40
3.9772743125382091
 50
332.9834648918849211
 51
337.0149513076120229
  0
ARC
  5
EF01
  8
0
 10
500.4980453423082736
 20
50.4276711423086823
 30
0.0
 40
0.7080313167999988
 50
337.4520487007579845
 51
203.6114702865592108
  0
ARC
  5
EF02
  8
0
 10
500.4980453423082736
 20
50.4276711423086823
 30
0.0
 40
0.7500781869166291
 50
315.5747042437553773
 51
224.425295756244509
  0
CIRCLE
  5
EF03
  8
0
 10
500.4980453423082736
 20
50.4276711423086823
 30
0.0
 40
0.5748848274432046
  0
ARC
  5
EF04
  8
0
 10
500.5035247525086106
 20
47.460207504886057
 30
0.0
 40
0.4956745614075519
 50
247.0436061662599911
 51
269.3666137066578017
  0
ARC
  5
EF05
  8
0
 10
500.4688708070560779
 20
47.3604890062813766
 30
0.0
 40
0.3903999500985286
 50
211.3671329569324939
 51
246.0185924555622137
  0
ARC
  5
EF06
  8
0
 10
500.7682214791003048
 20
47.5429778194197326
 30
0.0
 40
0.7409894419175344
 50
191.7373298258785894
 51
211.3671329569324939
  0
ARC
  5
EF07
  8
0
 10
500.9545124289770115
 20
47.5816834167174321
 30
0.0
 40
0.9312588332240652
 50
178.7399963588030118
 51
191.7373298258785894
  0
ARC
  5
EF08
  8
0
 10
504.7705484649986829
 20
47.5560190665949705
 30
0.0
 40
4.7472939429004608
 50
171.236736380237403
 51
179.4430942023635112
  0
ARC
  5
EF09
  8
0
 10
481.6593857610512828
 20
51.1696343745031896
 30
0.0
 40
18.6446855322283511
 50
351.0818709613478177
 51
353.0425458613449905
  0
ARC
  5
EF0A
  8
0
 10
498.6296816267711165
 20
49.1317173720181728
 30
0.0
 40
1.552840231704792
 50
351.8344323306915271
 51
16.1886611950824602
  0
ARC
  5
EF0B
  8
0
 10
498.4424449103181018
 20
48.9832631255833206
 30
0.0
 40
1.7763420441650291
 50
19.1046708269941803
 51
31.1674902678601988
  0
ARC
  5
EF0C
  8
0
 10
503.5056424020381201
 20
51.7092613964293122
 30
0.0
 40
3.9772743125382091
 50
203.1743728934170861
 51
207.0165351081151073
  0
ARC
  5
EF0D
  8
0
 10
500.4980831232081755
 20
49.3844018366086885
 30
0.0
 40
3.5433087085504349
 50
279.1182035170406834
 51
260.8817964829593166
  0
ARC
  5
EF0E
  8
0
 10
500.4980831232081755
 20
50.4276711423086823
 30
0.0
 40
1.1932390526000001
 50
285.6790073197477113
 51
254.3171207193348096
  0
ARC
  5
EF0F
  8
0
 10
500.498011420712885
 20
49.3839246201635191
 30
0.0
 40
3.538701648244039
 50
261.0404147084726105
 51
266.1736275457807892
  0
ARC
  5
EF10
  8
0
 10
500.4981547847492038
 20
49.3839250123702627
 30
0.0
 40
3.5387020423185249
 50
273.8263726897970969
 51
278.9595849580701952
  0
LINE
  5
EF11
  8
0
 10
501.0492642255719034
 20
45.8884006556327435
 30
0.0
 11
501.0595975322825097
 21
45.8858681191076769
 31
0.0
  0
LINE
  5
EF12
  8
0
 10
499.9469020208445045
 20
45.8884006556327435
 30
0.0
 11
499.9365687141341255
 21
45.8858681191076769
 31
0.0
  0
CIRCLE
  5
EF13
  8
0
 10
500.4980831232081755
 20
49.3844018366086885
 30
0.0
 40
3.2712343312000001
  0
ARC
  5
EF14
  8
0
 10
500.4980831232081755
 20
49.3844018366088022
 30
0.0
 40
3.543307086600112
 50
266.3448937553991982
 51
273.6551062446009155
  0
LINE
  5
EF15
  8
0
 10
500.2618626507659201
 20
45.853111241434128
 30
0.0
 11
500.2721959573602817
 21
45.8483022768114026
 31
0.0
  0
LINE
  5
EF16
  8
0
 10
500.734323878858504
 20
45.8531125983078809
 30
0.0
 11
500.7239702889168029
 21
45.8483022767931416
 31
0.0
  0
ENDSEC
  0
EOF
