  0
SECTION
  2
HEADER
  9
$ACADVER
  1
AC1009
  9
$INSBASE
 10
501.5565931090000049
 20
46.1060801650551113
 30
0.0
  9
$EXTMIN
 10
486.8979169693358813
 20
41.9890254666551215
 30
0.0
  9
$EXTMAX
 10
509.8980796492310787
 20
56.4458456501498418
 30
0.0
  9
$LIMMIN
 10
0.0
 20
0.0
  9
$LIMMAX
 10
11.6929133858000007
 20
8.2677165353999982
  9
$ORTHOMODE
 70
     0
  9
$REGENMODE
 70
     1
  9
$FILLMODE
 70
     1
  9
$QTEXTMODE
 70
     0
  9
$MIRRTEXT
 70
     0
  9
$DRAGMODE
 70
     2
  9
$LTSCALE
 40
0.6431102362
  9
$OSMODE
 70
  4095
  9
$ATTMODE
 70
     1
  9
$TEXTSIZE
 40
0.2
  9
$TRACEWID
 40
0.05
  9
$TEXTSTYLE
  7
STANDARD
  9
$CLAYER
  8
0
  9
$CELTYPE
  6
BYLAYER
  9
$CECOLOR
 62
   256
  9
$DIMSCALE
 40
1.0
  9
$DIMASZ
 40
0.1875
  9
$DIMEXO
 40
0.0625
  9
$DIMDLI
 40
0.4443307087
  9
$DIMRND
 40
0.0
  9
$DIMDLE
 40
0.0
  9
$DIMEXE
 40
0.125
  9
$DIMTP
 40
0.01
  9
$DIMTM
 40
0.01
  9
$DIMTXT
 40
1.0
  9
$DIMCEN
 40
0.1052362205
  9
$DIMTSZ
 40
0.0
  9
$DIMTOL
 70
     1
  9
$DIMLIM
 70
     0
  9
$DIMTIH
 70
     0
  9
$DIMTOH
 70
     1
  9
$DIMSE1
 70
     0
  9
$DIMSE2
 70
     0
  9
$DIMTAD
 70
     0
  9
$DIMZIN
 70
     0
  9
$DIMBLK
  1

  9
$DIMASO
 70
     1
  9
$DIMSHO
 70
     1
  9
$DIMPOST
  1
\X
  9
$DIMAPOST
  1

  9
$DIMALT
 70
     1
  9
$DIMALTD
 70
     2
  9
$DIMALTF
 40
25.3999999999999986
  9
$DIMLFAC
 40
1.0
  9
$DIMTOFL
 70
     0
  9
$DIMTVP
 40
0.0
  9
$DIMTIX
 70
     0
  9
$DIMSOXD
 70
     0
  9
$DIMSAH
 70
     0
  9
$DIMBLK1
  1

  9
$DIMBLK2
  1

  9
$DIMSTYLE
  2
STANDARD
  9
$DIMCLRD
 70
     0
  9
$DIMCLRE
 70
     0
  9
$DIMCLRT
 70
     0
  9
$DIMTFAC
 40
1.0
  9
$DIMGAP
 40
0.09
  9
$LUNITS
 70
     2
  9
$LUPREC
 70
     4
  9
$SKETCHINC
 40
0.1
  9
$FILLETRAD
 40
0.0
  9
$AUNITS
 70
     0
  9
$AUPREC
 70
     0
  9
$MENU
  1
.
  9
$ELEVATION
 40
0.0
  9
$PELEVATION
 40
0.0
  9
$THICKNESS
 40
0.0
  9
$LIMCHECK
 70
     0
  9
$BLIPMODE
 70
     0
  9
$CHAMFERA
 40
0.0
  9
$CHAMFERB
 40
0.0
  9
$SKPOLY
 70
     0
  9
$TDCREATE
 40
2458172.5207638889551163
  9
$TDUPDATE
 40
2459115.944791667163372
  9
$TDINDWG
 40
0.2784694213
  9
$TDUSRTIMER
 40
0.2784694213
  9
$USRTIMER
 70
     1
  9
$ANGBASE
 50
0.0
  9
$ANGDIR
 70
     0
  9
$PDMODE
 70
     0
  9
$PDSIZE
 40
0.3125
  9
$PLINEWID
 40
0.0
  9
$COORDS
 70
     1
  9
$SPLFRAME
 70
     0
  9
$SPLINETYPE
 70
     6
  9
$SPLINESEGS
 70
     8
  9
$ATTDIA
 70
     1
  9
$ATTREQ
 70
     1
  9
$HANDLING
 70
     1
  9
$HANDSEED
  5
F092
  9
$SURFTAB1
 70
     6
  9
$SURFTAB2
 70
     6
  9
$SURFTYPE
 70
     6
  9
$SURFU
 70
     6
  9
$SURFV
 70
     6
  9
$UCSNAME
  2

  9
$UCSORG
 10
0.0
 20
0.0
 30
0.0
  9
$UCSXDIR
 10
1.0
 20
0.0
 30
0.0
  9
$UCSYDIR
 10
0.0
 20
1.0
 30
0.0
  9
$PUCSNAME
  2

  9
$PUCSORG
 10
0.0
 20
0.0
 30
0.0
  9
$PUCSXDIR
 10
1.0
 20
0.0
 30
0.0
  9
$PUCSYDIR
 10
0.0
 20
1.0
 30
0.0
  9
$USERI1
 70
     0
  9
$USERI2
 70
     0
  9
$USERI3
 70
     0
  9
$USERI4
 70
     0
  9
$USERI5
 70
     0
  9
$USERR1
 40
0.0
  9
$USERR2
 40
0.0
  9
$USERR3
 40
0.0
  9
$USERR4
 40
0.0
  9
$USERR5
 40
0.0
  9
$WORLDVIEW
 70
     1
  9
$SHADEDGE
 70
     3
  9
$SHADEDIF
 70
    70
  9
$TILEMODE
 70
     1
  9
$MAXACTVP
 70
    64
  9
$PLIMCHECK
 70
     0
  9
$PEXTMIN
 10
1.0000000000000000E+20
 20
1.0000000000000000E+20
 30
1.0000000000000000E+20
  9
$PEXTMAX
 10
-1.0000000000000000E+20
 20
-1.0000000000000000E+20
 30
-1.0000000000000000E+20
  9
$PLIMMIN
 10
0.0
 20
0.0
  9
$PLIMMAX
 10
12.0
 20
9.0
  9
$UNITMODE
 70
     0
  9
$VISRETAIN
 70
     1
  9
$PLINEGEN
 70
     0
  9
$PSLTSCALE
 70
     1
  0
ENDSEC
  0
SECTION
  2
TABLES
  0
TABLE
  2
VPORT
 70
     1
  0
VPORT
  2
*ACTIVE
 70
     0
 10
0.0
 20
0.0
 11
1.0
 21
1.0
 12
70.3869572784588797
 22
-25.6310517026068894
 13
0.0
 23
0.0
 14
1.0
 24
1.0
 15
0.0
 25
0.0
 16
0.0
 26
0.0
 36
14.6338572656650907
 17
429.6292891080536833
 27
69.7025415122186871
 37
0.0
 40
34.5609356201044235
 41
2.005224660397074
 42
50.0
 43
0.0
 44
0.0
 50
0.0
 51
0.0
 71
     0
 72
   100
 73
     1
 74
     1
 75
     0
 76
     0
 77
     0
 78
     0
  0
ENDTAB
  0
TABLE
  2
LTYPE
 70
     2
  0
LTYPE
  2
CONTINUOUS
 70
     0
  3
Solid line
 72
    65
 73
     0
 40
0.0
  0
LTYPE
  2
PHANTOM2
 70
     0
  3
___ _ _ ___ _ _ ___ _ _ ___ _ _
 72
    65
 73
     6
 40
1.25
 49
0.625
 49
-0.125
 49
0.125
 49
-0.125
 49
0.125
 49
-0.125
  0
ENDTAB
  0
TABLE
  2
LAYER
 70
     2
  0
LAYER
  2
0
 70
     0
 62
   255
  6
CONTINUOUS
  0
LAYER
  2
DEFPOINTS
 70
     0
 62
     7
  6
CONTINUOUS
  0
ENDTAB
  0
TABLE
  2
STYLE
 70
     1
  0
STYLE
  2
STANDARD
 70
     0
 40
0.0
 41
0.8
 50
0.0
 71
     0
 42
0.2
  3
txt
  4

  0
ENDTAB
  0
TABLE
  2
VIEW
 70
     0
  0
ENDTAB
  0
TABLE
  2
UCS
 70
     0
  0
ENDTAB
  0
TABLE
  2
APPID
 70
    10
  0
APPID
  2
ACAD
 70
     0
  0
APPID
  2
ACAD_MLEADERVER
 70
     0
  0
APPID
  2
ACAD_EXEMPT_FROM_CAD_STANDARDS
 70
     0
  0
APPID
  2
ACAD_DSTYLE_DIMJAG
 70
     0
  0
APPID
  2
ACAD_DSTYLE_DIMTALN
 70
     0
  0
APPID
  2
ACAD_NAV_VCDISPLAY
 70
     0
  0
APPID
  2
ACAECLAYERSTANDARD
 70
     0
  0
APPID
  2
ACCMTRANSPARENCY
 70
     0
  0
APPID
  2
DCO15
 70
     0
  0
APPID
  2
ACDBATTR
 70
     0
  0
ENDTAB
  0
TABLE
  2
DIMSTYLE
 70
     1
  0
DIMSTYLE
  2
STANDARD
 70
     0
  3

  4

  5

  6

  7

 40
1.0
 41
0.1875
 42
0.0625
 43
0.38
 44
0.125
 45
0.0
 46
0.0
 47
0.01
 48
0.01
140
0.15625
141
0.09
142
0.0
143
25.3999999999999986
144
1.0
145
0.0
146
1.0
147
0.09
 71
     1
 72
     0
 73
     1
 74
     1
 75
     0
 76
     0
 77
     0
 78
     4
170
     0
171
     2
172
     0
173
     0
174
     0
175
     0
176
     0
177
     0
178
     0
  0
ENDTAB
  0
ENDSEC
  0
SECTION
  2
BLOCKS
  0
BLOCK
  8
0
  2
$MODEL_SPACE
 70
     0
 10
0.0
 20
0.0
 30
0.0
  3
$MODEL_SPACE
  1

  0
ENDBLK
  5
21
  8
0
  0
BLOCK
 67
     1
  8
0
  2
$PAPER_SPACE
 70
     0
 10
0.0
 20
0.0
 30
0.0
  3
$PAPER_SPACE
  1

  0
ENDBLK
  5
1D
 67
     1
  8
0
  0
BLOCK
  8
0
  2
_FILLED
 70
     0
 10
0.0
 20
0.0
 30
0.0
  3
_FILLED
  1

  0
SOLID
  5
87E2
  8
0
  6
BYBLOCK
 62
     0
 10
0.0
 20
0.0
 30
0.0
 11
-1.0
 21
0.1666666667
 31
0.0
 12
-1.0
 22
-0.1666666667
 32
0.0
 13
-1.0
 23
-0.1666666667
 33
0.0
  0
ENDBLK
  5
87E3
  8
0
  6
BYBLOCK
 62
     0
  0
ENDSEC
  0
SECTION
  2
ENTITIES
  0
ATTDEF
  5
C848
  8
DEFPOINTS
 10
501.5582469089628148
 20
46.1102394643013724
 30
0.0
 40
0.001
  1
K-72805T-B4
  3

  2
MODELNUMBER
 70
     0
1001
ACDBATTR
1070
     0
1070
     1
  0
ATTDEF
  5
C849
  8
DEFPOINTS
 10
501.5582469089628148
 20
46.1085727976347073
 30
0.0
 40
0.001
  1
MODULO
  3

  2
TRADENAME
 70
     0
1001
ACDBATTR
1070
     0
1070
     1
  0
ATTDEF
  5
C84A
  8
DEFPOINTS
 10
501.5582469089628148
 20
46.1069061309680421
 30
0.0
 40
0.001
  1
VALVE TRIM
  3

  2
PRODUCT
 70
     0
1001
ACDBATTR
1070
     0
1070
     1
  0
LINE
  5
EF74
  8
0
 10
501.0743096444742264
 20
45.5155289838590065
 30
0.0
 11
501.0743096444742264
 21
44.7084423696590179
 31
0.0
  0
LINE
  5
EF75
  8
0
 10
501.0743096444742264
 20
44.7084423696590179
 30
0.0
 11
501.0939953315742059
 21
44.6887573303590173
 31
0.0
  0
LINE
  5
EF76
  8
0
 10
501.1628923215741906
 20
44.6887573303590173
 30
0.0
 11
501.1628923215741906
 21
44.5977062249590119
 31
0.0
  0
LINE
  5
EF77
  8
0
 10
501.1628923215741906
 20
44.5977062249590119
 30
0.0
 11
501.0834651661742214
 21
44.5949325675590131
 31
0.0
  0
ARC
  5
EF78
  8
0
 10
501.0841521640742258
 20
44.5752595197590225
 30
0.0
 40
0.0196850394000013
 50
91.9999998038781541
 51
179.9999999999947136
  0
ARC
  5
EF79
  8
0
 10
501.1171447258470835
 20
44.5769078355928912
 30
0.0
 40
0.0527033832919493
 50
181.7922368118074132
 51
224.4019048534123897
  0
ARC
  5
EF7A
  8
0
 10
445.4435657407246936
 20
-15.1665294059823701
 30
0.0
 40
81.6102299339983261
 50
46.9787715389316389
 51
47.0212285027429076
  0
ARC
  5
EF7B
  8
0
 10
501.056593108231425
 20
44.4268049485182885
 30
0.0
 40
0.098425197756882
 50
23.5000000628739585
 51
47.0000437983311627
  0
ARC
  5
EF7C
  8
0
 10
501.0541289309820172
 20
44.426292399199518
 30
0.0
 40
0.1008906768408006
 50
0.2910780782922766
 51
23.2089219217107612
  0
LINE
  5
EF7D
  8
0
 10
501.1550183058743073
 20
44.4268049489375869
 30
0.0
 11
501.1550183058743073
 21
44.2499223100590129
 31
0.0
  0
ARC
  5
EF7E
  8
0
 10
501.056593108974198
 20
44.2499223100590129
 30
0.0
 40
0.0984251969000108
 50
336.5000000000013074
 51
359.9999146055603205
  0
ARC
  5
EF7F
  8
0
 10
501.0407313876129933
 20
44.2611322663967783
 30
0.0
 40
0.1175078961347011
 50
311.071039019478917
 51
334.5710397026606984
  0
ARC
  5
EF80
  8
0
 10
502.8251824613112717
 20
42.3032066600091525
 30
0.0
 40
2.5316239622965568
 50
132.4051790139820071
 51
133.5948210844935033
  0
ARC
  5
EF81
  8
0
 10
501.123818167915374
 20
44.0970654622661229
 30
0.0
 40
0.0594595447865738
 50
138.2024288626053874
 51
176.5381291184289978
  0
ARC
  5
EF82
  8
0
 10
501.0852258161011719
 20
44.1016498916305082
 30
0.0
 40
0.0207824762666288
 50
182.7414512399575131
 51
262.846820631823789
  0
ARC
  5
EF83
  8
0
 10
501.5565931089739138
 20
50.2241904011526117
 30
0.0
 40
6.1614173227935849
 50
265.5882742837413844
 51
267.1937971219437031
  0
ARC
  5
EF84
  8
0
 10
501.5565931089740843
 20
50.2241904011544378
 30
0.0
 40
6.1614173227954216
 50
267.1937971219437031
 51
270.0
  0
LINE
  5
EF85
  8
0
 10
502.0388765735397101
 20
45.5155289838508921
 30
0.0
 11
502.0388765735261245
 21
44.7084423696508821
 31
0.0
  0
LINE
  5
EF86
  8
0
 10
502.0388765735261245
 20
44.7084423696508821
 30
0.0
 11
502.0191908864256902
 21
44.6887573303512227
 31
0.0
  0
LINE
  5
EF87
  8
0
 10
502.0191908864256902
 20
44.6887573303512227
 30
0.0
 11
501.0939953315742059
 21
44.6887573303590173
 31
0.0
  0
LINE
  5
EF88
  8
0
 10
501.9502938964257055
 20
44.6887573303523666
 30
0.0
 11
501.9502938964242276
 21
44.5977062249523684
 31
0.0
  0
LINE
  5
EF89
  8
0
 10
501.9502938964242276
 20
44.5977062249523684
 30
0.0
 11
502.0297210518241968
 21
44.5949325675510408
 31
0.0
  0
ARC
  5
EF8A
  8
0
 10
502.0290340539237945
 20
44.5752595197510502
 30
0.0
 40
0.0196850394000013
 50
359.9999999990387778
 51
88.0000001951572273
  0
LINE
  5
EF8B
  8
0
 10
501.9502938964242276
 20
44.5977062249523684
 30
0.0
 11
501.1628923215741906
 21
44.5977062249523684
 31
0.0
  0
ARC
  5
EF8C
  8
0
 10
501.9927649900257052
 20
44.578305184197589
 30
0.0
 40
0.0560369319986899
 50
316.9214776533672193
 51
356.884380679475214
  0
ARC
  5
EF8D
  8
0
 10
557.6696204762658908
 20
-15.1665294069286993
 30
0.0
 40
81.6102299339983261
 50
132.9787714962909888
 51
133.0212284601016108
  0
ARC
  5
EF8E
  8
0
 10
502.0565931097640942
 20
44.4268049485098473
 30
0.0
 40
0.098425197756882
 50
132.9999562007023997
 51
156.4999999361600089
  0
ARC
  5
EF8F
  8
0
 10
502.059057287013502
 20
44.4262923991910625
 30
0.0
 40
0.1008906768408006
 50
156.7910780773229931
 51
179.7089219207412043
  0
LINE
  5
EF90
  8
0
 10
501.9581679121213256
 20
44.4268049489308225
 30
0.0
 11
501.9581679121181992
 21
44.2499223100522485
 31
0.0
  0
ARC
  5
EF91
  8
0
 10
502.0565931090184222
 20
44.249922310050593
 30
0.0
 40
0.0984251969000108
 50
180.0000853934731992
 51
203.4999999990313881
  0
ARC
  5
EF92
  8
0
 10
502.0724548303796837
 20
44.2611322663880813
 30
0.0
 40
0.1175078961347011
 50
205.4289602963719972
 51
228.9289609795538922
  0
ARC
  5
EF93
  8
0
 10
500.2880037566483793
 20
42.3032066600305399
 30
0.0
 40
2.5316239622965568
 50
46.4051789145398175
 51
47.5948209850521025
  0
ARC
  5
EF94
  8
0
 10
501.9949320000237094
 20
44.0993848981605794
 30
0.0
 40
0.0538021078286443
 50
1.3536445905795189
 51
43.9057973137382831
  0
ARC
  5
EF95
  8
0
 10
502.026636080327421
 20
44.10287597504567
 30
0.0
 40
0.0221943295125691
 50
280.1526047106816009
 51
354.259123546354715
  0
ARC
  5
EF96
  8
0
 10
501.5565931091193761
 20
50.2241904011526117
 30
0.0
 40
6.1614173227935849
 50
272.8062028770880261
 51
274.4117257152918228
  0
ARC
  5
EF97
  8
0
 10
501.5565931091193193
 20
50.2241904011544378
 30
0.0
 40
6.1614173227954216
 50
269.9999999990326955
 51
272.8062028770912093
  0
LINE
  5
EF98
  8
0
 10
501.0794906735745258
 20
44.5400320991237209
 30
0.0
 11
501.0809151451010734
 21
44.5400316451795888
 31
0.0
  0
LINE
  5
EF99
  8
0
 10
501.0809151451010734
 20
44.5400316451795888
 30
0.0
 11
501.1123569914742006
 21
44.5211697978590095
 31
0.0
  0
LINE
  5
EF9A
  8
0
 10
501.1123569914742006
 20
44.5211697978590095
 30
0.0
 11
501.1625190267236007
 21
44.4987886111210713
 31
0.0
  0
LINE
  5
EF9B
  8
0
 10
501.1625190267236007
 20
44.4987886111210713
 30
0.0
 11
501.2893884523742258
 21
44.4488514308590226
 31
0.0
  0
LINE
  5
EF9C
  8
0
 10
501.2893884523742258
 20
44.4488514308590226
 30
0.0
 11
501.3288219671741786
 21
44.4268049489590169
 31
0.0
  0
LINE
  5
EF9D
  8
0
 10
501.3288219671741786
 20
44.4268049489590169
 30
0.0
 11
501.3288219671741786
 21
44.2499223100590129
 31
0.0
  0
LINE
  5
EF9E
  8
0
 10
501.0794908243108807
 20
44.1366953004590172
 30
0.0
 11
501.0809144702741946
 21
44.1366953004590172
 31
0.0
  0
LINE
  5
EF9F
  8
0
 10
501.0809144702741946
 20
44.1366953004590172
 30
0.0
 11
501.1123570264742284
 21
44.155557481459013
 31
0.0
  0
LINE
  5
EFA0
  8
0
 10
501.1123570264742284
 20
44.155557481459013
 30
0.0
 11
501.1625190632905742
 21
44.1779386780590215
 31
0.0
  0
ARC
  5
EFA1
  8
0
 10
478.5884861305004847
 20
99.1771588151818406
 30
0.0
 40
59.4516710651872771
 50
292.3153444924591895
 51
292.3994580897947912
  0
LINE
  5
EFA2
  8
0
 10
501.243236923903396
 20
44.2111378664898993
 30
0.0
 11
501.2895718195077279
 21
44.2279408017829923
 31
0.0
  0
LINE
  5
EFA3
  8
0
 10
501.2895718195077279
 20
44.2279408017829923
 30
0.0
 11
501.3288219671741786
 21
44.2499223100590129
 31
0.0
  0
LINE
  5
EFA4
  8
0
 10
502.0336953936690065
 20
44.5400319585005064
 30
0.0
 11
502.032271747774189
 21
44.5400319585590125
 31
0.0
  0
LINE
  5
EFA5
  8
0
 10
502.032271747774189
 20
44.5400319585590125
 30
0.0
 11
502.000829265874188
 21
44.5211697248590212
 31
0.0
  0
LINE
  5
EFA6
  8
0
 10
502.000829265874188
 20
44.5211697248590212
 30
0.0
 11
501.9506670953423964
 21
44.49878858105901
 31
0.0
  0
LINE
  5
EFA7
  8
0
 10
501.9506670953423964
 20
44.49878858105901
 30
0.0
 11
501.8657944305829801
 21
44.4639628041469308
 31
0.0
  0
LINE
  5
EFA8
  8
0
 10
501.8657944305829801
 20
44.4639628041469308
 30
0.0
 11
501.8210984239341883
 21
44.4478901064118901
 31
0.0
  0
LINE
  5
EFA9
  8
0
 10
501.8210984239341883
 20
44.4478901064118901
 30
0.0
 11
501.7843642507742175
 21
44.4268049489590169
 31
0.0
  0
LINE
  5
EFAA
  8
0
 10
501.7843642507742175
 20
44.4268049489590169
 30
0.0
 11
501.7843646144743275
 21
44.2499223099998531
 31
0.0
  0
LINE
  5
EFAB
  8
0
 10
501.7843646144743275
 20
44.2499223099998531
 30
0.0
 11
501.823987572074202
 21
44.227809220559017
 31
0.0
  0
LINE
  5
EFAC
  8
0
 10
501.823987572074202
 20
44.227809220559017
 30
0.0
 11
501.9506672024367049
 21
44.1779386780590215
 31
0.0
  0
LINE
  5
EFAD
  8
0
 10
501.9506672024367049
 20
44.1779386780590215
 30
0.0
 11
502.0008292649840769
 21
44.1555575165468284
 31
0.0
  0
LINE
  5
EFAE
  8
0
 10
502.0008292649840769
 20
44.1555575165468284
 30
0.0
 11
502.03227176166871
 21
44.1366952886418176
 31
0.0
  0
LINE
  5
EFAF
  8
0
 10
502.03227176166871
 20
44.1366952886418176
 30
0.0
 11
502.0336953932566075
 21
44.1366953009417387
 31
0.0
  0
LINE
  5
EFB0
  8
0
 10
498.0132844004494928
 20
46.1060801650551113
 30
0.0
 11
505.0999018175504034
 21
46.1060801650551113
 31
0.0
  0
LINE
  5
EFB1
  8
0
 10
505.0999018175504034
 20
46.1060801650551113
 30
0.0
 11
505.0901342176330786
 21
45.826367626155097
 31
0.0
  0
ARC
  5
EFB2
  8
0
 10
504.9720959308576198
 20
45.8304896140332332
 30
0.0
 40
0.118110236378147
 50
270.0000000851480877
 51
357.9999999650841005
  0
ARC
  5
EFB3
  8
0
 10
504.9258468764015788
 20
45.6139541810698219
 30
0.0
 40
0.098425196585275
 50
89.9999998651876467
 51
141.9321667499114881
  0
ARC
  5
EFB4
  8
0
 10
504.9258468766331021
 20
45.613954180855103
 30
0.0
 40
0.0984251968999702
 50
141.9321667346139009
 51
174.7840908006469931
  0
ARC
  5
EFB5
  8
0
 10
504.7102080744676869
 20
45.6336392203044667
 30
0.0
 40
0.1181102362805954
 50
312.3920457220701223
 51
354.7840913603645276
  0
ARC
  5
EFB6
  8
0
 10
504.710208074136915
 20
45.6336392208941888
 30
0.0
 40
0.1181102369390921
 50
270.0000002027347819
 51
312.3920456476645882
  0
LINE
  5
EFB7
  8
0
 10
504.7102080745331136
 20
45.5155289840551021
 30
0.0
 11
498.4029818616107832
 21
45.5155289839551003
 31
0.0
  0
LINE
  5
EFB8
  8
0
 10
498.0132844004494928
 20
46.1060801650551113
 30
0.0
 11
498.0230555986331069
 21
45.826367626155097
 31
0.0
  0
ARC
  5
EFB9
  8
0
 10
498.1410938854489814
 20
45.8304896134391697
 30
0.0
 40
0.1181102363624626
 50
181.9999997474064912
 51
270.0000265319122832
  0
LINE
  5
EFBA
  8
0
 10
498.1410939401421842
 20
45.7123793771767097
 30
0.0
 11
504.9720959310330954
 21
45.7123793776551111
 31
0.0
  0
ARC
  5
EFBB
  8
0
 10
498.1873429396284791
 20
45.6139541801039385
 30
0.0
 40
0.0984251970806122
 50
38.0678529073107512
 51
89.9999999584974546
  0
ARC
  5
EFBC
  8
0
 10
498.1873429411714937
 20
45.613954181119702
 30
0.0
 40
0.0984251952394869
 50
5.2159084615015914
 51
38.0678529956371605
  0
ARC
  5
EFBD
  8
0
 10
498.4029817420654922
 20
45.6336392199112808
 30
0.0
 40
0.1181102365106005
 50
185.2159084379266005
 51
227.6079542667501983
  0
ARC
  5
EFBE
  8
0
 10
498.4029817422094766
 20
45.6336392203605783
 30
0.0
 40
0.1181102369395396
 50
227.6079543620786012
 51
270.0000579115298933
  0
ARC
  5
EFBF
  8
0
 10
500.8787472183412888
 20
43.037954172025799
 30
0.0
 40
0.073298801140799
 50
131.9514879780768979
 51
161.1080040113656082
  0
ARC
  5
EFC0
  8
0
 10
500.8943976654389871
 20
43.0389161791317534
 30
0.0
 40
0.0879979426961532
 50
165.0030197721837055
 51
177.5964374677068918
  0
ARC
  5
EFC1
  8
0
 10
500.8670688137596017
 20
43.0434164593353827
 30
0.0
 40
0.060597084334278
 50
180.765745027125007
 51
208.4678324875546025
  0
ARC
  5
EFC2
  8
0
 10
500.8687787477200004
 20
43.0418362445054967
 30
0.0
 40
0.0613866138675478
 50
206.4100706195492876
 51
270.2560783641911257
  0
ARC
  5
EFC3
  8
0
 10
501.0083349010860729
 20
42.85594580630395
 30
0.0
 40
0.1598115428403842
 50
128.8244622194000897
 51
179.8362020995992907
  0
ARC
  5
EFC4
  8
0
 10
501.0083331609790775
 20
42.855934445067362
 30
0.0
 40
0.1598098356243131
 50
179.8321270483380943
 51
222.5846771315399906
  0
ARC
  5
EFC5
  8
0
 10
501.0089373372335899
 20
42.8567540296697516
 30
0.0
 40
0.1608093908745662
 50
222.6540155091059887
 51
267.341037077128874
  0
ARC
  5
EFC6
  8
0
 10
501.0013503700633919
 20
42.6319493282369066
 30
0.0
 40
0.0196806646771807
 50
89.6306779229544048
 51
179.4849176755824942
  0
ARC
  5
EFC7
  8
0
 10
501.0173072495026076
 20
42.6327755141232529
 30
0.0
 40
0.0356426627607406
 50
181.0437490665592009
 51
185.0007055214462071
  0
ARC
  5
EFC8
  8
0
 10
501.1964695207093996
 20
42.6546527967517619
 30
0.0
 40
0.2161182605718983
 50
186.6384766576821903
 51
200.4371637720352908
  0
ARC
  5
EFC9
  8
0
 10
501.166330974845323
 20
42.6434221141390992
 30
0.0
 40
0.1839552355470384
 50
200.4371637720352908
 51
226.718976256866199
  0
ARC
  5
EFCA
  8
0
 10
501.2546426997977846
 20
42.7371984474458628
 30
0.0
 40
0.3127689050567695
 50
226.718976256866199
 51
241.9852270318322951
  0
ARC
  5
EFCB
  8
0
 10
501.5243806684061951
 20
43.2441863863283018
 30
0.0
 40
0.8870470100557696
 50
241.9852270318322951
 51
253.5698740849423984
  0
ARC
  5
EFCC
  8
0
 10
501.556553098439224
 20
43.3532871011676519
 30
0.0
 40
1.000792476922266
 50
253.5698740849423984
 51
286.4301259150574879
  0
LINE
  5
EFCD
  8
0
 10
502.244095713414481
 20
42.9804502437551079
 30
0.0
 11
500.8690531087902968
 21
42.9804502437551079
 31
0.0
  0
ARC
  5
EFCE
  8
0
 10
502.1790154095440926
 20
42.6268471901690305
 30
0.0
 40
0.0478859993654932
 50
173.4691333455945141
 51
176.6221992442812052
  0
ARC
  5
EFCF
  8
0
 10
502.1117767258544973
 20
42.6319639451566914
 30
0.0
 40
0.0196661939774286
 50
0.9606700786217736
 51
90.4304828913628569
  0
ARC
  5
EFD0
  8
0
 10
501.9226088552559872
 20
42.6528290293013725
 30
0.0
 40
0.2098855106487998
 50
339.460086104095808
 51
353.6646319386445043
  0
ARC
  5
EFD1
  8
0
 10
501.9467752220330112
 20
42.6434221141390992
 30
0.0
 40
0.1839552355470384
 50
313.2810237431315272
 51
339.5628362279646808
  0
ARC
  5
EFD2
  8
0
 10
501.8584634970803791
 20
42.7371984474458628
 30
0.0
 40
0.3127689050567695
 50
298.0147729681676196
 51
313.2810237431312999
  0
ARC
  5
EFD3
  8
0
 10
501.5887255284720254
 20
43.2441863863283018
 30
0.0
 40
0.8870470100557696
 50
286.4301259150574879
 51
298.0147729681676196
  0
LINE
  5
EFD4
  8
0
 10
502.1116289684014191
 20
42.6516295840551081
 30
0.0
 11
501.0014772284769151
 21
42.6516295840551081
 31
0.0
  0
LINE
  5
EFD5
  8
0
 10
502.1117089895890899
 20
42.6567476942551096
 30
0.0
 11
501.001472769089105
 21
42.6567476942551096
 31
0.0
  0
LINE
  5
EFD6
  8
0
 10
501.001472769089105
 20
42.6567476942551096
 30
0.0
 11
501.001472769089105
 21
42.6961179801171511
 31
0.0
  0
LINE
  5
EFD7
  8
0
 10
501.0447798556891144
 20
42.6516295840551081
 30
0.0
 11
501.0447798556891144
 21
42.6567476942551096
 31
0.0
  0
LINE
  5
EFD8
  8
0
 10
502.1117089895890899
 20
42.6567476942551096
 30
0.0
 11
502.1117089895890899
 21
42.6961177729551125
 31
0.0
  0
LINE
  5
EFD9
  8
0
 10
502.0684019029891942
 20
42.6516295840551081
 30
0.0
 11
502.0684019029891942
 21
42.6567476942551096
 31
0.0
  0
LINE
  5
EFDA
  8
0
 10
502.1117089895890899
 20
42.6961177729551125
 30
0.0
 11
501.0014772285107938
 21
42.6961177729551125
 31
0.0
  0
ARC
  5
EFDB
  8
0
 10
502.0809437852046244
 20
42.858663337879392
 30
0.0
 40
0.1837101388176494
 50
322.8790989873681951
 51
358.4493118038705006
  0
ARC
  5
EFDC
  8
0
 10
502.0844010478700739
 20
42.8511837397711233
 30
0.0
 40
0.180203052827708
 50
0.7974985747821051
 51
45.8351388253499721
  0
ARC
  5
EFDD
  8
0
 10
502.1097045250323276
 20
42.8560078918427791
 30
0.0
 40
0.1599026828920382
 50
270.7182516594714912
 51
317.4101548334483027
  0
ARC
  5
EFDE
  8
0
 10
501.8528291434902258
 20
42.2713395579428592
 30
0.0
 40
0.1803454000991325
 50
15.2487712455729607
 51
61.2572453343718593
  0
ARC
  5
EFDF
  8
0
 10
501.7419029338432779
 20
42.287994069535543
 30
0.0
 40
0.2894605019896237
 50
340.6647799089520277
 51
357.4142407323678867
  0
ARC
  5
EFE0
  8
0
 10
501.8637327811134128
 20
42.2808603964567311
 30
0.0
 40
0.167440801649068
 50
357.9720434874765829
 51
13.0863769240636891
  0
ARC
  5
EFE1
  8
0
 10
501.7477819975214857
 20
42.3195242333476997
 30
0.0
 40
0.2960543436744026
 50
287.6776806656940835
 51
334.5183826224601944
  0
ARC
  5
EFE2
  8
0
 10
501.5843889617490845
 20
42.6706946104172715
 30
0.0
 40
0.682024044456448
 50
278.5225033520812872
 51
291.8010565016140276
  0
ARC
  5
EFE3
  8
0
 10
501.593917178634797
 20
42.5765027762770529
 30
0.0
 40
0.5874777524204035
 50
270.0703469058835253
 51
278.9648989128061203
  0
ARC
  5
EFE4
  8
0
 10
501.2630770663773774
 20
42.2694818441662008
 30
0.0
 40
0.1833816661273601
 50
119.243847335781993
 51
164.6661748523634117
  0
ARC
  5
EFE5
  8
0
 10
501.3628039344296212
 20
42.2864050616239382
 30
0.0
 40
0.2809403033547672
 50
182.3382338082340937
 51
199.5489642275013864
  0
ARC
  5
EFE6
  8
0
 10
501.2231087042696913
 20
42.2831370554779724
 30
0.0
 40
0.1412490287932272
 50
165.7207982242144908
 51
183.3256338316018059
  0
ARC
  5
EFE7
  8
0
 10
501.3655422392299101
 20
42.3197067144210024
 30
0.0
 40
0.2962346661086384
 50
205.4518857536247083
 51
252.2269010022623092
  0
ARC
  5
EFE8
  8
0
 10
501.5340385648817119
 20
42.6868322369369366
 30
0.0
 40
0.698948624492911
 50
248.2569877191988041
 51
261.4722348008526751
  0
ARC
  5
EFE9
  8
0
 10
501.5206993650895129
 20
42.6112206734428369
 30
0.0
 40
0.6221981097627407
 50
261.6545089318209989
 51
269.8038051870652794
  0
ARC
  5
EFEA
  8
0
 10
500.8905947775040772
 20
42.5140099470203765
 30
0.0
 40
0.3425695387940633
 50
304.9687577985461076
 51
342.6794160167614223
  0
ARC
  5
EFEB
  8
0
 10
502.2130339039163118
 20
42.5100499906237417
 30
0.0
 40
0.3322681698287706
 50
197.179612475661088
 51
235.8451046604006081
  0
ARC
  5
EFEC
  8
0
 10
500.4858926507915839
 20
44.0645458832896892
 30
0.0
 40
0.0299999999654252
 50
89.9999999839370162
 51
144.6790790766916075
  0
ARC
  5
EFED
  8
0
 10
500.807132869660677
 20
43.8007424542607922
 30
0.0
 40
0.4456065508307619
 50
140.8809725690356061
 51
174.8088052365339991
  0
ARC
  5
EFEE
  8
0
 10
500.6853556516857111
 20
43.8536610914783012
 30
0.0
 40
0.322248035795754
 50
182.2409193232880114
 51
206.1245791962558087
  0
ARC
  5
EFEF
  8
0
 10
500.8186724709922828
 20
43.9753674115825177
 30
0.0
 40
0.4981089863681691
 50
211.9515140369771871
 51
240.3057919607078077
  0
ARC
  5
EFF0
  8
0
 10
498.5375564617143027
 20
39.8596766251359611
 30
0.0
 40
4.2075034773187161
 50
57.8285508112480215
 51
61.0851438674947929
  0
ARC
  5
EFF1
  8
0
 10
500.6387627467677248
 20
43.1619060836726831
 30
0.0
 40
0.2942070945587045
 50
27.7676599927334813
 51
61.7844674444505984
  0
ARC
  5
EFF2
  8
0
 10
500.6972888408618019
 20
43.2656716901772
 30
0.0
 40
0.2180479138872237
 50
307.4069497014460808
 51
344.2893050912580861
  0
ARC
  5
EFF3
  8
0
 10
500.7506886138664868
 20
43.2394277729075895
 30
0.0
 40
0.1599021622873732
 50
348.1634778061520024
 51
21.8629691332942109
  0
LINE
  5
EFF4
  8
0
 10
500.4859019532000275
 20
44.0945458832551225
 30
0.0
 11
501.0656952148617052
 21
44.0945458832551225
 31
0.0
  0
ARC
  5
EFF5
  8
0
 10
500.6038372035396833
 20
44.4446628421715886
 30
0.0
 40
0.0118110236397433
 50
180.0000000798725068
 51
270.0035973404382048
  0
LINE
  5
EFF6
  8
0
 10
500.6117112192999912
 20
44.1178911886551219
 30
0.0
 11
500.6121184926282126
 21
44.0945458832551225
 31
0.0
  0
LINE
  5
EFF7
  8
0
 10
500.6117112192999912
 20
44.1178911886551219
 30
0.0
 11
500.6117112192999912
 21
44.4328518185551218
 31
0.0
  0
LINE
  5
EFF8
  8
0
 10
500.6038379450998832
 20
44.4328518185551218
 30
0.0
 11
501.1548115471999836
 21
44.4328518185551218
 31
0.0
  0
LINE
  5
EFF9
  8
0
 10
500.5920261798999036
 20
44.4446628421715886
 30
0.0
 11
500.5920261798999036
 21
45.5155289839551216
 31
0.0
  0
ARC
  5
EFFA
  8
0
 10
502.2344427178027217
 20
43.037954172025799
 30
0.0
 40
0.073298801140799
 50
18.8919959886343491
 51
48.0485120219230311
  0
ARC
  5
EFFB
  8
0
 10
502.2311884464180025
 20
43.0411267594067581
 30
0.0
 40
0.0754595809359516
 50
1.123714743061494
 51
15.8113081575057706
  0
ARC
  5
EFFC
  8
0
 10
502.2473722827979827
 20
43.0429227055415566
 30
0.0
 40
0.0592620751905908
 50
331.3752202225931001
 51
359.6943979442975206
  0
ARC
  5
EFFD
  8
0
 10
502.2444106874953036
 20
43.0418367014607313
 30
0.0
 40
0.0613872657667336
 50
269.7060177800707947
 51
333.5897553526995125
  0
ARC
  5
EFFE
  8
0
 10
502.6272972853524266
 20
44.0645458832896892
 30
0.0
 40
0.0299999999654252
 50
35.3209209233082291
 51
90.0000000160629696
  0
ARC
  5
EFFF
  8
0
 10
502.3060940852499812
 20
43.8007643783676315
 30
0.0
 40
0.4455639976965077
 50
5.1888610417044161
 51
39.1198435822260393
  0
ARC
  5
F000
  8
0
 10
502.4232671041319804
 20
43.8548059115097573
 30
0.0
 40
0.3268541982000839
 50
334.047766694726306
 51
357.5898323375424184
  0
ARC
  5
F001
  8
0
 10
502.2945174651517277
 20
43.9753674115825177
 30
0.0
 40
0.4981089863681691
 50
299.6942080392921071
 51
328.0484859630228129
  0
ARC
  5
F002
  8
0
 10
504.5756334744295941
 20
39.8596766251359611
 30
0.0
 40
4.2075034773187161
 50
118.9148561325051929
 51
122.1714491887520069
  0
ARC
  5
F003
  8
0
 10
502.474427189376172
 20
43.1619060836726831
 30
0.0
 40
0.2942070945587045
 50
118.2155325555493022
 51
152.2323400072664867
  0
ARC
  5
F004
  8
0
 10
502.415901095282095
 20
43.2656716901772
 30
0.0
 40
0.2180479138872237
 50
195.7106949087419139
 51
232.5930502985538908
  0
ARC
  5
F005
  8
0
 10
502.3625013222774101
 20
43.2394277729075895
 30
0.0
 40
0.1599021622873732
 50
158.1370308667056008
 51
191.8365221938479124
  0
LINE
  5
F006
  8
0
 10
502.627287982943983
 20
44.0945458832551225
 30
0.0
 11
502.0474947212821917
 21
44.0945458832551225
 31
0.0
  0
ARC
  5
F007
  8
0
 10
502.5093527326042135
 20
44.4446628421715886
 30
0.0
 40
0.0118110236397433
 50
269.9964026595617952
 51
359.9999999201273226
  0
LINE
  5
F008
  8
0
 10
502.5014787168440193
 20
44.1178911886551219
 30
0.0
 11
502.5010677253716835
 21
44.0945458832551225
 31
0.0
  0
LINE
  5
F009
  8
0
 10
502.5014787168440193
 20
44.1178911886551219
 30
0.0
 11
502.5014787168440193
 21
44.4328518185551218
 31
0.0
  0
LINE
  5
F00A
  8
0
 10
502.5093519910440136
 20
44.4328518185551218
 30
0.0
 11
501.9583800666953266
 21
44.4328518185551218
 31
0.0
  0
LINE
  5
F00B
  8
0
 10
502.5211637562438796
 20
44.4446628421715886
 30
0.0
 11
502.5211637562438796
 21
45.5155289839551216
 31
0.0
  0
LINE
  5
F00C
  8
0
 10
501.5185688102000086
 20
41.9890262114551334
 30
0.0
 11
501.5946384749000231
 21
41.9890254666551215
 31
0.0
  0
ENDSEC
  0
EOF
