  0
SECTION
  2
HEADER
  9
$ACADVER
  1
AC1009
  9
$INSBASE
 10
490.4412256778862798
 20
48.8517602215997329
 30
0.0
  9
$EXTMIN
 10
473.9423901999584814
 20
37.1269771214060924
 30
0.0
  9
$EXTMAX
 10
493.9845343864367919
 20
52.3950704428299971
 30
0.0
  9
$LIMMIN
 10
0.0
 20
0.0
  9
$LIMMAX
 10
11.6929133858000007
 20
8.2677165353999982
  9
$ORTHOMODE
 70
     0
  9
$REGENMODE
 70
     1
  9
$FILLMODE
 70
     1
  9
$QTEXTMODE
 70
     0
  9
$MIRRTEXT
 70
     0
  9
$DRAGMODE
 70
     2
  9
$LTSCALE
 40
0.6431102362
  9
$OSMODE
 70
  4095
  9
$ATTMODE
 70
     1
  9
$TEXTSIZE
 40
0.2
  9
$TRACEWID
 40
0.05
  9
$TEXTSTYLE
  7
STANDARD
  9
$CLAYER
  8
0
  9
$CELTYPE
  6
BYLAYER
  9
$CECOLOR
 62
   256
  9
$DIMSCALE
 40
1.0
  9
$DIMASZ
 40
0.1875
  9
$DIMEXO
 40
0.0625
  9
$DIMDLI
 40
0.4443307087
  9
$DIMRND
 40
0.0
  9
$DIMDLE
 40
0.0
  9
$DIMEXE
 40
0.125
  9
$DIMTP
 40
0.01
  9
$DIMTM
 40
0.01
  9
$DIMTXT
 40
1.0
  9
$DIMCEN
 40
0.1052362205
  9
$DIMTSZ
 40
0.0
  9
$DIMTOL
 70
     1
  9
$DIMLIM
 70
     0
  9
$DIMTIH
 70
     0
  9
$DIMTOH
 70
     1
  9
$DIMSE1
 70
     0
  9
$DIMSE2
 70
     0
  9
$DIMTAD
 70
     0
  9
$DIMZIN
 70
     0
  9
$DIMBLK
  1

  9
$DIMASO
 70
     1
  9
$DIMSHO
 70
     1
  9
$DIMPOST
  1
\X
  9
$DIMAPOST
  1

  9
$DIMALT
 70
     1
  9
$DIMALTD
 70
     2
  9
$DIMALTF
 40
25.3999999999999986
  9
$DIMLFAC
 40
1.0
  9
$DIMTOFL
 70
     0
  9
$DIMTVP
 40
0.0
  9
$DIMTIX
 70
     0
  9
$DIMSOXD
 70
     0
  9
$DIMSAH
 70
     0
  9
$DIMBLK1
  1

  9
$DIMBLK2
  1

  9
$DIMSTYLE
  2
STANDARD
  9
$DIMCLRD
 70
     0
  9
$DIMCLRE
 70
     0
  9
$DIMCLRT
 70
     0
  9
$DIMTFAC
 40
1.0
  9
$DIMGAP
 40
0.09
  9
$LUNITS
 70
     2
  9
$LUPREC
 70
     4
  9
$SKETCHINC
 40
0.1
  9
$FILLETRAD
 40
0.0
  9
$AUNITS
 70
     0
  9
$AUPREC
 70
     0
  9
$MENU
  1
.
  9
$ELEVATION
 40
0.0
  9
$PELEVATION
 40
0.0
  9
$THICKNESS
 40
0.0
  9
$LIMCHECK
 70
     0
  9
$BLIPMODE
 70
     0
  9
$CHAMFERA
 40
0.0
  9
$CHAMFERB
 40
0.0
  9
$SKPOLY
 70
     0
  9
$TDCREATE
 40
2458172.5207638889551163
  9
$TDUPDATE
 40
2459115.944872684776783
  9
$TDINDWG
 40
0.2788745139
  9
$TDUSRTIMER
 40
0.2788745139
  9
$USRTIMER
 70
     1
  9
$ANGBASE
 50
0.0
  9
$ANGDIR
 70
     0
  9
$PDMODE
 70
     0
  9
$PDSIZE
 40
0.3125
  9
$PLINEWID
 40
0.0
  9
$COORDS
 70
     1
  9
$SPLFRAME
 70
     0
  9
$SPLINETYPE
 70
     6
  9
$SPLINESEGS
 70
     8
  9
$ATTDIA
 70
     1
  9
$ATTREQ
 70
     1
  9
$HANDLING
 70
     1
  9
$HANDSEED
  5
EF14
  9
$SURFTAB1
 70
     6
  9
$SURFTAB2
 70
     6
  9
$SURFTYPE
 70
     6
  9
$SURFU
 70
     6
  9
$SURFV
 70
     6
  9
$UCSNAME
  2

  9
$UCSORG
 10
0.0
 20
0.0
 30
0.0
  9
$UCSXDIR
 10
1.0
 20
0.0
 30
0.0
  9
$UCSYDIR
 10
0.0
 20
1.0
 30
0.0
  9
$PUCSNAME
  2

  9
$PUCSORG
 10
0.0
 20
0.0
 30
0.0
  9
$PUCSXDIR
 10
1.0
 20
0.0
 30
0.0
  9
$PUCSYDIR
 10
0.0
 20
1.0
 30
0.0
  9
$USERI1
 70
     0
  9
$USERI2
 70
     0
  9
$USERI3
 70
     0
  9
$USERI4
 70
     0
  9
$USERI5
 70
     0
  9
$USERR1
 40
0.0
  9
$USERR2
 40
0.0
  9
$USERR3
 40
0.0
  9
$USERR4
 40
0.0
  9
$USERR5
 40
0.0
  9
$WORLDVIEW
 70
     1
  9
$SHADEDGE
 70
     3
  9
$SHADEDIF
 70
    70
  9
$TILEMODE
 70
     1
  9
$MAXACTVP
 70
    64
  9
$PLIMCHECK
 70
     0
  9
$PEXTMIN
 10
1.0000000000000000E+20
 20
1.0000000000000000E+20
 30
1.0000000000000000E+20
  9
$PEXTMAX
 10
-1.0000000000000000E+20
 20
-1.0000000000000000E+20
 30
-1.0000000000000000E+20
  9
$PLIMMIN
 10
0.0
 20
0.0
  9
$PLIMMAX
 10
12.0
 20
9.0
  9
$UNITMODE
 70
     0
  9
$VISRETAIN
 70
     1
  9
$PLINEGEN
 70
     0
  9
$PSLTSCALE
 70
     1
  0
ENDSEC
  0
SECTION
  2
TABLES
  0
TABLE
  2
VPORT
 70
     1
  0
VPORT
  2
*ACTIVE
 70
     0
 10
0.0
 20
0.0
 11
1.0
 21
1.0
 12
76.0070870638631959
 22
-25.4041736750723715
 13
0.0
 23
0.0
 14
1.0
 24
1.0
 15
0.0
 25
0.0
 16
0.0
 26
0.0
 36
14.6338572656650907
 17
429.6292891080536833
 27
69.7025415122186871
 37
0.0
 40
52.8292655486263385
 41
2.005224660397074
 42
50.0
 43
0.0
 44
0.0
 50
0.0
 51
0.0
 71
     0
 72
   100
 73
     1
 74
     1
 75
     0
 76
     0
 77
     0
 78
     0
  0
ENDTAB
  0
TABLE
  2
LTYPE
 70
     2
  0
LTYPE
  2
CONTINUOUS
 70
     0
  3
Solid line
 72
    65
 73
     0
 40
0.0
  0
LTYPE
  2
PHANTOM2
 70
     0
  3
___ _ _ ___ _ _ ___ _ _ ___ _ _
 72
    65
 73
     6
 40
1.25
 49
0.625
 49
-0.125
 49
0.125
 49
-0.125
 49
0.125
 49
-0.125
  0
ENDTAB
  0
TABLE
  2
LAYER
 70
     2
  0
LAYER
  2
0
 70
     0
 62
   255
  6
CONTINUOUS
  0
LAYER
  2
DEFPOINTS
 70
     0
 62
     7
  6
CONTINUOUS
  0
ENDTAB
  0
TABLE
  2
STYLE
 70
     1
  0
STYLE
  2
STANDARD
 70
     0
 40
0.0
 41
0.8
 50
0.0
 71
     0
 42
0.2
  3
txt
  4

  0
ENDTAB
  0
TABLE
  2
VIEW
 70
     0
  0
ENDTAB
  0
TABLE
  2
UCS
 70
     0
  0
ENDTAB
  0
TABLE
  2
APPID
 70
    10
  0
APPID
  2
ACAD
 70
     0
  0
APPID
  2
ACAD_MLEADERVER
 70
     0
  0
APPID
  2
ACAD_EXEMPT_FROM_CAD_STANDARDS
 70
     0
  0
APPID
  2
ACAD_DSTYLE_DIMJAG
 70
     0
  0
APPID
  2
ACAD_DSTYLE_DIMTALN
 70
     0
  0
APPID
  2
ACAD_NAV_VCDISPLAY
 70
     0
  0
APPID
  2
ACAECLAYERSTANDARD
 70
     0
  0
APPID
  2
ACCMTRANSPARENCY
 70
     0
  0
APPID
  2
DCO15
 70
     0
  0
APPID
  2
ACDBATTR
 70
     0
  0
ENDTAB
  0
TABLE
  2
DIMSTYLE
 70
     1
  0
DIMSTYLE
  2
STANDARD
 70
     0
  3

  4

  5

  6

  7

 40
1.0
 41
0.1875
 42
0.0625
 43
0.38
 44
0.125
 45
0.0
 46
0.0
 47
0.01
 48
0.01
140
0.15625
141
0.09
142
0.0
143
25.3999999999999986
144
1.0
145
0.0
146
1.0
147
0.09
 71
     1
 72
     0
 73
     1
 74
     1
 75
     0
 76
     0
 77
     0
 78
     4
170
     0
171
     2
172
     0
173
     0
174
     0
175
     0
176
     0
177
     0
178
     0
  0
ENDTAB
  0
ENDSEC
  0
SECTION
  2
BLOCKS
  0
BLOCK
  8
0
  2
$MODEL_SPACE
 70
     0
 10
0.0
 20
0.0
 30
0.0
  3
$MODEL_SPACE
  1

  0
ENDBLK
  5
21
  8
0
  0
BLOCK
 67
     1
  8
0
  2
$PAPER_SPACE
 70
     0
 10
0.0
 20
0.0
 30
0.0
  3
$PAPER_SPACE
  1

  0
ENDBLK
  5
1D
 67
     1
  8
0
  0
BLOCK
  8
0
  2
_FILLED
 70
     0
 10
0.0
 20
0.0
 30
0.0
  3
_FILLED
  1

  0
SOLID
  5
87E2
  8
0
  6
BYBLOCK
 62
     0
 10
0.0
 20
0.0
 30
0.0
 11
-1.0
 21
0.1666666667
 31
0.0
 12
-1.0
 22
-0.1666666667
 32
0.0
 13
-1.0
 23
-0.1666666667
 33
0.0
  0
ENDBLK
  5
87E3
  8
0
  6
BYBLOCK
 62
     0
  0
ENDSEC
  0
SECTION
  2
ENTITIES
  0
ATTDEF
  5
C848
  8
DEFPOINTS
 10
490.4443533055164153
 20
48.8561281121463509
 30
0.0
 40
0.001
  1
K-72805T-B4
  3

  2
MODELNUMBER
 70
     0
1001
ACDBATTR
1070
     0
1070
     1
  0
ATTDEF
  5
C849
  8
DEFPOINTS
 10
490.4443533055164153
 20
48.8544614454796928
 30
0.0
 40
0.001
  1
MODULO
  3

  2
TRADENAME
 70
     0
1001
ACDBATTR
1070
     0
1070
     1
  0
ATTDEF
  5
C84A
  8
DEFPOINTS
 10
490.4443533055164153
 20
48.8527947788130206
 30
0.0
 40
0.001
  1
VALVE TRIM
  3

  2
PRODUCT
 70
     0
1001
ACDBATTR
1070
     0
1070
     1
  0
CIRCLE
  5
EE71
  8
0
 10
490.4412256778862798
 20
50.3675081230710404
 30
0.0
 40
0.5314960629999997
  0
CIRCLE
  5
EE72
  8
0
 10
490.4412256778862798
 20
50.3675081230710404
 30
0.0
 40
0.4921259843000004
  0
ARC
  5
EE73
  8
0
 10
490.4424777265302282
 20
44.8085724018053
 30
0.0
 40
0.4632291045273174
 50
269.8404636411502793
 51
293.7493164859286026
  0
ARC
  5
EE74
  8
0
 10
490.470362432238403
 20
44.7412708689437579
 30
0.0
 40
0.3903999500985286
 50
293.9814075444377863
 51
328.6328670430676198
  0
ARC
  5
EE75
  8
0
 10
490.1710117601941761
 20
44.9237596820820997
 30
0.0
 40
0.7409894419175344
 50
328.6328670430676198
 51
348.2626701741215243
  0
ARC
  5
EE76
  8
0
 10
489.9847208103174125
 20
44.9624652793798134
 30
0.0
 40
0.9312588332240652
 50
348.2626701741215243
 51
1.2600036411969839
  0
ARC
  5
EE77
  8
0
 10
486.168684774295798
 20
44.9368009292573518
 30
0.0
 40
4.7472939429004608
 50
0.5569057976368538
 51
8.7632636197621956
  0
ARC
  5
EE78
  8
0
 10
509.2798474782433118
 20
48.5504162371655497
 30
0.0
 40
18.6446855322283511
 50
186.9574541386546969
 51
188.9181290386524097
  0
ARC
  5
EE79
  8
0
 10
492.3095516125234212
 20
46.512499234680547
 30
0.0
 40
1.552840231704792
 50
163.8113388049171988
 51
188.1655676693083024
  0
ARC
  5
EE7A
  8
0
 10
492.4967883289764927
 20
46.364044988245702
 30
0.0
 40
1.7763420441650291
 50
148.8325097321394992
 51
160.8953291730059902
  0
ARC
  5
EE7B
  8
0
 10
489.3421416132742934
 20
48.1588235870985386
 30
0.0
 40
1.854365188663144
 50
331.8292345481979737
 51
340.4059009543913135
  0
ARC
  5
EE7C
  8
0
 10
490.4381711819677889
 20
47.8104569243833311
 30
0.0
 40
0.7060763517645104
 50
337.2098989989348183
 51
203.8585180801175909
  0
ARC
  5
EE7D
  8
0
 10
490.441187896986321
 20
47.8084530049710494
 30
0.0
 40
0.7500781869166291
 50
315.5747042437552068
 51
224.4252957562447079
  0
CIRCLE
  5
EE7E
  8
0
 10
490.441187896986321
 20
47.8084530049710494
 30
0.0
 40
0.5748848274432046
  0
ARC
  5
EE7F
  8
0
 10
490.4466673071866012
 20
44.8409893675484383
 30
0.0
 40
0.4956745614075519
 50
247.0436061662601048
 51
269.3666137066578017
  0
ARC
  5
EE80
  8
0
 10
490.4120133617341821
 20
44.7412708689437579
 30
0.0
 40
0.3903999500985286
 50
211.367132956932096
 51
246.0185924555622137
  0
ARC
  5
EE81
  8
0
 10
490.7113640337782954
 20
44.9237596820820997
 30
0.0
 40
0.7409894419175344
 50
191.7373298258785042
 51
211.367132956932096
  0
ARC
  5
EE82
  8
0
 10
490.8976549836551158
 20
44.9624652793798134
 30
0.0
 40
0.9312588332240652
 50
178.7399963588030118
 51
191.7373298258785042
  0
ARC
  5
EE83
  8
0
 10
494.7136910196767872
 20
44.9368009292573518
 30
0.0
 40
4.7472939429004608
 50
171.2367363802378009
 51
179.4430942023631133
  0
ARC
  5
EE84
  8
0
 10
471.602528315729387
 20
48.5504162371655497
 30
0.0
 40
18.6446855322283511
 50
351.0818709613474766
 51
353.0425458613452179
  0
ARC
  5
EE85
  8
0
 10
488.5728241814491071
 20
46.512499234680547
 30
0.0
 40
1.552840231704792
 50
351.8344323306916976
 51
16.188661195082851
  0
ARC
  5
EE86
  8
0
 10
488.3855874649959787
 20
46.364044988245702
 30
0.0
 40
1.7763420441650291
 50
19.1046708269939884
 51
31.1674902678605399
  0
ARC
  5
EE87
  8
0
 10
493.4487849567162243
 20
49.0900432590916722
 30
0.0
 40
3.9772743125382091
 50
203.1743728934173134
 51
207.0165351081145104
  0
ARC
  5
EE88
  8
0
 10
490.4412256778862798
 20
48.8517617342795702
 30
0.0
 40
3.5433087085504349
 50
279.1182035170406834
 51
260.8817964829593166
  0
ARC
  5
EE89
  8
0
 10
490.4412256450631844
 20
48.8529899012966524
 30
0.0
 40
3.2724536274812568
 50
277.4973583378460944
 51
262.5057000643901119
  0
ARC
  5
EE8A
  8
0
 10
490.4412256778862798
 20
47.8084530049710494
 30
0.0
 40
1.1932390526000001
 50
285.679007319747825
 51
254.3171207193348096
  0
ARC
  5
EE8B
  8
0
 10
490.4412254692747979
 20
48.851758570512601
 30
0.0
 40
3.539181051036973
 50
261.0404666159928979
 51
262.5730607974787745
  0
ARC
  5
EE8C
  8
0
 10
490.4412256778862798
 20
48.8517600915711725
 30
0.0
 40
3.5391825863001101
 50
277.4257193831895734
 51
278.959532885598378
  0
LINE
  5
EE8D
  8
0
 10
490.9924067802498939
 20
45.3557605533035897
 30
0.0
 11
491.0027400869605003
 21
45.3532280167785586
 31
0.0
  0
LINE
  5
EE8E
  8
0
 10
489.8900445755226087
 20
45.3557605533035897
 30
0.0
 11
489.879711268812116
 21
45.3532280167785586
 31
0.0
  0
ENDSEC
  0
EOF
