  0
SECTION
  2
HEADER
  9
$ACADVER
  1
AC1009
  9
$INSBASE
 10
3873.4553300760599086
 20
93.0043587518294999
 30
0.0
  9
$EXTMIN
 10
3866.4180122873799519
 20
87.9769798014552578
 30
0.0
  9
$EXTMAX
 10
3880.0807519106419932
 20
102.7464739222750012
 30
0.0
  9
$LIMMIN
 10
0.0
 20
0.0
  9
$LIMMAX
 10
11.6929133858000007
 20
8.2677165353999982
  9
$ORTHOMODE
 70
     0
  9
$REGENMODE
 70
     1
  9
$FILLMODE
 70
     1
  9
$QTEXTMODE
 70
     0
  9
$MIRRTEXT
 70
     0
  9
$DRAGMODE
 70
     2
  9
$LTSCALE
 40
0.6431102362
  9
$OSMODE
 70
  4095
  9
$ATTMODE
 70
     1
  9
$TEXTSIZE
 40
0.2
  9
$TRACEWID
 40
0.05
  9
$TEXTSTYLE
  7
STANDARD
  9
$CLAYER
  8
0
  9
$CELTYPE
  6
BYLAYER
  9
$CECOLOR
 62
   256
  9
$DIMSCALE
 40
1.0
  9
$DIMASZ
 40
0.1875
  9
$DIMEXO
 40
0.0625
  9
$DIMDLI
 40
0.4443307087
  9
$DIMRND
 40
0.0
  9
$DIMDLE
 40
0.0
  9
$DIMEXE
 40
0.125
  9
$DIMTP
 40
0.01
  9
$DIMTM
 40
0.01
  9
$DIMTXT
 40
2.0
  9
$DIMCEN
 40
0.1052362205
  9
$DIMTSZ
 40
0.0
  9
$DIMTOL
 70
     1
  9
$DIMLIM
 70
     0
  9
$DIMTIH
 70
     1
  9
$DIMTOH
 70
     1
  9
$DIMSE1
 70
     0
  9
$DIMSE2
 70
     0
  9
$DIMTAD
 70
     0
  9
$DIMZIN
 70
     0
  9
$DIMBLK
  1

  9
$DIMASO
 70
     1
  9
$DIMSHO
 70
     1
  9
$DIMPOST
  1
\X
  9
$DIMAPOST
  1

  9
$DIMALT
 70
     1
  9
$DIMALTD
 70
     2
  9
$DIMALTF
 40
25.3999999999999986
  9
$DIMLFAC
 40
1.0
  9
$DIMTOFL
 70
     0
  9
$DIMTVP
 40
0.0
  9
$DIMTIX
 70
     0
  9
$DIMSOXD
 70
     0
  9
$DIMSAH
 70
     0
  9
$DIMBLK1
  1

  9
$DIMBLK2
  1

  9
$DIMSTYLE
  2
STANDARD
  9
$DIMCLRD
 70
     0
  9
$DIMCLRE
 70
     0
  9
$DIMCLRT
 70
     0
  9
$DIMTFAC
 40
1.0
  9
$DIMGAP
 40
0.09
  9
$LUNITS
 70
     2
  9
$LUPREC
 70
     4
  9
$SKETCHINC
 40
0.1
  9
$FILLETRAD
 40
0.0
  9
$AUNITS
 70
     0
  9
$AUPREC
 70
     0
  9
$MENU
  1
.
  9
$ELEVATION
 40
0.0
  9
$PELEVATION
 40
0.0
  9
$THICKNESS
 40
0.0
  9
$LIMCHECK
 70
     0
  9
$BLIPMODE
 70
     0
  9
$CHAMFERA
 40
0.0
  9
$CHAMFERB
 40
0.0
  9
$SKPOLY
 70
     0
  9
$TDCREATE
 40
2458060.468368056230247
  9
$TDUPDATE
 40
2459051.9714467590674758
  9
$TDINDWG
 40
0.4089653935
  9
$TDUSRTIMER
 40
0.4089653935
  9
$USRTIMER
 70
     1
  9
$ANGBASE
 50
0.0
  9
$ANGDIR
 70
     0
  9
$PDMODE
 70
     0
  9
$PDSIZE
 40
0.3125
  9
$PLINEWID
 40
0.0
  9
$COORDS
 70
     1
  9
$SPLFRAME
 70
     0
  9
$SPLINETYPE
 70
     6
  9
$SPLINESEGS
 70
     8
  9
$ATTDIA
 70
     1
  9
$ATTREQ
 70
     1
  9
$HANDLING
 70
     1
  9
$HANDSEED
  5
7246
  9
$SURFTAB1
 70
     6
  9
$SURFTAB2
 70
     6
  9
$SURFTYPE
 70
     6
  9
$SURFU
 70
     6
  9
$SURFV
 70
     6
  9
$UCSNAME
  2

  9
$UCSORG
 10
0.0
 20
0.0
 30
0.0
  9
$UCSXDIR
 10
1.0
 20
0.0
 30
0.0
  9
$UCSYDIR
 10
0.0
 20
1.0
 30
0.0
  9
$PUCSNAME
  2

  9
$PUCSORG
 10
0.0
 20
0.0
 30
0.0
  9
$PUCSXDIR
 10
1.0
 20
0.0
 30
0.0
  9
$PUCSYDIR
 10
0.0
 20
1.0
 30
0.0
  9
$USERI1
 70
     0
  9
$USERI2
 70
     0
  9
$USERI3
 70
     0
  9
$USERI4
 70
     0
  9
$USERI5
 70
     0
  9
$USERR1
 40
0.0
  9
$USERR2
 40
0.0
  9
$USERR3
 40
0.0
  9
$USERR4
 40
0.0
  9
$USERR5
 40
0.0
  9
$WORLDVIEW
 70
     1
  9
$SHADEDGE
 70
     3
  9
$SHADEDIF
 70
    70
  9
$TILEMODE
 70
     1
  9
$MAXACTVP
 70
    64
  9
$PLIMCHECK
 70
     0
  9
$PEXTMIN
 10
1.0000000000000000E+20
 20
1.0000000000000000E+20
 30
1.0000000000000000E+20
  9
$PEXTMAX
 10
-1.0000000000000000E+20
 20
-1.0000000000000000E+20
 30
-1.0000000000000000E+20
  9
$PLIMMIN
 10
0.0
 20
0.0
  9
$PLIMMAX
 10
12.0
 20
9.0
  9
$UNITMODE
 70
     0
  9
$VISRETAIN
 70
     1
  9
$PLINEGEN
 70
     0
  9
$PSLTSCALE
 70
     1
  0
ENDSEC
  0
SECTION
  2
TABLES
  0
TABLE
  2
VPORT
 70
     1
  0
VPORT
  2
*ACTIVE
 70
     0
 10
0.0
 20
0.0
 11
1.0
 21
1.0
 12
87.9154418419930153
 22
-48.1725216359335917
 13
0.0
 23
0.0
 14
1.0
 24
1.0
 15
0.0
 25
0.0
 16
0.0
 26
0.0
 36
5.1040778033513332
 17
3792.35791015625
 27
120.1806564331053977
 37
0.0
 40
81.8499351238664445
 41
2.005224660397074
 42
50.0
 43
0.0
 44
0.0
 50
0.0
 51
0.0
 71
     0
 72
   100
 73
     1
 74
     1
 75
     0
 76
     0
 77
     0
 78
     0
  0
ENDTAB
  0
TABLE
  2
LTYPE
 70
     2
  0
LTYPE
  2
CONTINUOUS
 70
     0
  3
Solid line
 72
    65
 73
     0
 40
0.0
  0
LTYPE
  2
PHANTOM2
 70
     0
  3
___ _ _ ___ _ _ ___ _ _ ___ _ _
 72
    65
 73
     6
 40
1.25
 49
0.625
 49
-0.125
 49
0.125
 49
-0.125
 49
0.125
 49
-0.125
  0
ENDTAB
  0
TABLE
  2
LAYER
 70
     2
  0
LAYER
  2
0
 70
     0
 62
   255
  6
CONTINUOUS
  0
LAYER
  2
DEFPOINTS
 70
     0
 62
     7
  6
CONTINUOUS
  0
ENDTAB
  0
TABLE
  2
STYLE
 70
     1
  0
STYLE
  2
STANDARD
 70
     0
 40
0.0
 41
0.8
 50
0.0
 71
     0
 42
0.2
  3
txt
  4

  0
ENDTAB
  0
TABLE
  2
VIEW
 70
     0
  0
ENDTAB
  0
TABLE
  2
UCS
 70
     0
  0
ENDTAB
  0
TABLE
  2
APPID
 70
     9
  0
APPID
  2
ACAD
 70
     0
  0
APPID
  2
ACAD_MLEADERVER
 70
     0
  0
APPID
  2
ACAD_EXEMPT_FROM_CAD_STANDARDS
 70
     0
  0
APPID
  2
ACAD_NAV_VCDISPLAY
 70
     0
  0
APPID
  2
ACAECLAYERSTANDARD
 70
     0
  0
APPID
  2
ACCMTRANSPARENCY
 70
     0
  0
APPID
  2
ACAD_DSTYLE_DIMJAG
 70
     0
  0
APPID
  2
ACAD_DSTYLE_DIMTALN
 70
     0
  0
APPID
  2
ACDBATTR
 70
     0
  0
ENDTAB
  0
TABLE
  2
DIMSTYLE
 70
     1
  0
DIMSTYLE
  2
STANDARD
 70
     0
  3

  4

  5

  6

  7

 40
1.0
 41
0.1875
 42
0.0625
 43
0.38
 44
0.125
 45
0.0
 46
0.0
 47
0.01
 48
0.01
140
0.15625
141
0.09
142
0.0
143
25.3999999999999986
144
1.0
145
0.0
146
1.0
147
0.09
 71
     1
 72
     0
 73
     1
 74
     1
 75
     0
 76
     0
 77
     0
 78
     4
170
     0
171
     2
172
     0
173
     0
174
     0
175
     0
176
     0
177
     0
178
     0
  0
ENDTAB
  0
ENDSEC
  0
SECTION
  2
BLOCKS
  0
BLOCK
  8
0
  2
$MODEL_SPACE
 70
     0
 10
0.0
 20
0.0
 30
0.0
  3
$MODEL_SPACE
  1

  0
ENDBLK
  5
21
  8
0
  0
BLOCK
 67
     1
  8
0
  2
$PAPER_SPACE
 70
     0
 10
0.0
 20
0.0
 30
0.0
  3
$PAPER_SPACE
  1

  0
ENDBLK
  5
1D
 67
     1
  8
0
  0
BLOCK
  8
0
  2
_FILLED
 70
     0
 10
0.0
 20
0.0
 30
0.0
  3
_FILLED
  1

  0
SOLID
  5
69B4
  8
0
  6
BYBLOCK
 62
     0
 10
0.0
 20
0.0
 30
0.0
 11
-1.0
 21
0.1666666667
 31
0.0
 12
-1.0
 22
-0.1666666667
 32
0.0
 13
-1.0
 23
-0.1666666667
 33
0.0
  0
ENDBLK
  5
69B5
  8
0
  6
BYBLOCK
 62
     0
  0
BLOCK
  8
0
  2
A$CDFAF6206
 70
     0
 10
0.0
 20
0.0
 30
0.0
  3
A$CDFAF6206
  1

  0
LINE
  5
6A0E
  8
0
 10
7.4646650085734834
 20
10.9287685970688493
 30
0.0
 11
7.4646650085734896
 21
10.8905784766688498
 31
0.0
  0
ARC
  5
6A0F
  8
0
 10
7.7269027075262349
 20
10.8926811525838598
 30
0.0
 40
0.2622461286616791
 50
180.4593995232625048
 51
217.0214027758331099
  0
LINE
  5
6A10
  8
0
 10
9.767814609867095
 20
10.9287685970688493
 30
0.0
 11
9.767814609867095
 21
10.8905433757650094
 31
0.0
  0
ARC
  5
6A11
  8
0
 10
9.5068669568548287
 20
10.8922438613003703
 30
0.0
 40
0.2609531936261092
 50
322.8847083717149076
 51
359.6266329125650145
  0
LINE
  5
6A12
  8
0
 10
7.517522606271406
 20
10.7347792678688396
 30
0.0
 11
9.7149570120691777
 21
10.7347792678688396
 31
0.0
  0
LINE
  5
6A13
  8
0
 10
7.4646650085734834
 20
10.9287685970688493
 30
0.0
 11
9.7678146123202936
 21
10.9287685970688493
 31
0.0
  0
ARC
  5
6A14
  8
0
 10
4.0826771419203629
 20
8.527951346868889
 30
0.0
 40
4.0826771653999172
 50
13.3117747050523896
 51
32.7200330051415591
  0
ARC
  5
6A15
  8
0
 10
4.0826771460567306
 20
8.5279513475907933
 30
0.0
 40
4.0826771612084691
 50
359.6656501984817851
 51
13.3117747085593798
  0
ARC
  5
6A16
  8
0
 10
13.1498041284835097
 20
8.5279508235212234
 30
0.0
 40
4.0826788382043553
 50
147.2799733478981068
 51
166.6882233021349862
  0
ARC
  5
6A17
  8
0
 10
13.1498064934207992
 20
8.5279506557033251
 30
0.0
 40
4.0826811782395342
 50
166.688228652086309
 51
180.3343397625230011
  0
LINE
  5
6A18
  8
0
 10
8.1652847935202928
 20
8.504127000268852
 30
0.0
 11
9.0671948248202892
 21
8.5041270002687881
 31
0.0
  0
LINE
  5
6A19
  8
0
 10
8.1652847935202786
 20
8.5041270002667204
 30
0.0
 11
8.1652847935202928
 21
8.3607006934688481
 31
0.0
  0
ARC
  5
6A1A
  8
0
 10
5.6196779630382627
 20
8.3631022096452732
 30
0.0
 40
2.545607963272567
 50
342.0511668832173768
 51
359.945947387132378
  0
LINE
  5
6A1B
  8
0
 10
9.0671948248202892
 20
8.5041270002687881
 30
0.0
 11
9.0671948248202892
 21
8.2885990108688503
 31
0.0
  0
ARC
  5
6A1C
  8
0
 10
9.4521885297801163
 20
7.9614488056228501
 30
0.0
 40
0.5052201595850959
 50
139.6436242991769916
 51
174.6757930071850069
  0
ARC
  5
6A1D
  8
0
 10
9.9238413395551746
 20
8.1492417579399508
 30
0.0
 40
0.9848265662939324
 50
188.2263441834095943
 51
209.5593615864376034
  0
ARC
  5
6A1E
  8
0
 10
8.0788764238271256
 20
7.5665710856463297
 30
0.0
 40
0.0393715937169877
 50
162.1669117288323037
 51
227.2023190037006088
  0
ARC
  5
6A1F
  8
0
 10
8.7223682141740682
 20
8.2079667397440517
 30
0.0
 40
0.947895137885075
 50
225.0018610752970858
 51
261.4598823366255829
  0
ARC
  5
6A20
  8
0
 10
8.6645157662702701
 20
8.1695128573935332
 30
0.0
 40
0.9027466462812931
 50
264.7303071214498118
 51
281.8608311947915013
  0
ARC
  5
6A21
  8
0
 10
8.6645157662698935
 20
8.1695128573999671
 30
0.0
 40
0.9027466462876658
 50
299.1741886792128753
 51
299.1743179154552195
  0
ARC
  5
6A22
  8
0
 10
9.0843330931590316
 20
7.4150554710086141
 30
0.0
 40
0.0393703053609601
 50
251.9700352025496954
 51
252.4698971938937859
  0
ARC
  5
6A23
  8
0
 10
9.0843330931590316
 20
7.4150554710086141
 30
0.0
 40
0.0393703053609601
 50
297.2453716727138726
 51
6.8376113572703074
  0
LINE
  5
6A24
  8
0
 10
9.0671948248202892
 20
7.663402160468852
 30
0.0
 11
9.1234233799329516
 21
7.419742732911689
 31
0.0
  0
ARC
  5
6A25
  8
0
 10
8.8843741880892395
 20
9.8961379890094676
 30
0.0
 40
2.5255097382132701
 50
263.792800240752797
 51
274.9514951129821156
  0
ARC
  5
6A26
  8
0
 10
8.8258167405968848
 20
9.2763025889666508
 30
0.0
 40
1.9029970832759311
 50
246.0108363320686067
 51
263.5276935074397215
  0
ARC
  5
6A27
  8
0
 10
8.607491361665744
 20
8.3225444804829642
 30
0.0
 40
1.064510137163637
 50
283.1717405874071005
 51
297.7022170607311864
  0
LINE
  5
6A28
  8
0
 10
9.0671948248202892
 20
8.2885990108688503
 30
0.0
 11
26.2014378595979593
 21
8.2885990108689942
 31
0.0
  0
LINE
  5
6A29
  8
0
 10
26.2014378595979913
 20
7.6634021604689053
 30
0.0
 11
9.0671948248202892
 21
7.6634021604688618
 31
0.0
  0
LINE
  5
6A2A
  8
0
 10
27.8039676758446994
 20
10.9287685970690802
 30
0.0
 11
27.8039676758446888
 21
10.8905784766690807
 31
0.0
  0
ARC
  5
6A2B
  8
0
 10
27.5417299768919399
 20
10.8926811525840801
 30
0.0
 40
0.2622461286616791
 50
322.9785972241680838
 51
359.5406004767386889
  0
LINE
  5
6A2C
  8
0
 10
25.5008180745510913
 20
10.9287685970690305
 30
0.0
 11
25.5008180745510913
 21
10.8905433757651799
 31
0.0
  0
ARC
  5
6A2D
  8
0
 10
25.7617657275633505
 20
10.8922438613005497
 30
0.0
 40
0.2609531936261092
 50
180.3733670874362929
 51
217.1152916282862861
  0
LINE
  5
6A2E
  8
0
 10
27.7511100781467803
 20
10.7347792678690706
 30
0.0
 11
25.5536756723490015
 21
10.7347792678690208
 31
0.0
  0
LINE
  5
6A2F
  8
0
 10
27.8039676758446888
 20
10.9287685970686006
 30
0.0
 11
25.5008180745510806
 21
10.9287685970686006
 31
0.0
  0
ARC
  5
6A30
  8
0
 10
31.1859555424978616
 20
8.5279513468691981
 30
0.0
 40
4.0826771653999172
 50
147.2799669948597057
 51
166.6882252949490066
  0
ARC
  5
6A31
  8
0
 10
31.185955538361501
 20
8.5279513475911024
 30
0.0
 40
4.0826771612084691
 50
166.6882252914419098
 51
180.3343498015194086
  0
ARC
  5
6A32
  8
0
 10
22.1188285559344706
 20
8.5279508235212251
 30
0.0
 40
4.0826788382046102
 50
13.3117766978667795
 51
32.7200266521023977
  0
ARC
  5
6A33
  8
0
 10
22.1188261909974315
 20
8.5279506557034264
 30
0.0
 40
4.0826811782395342
 50
359.665660237478221
 51
13.31177134791497
  0
LINE
  5
6A34
  8
0
 10
27.1033478908979397
 20
8.5041270002690652
 30
0.0
 11
26.2014378595979416
 21
8.5041270002689835
 31
0.0
  0
LINE
  5
6A35
  8
0
 10
27.1033478908979504
 20
8.5041270002669354
 30
0.0
 11
27.1033478908979397
 21
8.3607006934690649
 31
0.0
  0
ARC
  5
6A36
  8
0
 10
29.6489547213799689
 20
8.3631022096455467
 30
0.0
 40
2.545607963272567
 50
180.0540526128687873
 51
197.9488331167837032
  0
LINE
  5
6A37
  8
0
 10
26.2014378595979416
 20
8.5041270002689835
 30
0.0
 11
26.2014378595979487
 21
8.2885990108690457
 31
0.0
  0
ARC
  5
6A38
  8
0
 10
25.8164441546381305
 20
7.9614488056230366
 30
0.0
 40
0.5052201595850959
 50
5.324206992816312
 51
40.3563757008241879
  0
ARC
  5
6A39
  8
0
 10
25.3447913448601803
 20
8.149241757940846
 30
0.0
 40
0.9848265662968968
 50
330.4406384136033807
 51
351.7736558165743759
  0
ARC
  5
6A3A
  8
0
 10
27.1897562605911212
 20
7.5665710856465473
 30
0.0
 40
0.0393715937169877
 50
312.7976809963004143
 51
17.8330882711689185
  0
ARC
  5
6A3B
  8
0
 10
26.5462644702441715
 20
8.2079667397442542
 30
0.0
 40
0.947895137885075
 50
278.5401176633754972
 51
314.9981389247041079
  0
ARC
  5
6A3C
  8
0
 10
26.6041169181479695
 20
8.1695128573937392
 30
0.0
 40
0.9027466462812931
 50
258.139168805210204
 51
275.2696928785518935
  0
ARC
  5
6A3D
  8
0
 10
26.6041169181483497
 20
8.1695128574001732
 30
0.0
 40
0.9027466462876658
 50
240.8256820845460027
 51
240.8258113207880058
  0
ARC
  5
6A3E
  8
0
 10
26.1842995912592293
 20
7.4150554710088086
 30
0.0
 40
0.0393703053609601
 50
287.5301028061073794
 51
288.0299647974517825
  0
ARC
  5
6A3F
  8
0
 10
26.1842995912592293
 20
7.4150554710088086
 30
0.0
 40
0.0393703053609601
 50
173.1623886427310026
 51
242.7546283272870085
  0
LINE
  5
6A40
  8
0
 10
26.2014378595981192
 20
7.6634021604690448
 30
0.0
 11
26.1452093044853093
 21
7.4197427329118826
 31
0.0
  0
ARC
  5
6A41
  8
0
 10
26.384258496328961
 20
9.8961379890096666
 30
0.0
 40
2.5255097382132701
 50
265.0485048870193054
 51
276.2071997592482262
  0
ARC
  5
6A42
  8
0
 10
26.4428159438213299
 20
9.2763025889668516
 30
0.0
 40
1.9029970832759311
 50
276.4723064925619838
 51
293.9891636679327007
  0
ARC
  5
6A43
  8
0
 10
26.6611413227524885
 20
8.3225444804831703
 30
0.0
 40
1.064510137163637
 50
242.2977829392704052
 51
256.8282594125943774
  0
LINE
  5
6A44
  8
0
 62
     4
 10
17.9031473532159602
 20
10.9287685970686006
 30
0.0
 11
24.6329820359843588
 21
20.0952817181593808
 31
0.0
  0
LINE
  5
6A45
  8
0
 62
     4
 10
17.9031473532159602
 20
-0.0000000300842942
 30
0.0
 11
22.3963351323106608
 21
4.993614497796286
 31
0.0
  0
ENDBLK
  5
6A49
  8
0
  0
ENDSEC
  0
SECTION
  2
ENTITIES
  0
ATTDEF
  5
3930
  8
DEFPOINTS
 10
3873.4553775121630679
 20
93.006025418496165
 30
0.0
 40
0.001
  1
K-72802T-4
  3

  2
MODELNUMBER
 70
     0
1001
ACDBATTR
1070
     0
1070
     1
  0
ATTDEF
  5
3931
  8
DEFPOINTS
 10
3873.4553775121630679
 20
93.0043587518294999
 30
0.0
 40
0.001
  1
MODULO
  3

  2
TRADENAME
 70
     0
1001
ACDBATTR
1070
     0
1070
     1
  0
ATTDEF
  5
3932
  8
DEFPOINTS
 10
3873.4553775121630679
 20
93.0026920851628347
 30
0.0
 40
0.001
  1
VALVE TRIM
  3

  2
PRODUCT
 70
     0
1001
ACDBATTR
1070
     0
1070
     1
  0
LINE
  5
714B
  8
0
 10
3869.9120229894601835
 20
93.0043587518294999
 30
0.0
 11
3876.9986371390291424
 21
93.0043587518294999
 31
0.0
  0
LINE
  5
714C
  8
0
 10
3876.9986371390291424
 20
93.0043587518294999
 30
0.0
 11
3876.988869385560065
 21
92.7246462129294997
 31
0.0
  0
ARC
  5
714D
  8
0
 10
3876.8708310987849472
 20
92.7287682008076644
 30
0.0
 40
0.118110236378147
 50
270.0000000851480877
 51
357.9999999650844984
  0
ARC
  5
714E
  8
0
 10
3876.8245820443280536
 20
92.5122327678442247
 30
0.0
 40
0.098425196585275
 50
89.9999998651908868
 51
141.9321667499181956
  0
ARC
  5
714F
  8
0
 10
3876.8245820445599747
 20
92.5122327676294844
 30
0.0
 40
0.0984251968999702
 50
141.9321667346198979
 51
174.7840908006456004
  0
ARC
  5
7150
  8
0
 10
3876.6089432423950711
 20
92.5319178070788553
 30
0.0
 40
0.1181102362805954
 50
312.3920457220605158
 51
354.784091360364414
  0
ARC
  5
7151
  8
0
 10
3876.6089432420640151
 20
92.5319178076686057
 30
0.0
 40
0.1181102369390921
 50
270.0000002027347819
 51
312.3920456476569143
  0
LINE
  5
7152
  8
0
 10
3876.6089432424601
 20
92.4138075708295048
 30
0.0
 11
3870.3017170295370306
 21
92.413807570729503
 31
0.0
  0
LINE
  5
7153
  8
0
 10
3869.9120229894601835
 20
93.0043587518294999
 30
0.0
 11
3869.921790766560207
 21
92.7246462129294997
 31
0.0
  0
ARC
  5
7154
  8
0
 10
3870.0398290533757972
 20
92.7287682002135654
 30
0.0
 40
0.1181102363624626
 50
181.9999997474072018
 51
270.0000265319122832
  0
LINE
  5
7155
  8
0
 10
3870.0398291080691706
 20
92.6106579639511267
 30
0.0
 11
3876.870831098960025
 21
92.6106579644295067
 31
0.0
  0
ARC
  5
7156
  8
0
 10
3870.0860781075562045
 20
92.5122327668783555
 30
0.0
 40
0.0984251970806122
 50
38.0678529073167766
 51
89.9999999584942145
  0
ARC
  5
7157
  8
0
 10
3870.086078109097798
 20
92.512232767894119
 30
0.0
 40
0.0984251952394869
 50
5.2159084614998923
 51
38.0678529956393277
  0
ARC
  5
7158
  8
0
 10
3870.3017169099921375
 20
92.5319178066856693
 30
0.0
 40
0.1181102365106005
 50
185.2159084379271974
 51
227.6079542667577869
  0
ARC
  5
7159
  8
0
 10
3870.3017169101372019
 20
92.5319178071349597
 30
0.0
 40
0.1181102369395396
 50
227.6079543620830066
 51
270.0000579115330765
  0
LINE
  5
715A
  8
0
 10
3872.4908543225578796
 20
92.4138075707642059
 30
0.0
 11
3872.4908543225737958
 21
91.3429414290294943
 31
0.0
  0
ARC
  5
715B
  8
0
 10
3872.5025103088250944
 20
91.3427872325469963
 30
0.0
 40
0.0116570061353056
 50
179.2420810948675864
 51
270.3175358516296001
  0
LINE
  5
715C
  8
0
 10
3872.5025749121600711
 20
91.331130405429505
 30
0.0
 11
3874.4080852399602009
 21
91.331130405429505
 31
0.0
  0
ARC
  5
715D
  8
0
 10
3874.408172231440858
 20
91.3427331755435432
 30
0.0
 40
0.0116030962176987
 50
269.570434363086008
 51
1.0283906696003029
  0
LINE
  5
715E
  8
0
 10
3872.510448186360918
 20
91.331130405429505
 30
0.0
 11
3872.510448186360918
 21
91.3068651885294997
 31
0.0
  0
ARC
  5
715F
  8
0
 10
3872.5301332255380657
 20
91.3068651884236715
 30
0.0
 40
0.0196850391775539
 50
179.9999994008954047
 51
255.0000243028395062
  0
ARC
  5
7160
  8
0
 10
3874.3805269264598792
 20
91.3068651886295157
 30
0.0
 40
0.0196850394000133
 50
284.9999757987720841
 51
359.9999999999682245
  0
LINE
  5
7161
  8
0
 10
3874.4002119658589436
 20
91.3068651885294997
 30
0.0
 11
3874.4002119658589436
 21
91.331130405429505
 31
0.0
  0
ARC
  5
7162
  8
0
 10
3872.5325557768151157
 20
91.1857749220618814
 30
0.0
 40
0.0396173616585846
 50
12.9814124710426508
 51
62.3658296089200377
  0
ARC
  5
7163
  8
0
 10
3872.8283970047109506
 20
91.2450466880794409
 30
0.0
 40
0.2621219556214532
 50
191.079527145552504
 51
204.2581523574737901
  0
ARC
  5
7164
  8
0
 10
3872.8205053731180669
 20
91.2473634920274037
 30
0.0
 40
0.255935000178395
 50
205.4569445189223131
 51
223.9798329886633894
  0
ARC
  5
7165
  8
0
 10
3872.8992668954779219
 20
91.3236169365310388
 30
0.0
 40
0.3655613789729284
 50
224.0077900675466935
 51
236.1976571312166016
  0
ARC
  5
7166
  8
0
 10
3873.0702614475821974
 20
91.6011651241825859
 30
0.0
 40
0.6914323671527047
 50
237.2184748749344863
 51
252.189555237304603
  0
ARC
  5
7167
  8
0
 10
3873.2918028732328821
 20
92.2861450790166202
 30
0.0
 40
1.4113470622489039
 50
252.1323259142126005
 51
262.1436370591222271
  0
ARC
  5
7168
  8
0
 10
3873.4466649535897886
 20
93.3344937724436789
 30
0.0
 40
2.471044600396239
 50
261.9092262451558213
 51
270.2009174435502814
  0
LINE
  5
7169
  8
0
 10
3872.6436709330791928
 20
91.2209794395542559
 30
0.0
 11
3872.529437349609907
 21
91.2208483519794981
 31
0.0
  0
ARC
  5
716A
  8
0
 10
3872.5300178212678475
 20
91.1835274727661016
 30
0.0
 40
0.0372731345910214
 50
90.881070087731544
 51
144.1620813950632112
  0
ARC
  5
716B
  8
0
 10
3872.5547467093479099
 20
91.1723782575789556
 30
0.0
 40
0.064079414920304
 50
149.0322429206505888
 51
175.6230827396371978
  0
ARC
  5
716C
  8
0
 10
3872.5829922702801014
 20
91.1745609870571911
 30
0.0
 40
0.0921778691338163
 50
181.6832534798718939
 51
188.5254675117795955
  0
ARC
  5
716D
  8
0
 10
3872.7486023206161008
 20
91.1997821702054665
 30
0.0
 40
0.2596972488624923
 50
188.6117229011267113
 51
194.1700458945749972
  0
ARC
  5
716E
  8
0
 10
3872.7073166247500922
 20
91.187837868690977
 30
0.0
 40
0.2167487752280431
 50
193.7803718619952917
 51
209.7430066430291902
  0
ARC
  5
716F
  8
0
 10
3872.8041890191630046
 20
91.2564968741365448
 30
0.0
 40
0.3351208430951933
 50
211.7188615793812119
 51
242.2197843659708951
  0
ARC
  5
7170
  8
0
 10
3873.0656005905539132
 20
91.7221884633544562
 30
0.0
 40
0.869093277795806
 50
241.2815037918007874
 51
256.2450766660913928
  0
ARC
  5
7171
  8
0
 10
3873.3115217608969942
 20
92.6510690677412043
 30
0.0
 40
1.829896252915159
 50
255.6811821703014118
 51
263.1991963468266817
  0
ARC
  5
7172
  8
0
 10
3873.4234261928240812
 20
93.4901045602891259
 30
0.0
 40
2.6763054895182701
 50
262.9474260807493806
 51
266.8827349457857849
  0
ARC
  5
7173
  8
0
 10
3873.4507095351477801
 20
93.851777228859774
 30
0.0
 40
3.0389361033773432
 50
266.7399105136556727
 51
270.0871152417320786
  0
ARC
  5
7174
  8
0
 10
3874.3781043753870108
 20
91.1857749218598457
 30
0.0
 40
0.0396173616585064
 50
117.6841098707167959
 51
171.0457888017585901
  0
ARC
  5
7175
  8
0
 10
3874.0806821273918104
 20
91.2456572462794639
 30
0.0
 40
0.2638142407278211
 50
335.7620263916873
 51
348.2516675655464837
  0
ARC
  5
7176
  8
0
 10
3874.0901547790981567
 20
91.2473634918883363
 30
0.0
 40
0.255935000178395
 50
316.0201669987960145
 51
334.5430554685289053
  0
ARC
  5
7177
  8
0
 10
3874.0113932567542179
 20
91.3236169364092518
 30
0.0
 40
0.3655613789729284
 50
303.8023428562393065
 51
315.9922099198975047
  0
ARC
  5
7178
  8
0
 10
3873.8403987047108785
 20
91.6011651240982445
 30
0.0
 40
0.6914323671527047
 50
287.8104447501352752
 51
302.7815251125372242
  0
ARC
  5
7179
  8
0
 10
3873.6188572792098057
 20
92.2861450789817042
 30
0.0
 40
1.411347062249833
 50
277.8563629283318051
 51
287.8676740732481107
  0
ARC
  5
717A
  8
0
 10
3873.4639951990820919
 20
93.3344937724418031
 30
0.0
 40
2.471044600396239
 50
269.7990825438910747
 51
278.0907737422911055
  0
LINE
  5
717B
  8
0
 10
3874.2669821888489423
 20
91.2208941847517565
 30
0.0
 11
3874.3812228025990407
 21
91.2208483517767093
 31
0.0
  0
ARC
  5
717C
  8
0
 10
3874.3804770007309344
 20
91.1833393790370224
 30
0.0
 40
0.0375163865052924
 50
35.9229355770983929
 51
88.8609213632868062
  0
ARC
  5
717D
  8
0
 10
3874.3725743140557825
 20
91.1779220730072666
 30
0.0
 40
0.0470950121222976
 50
4.3972292567136249
 51
35.6193832281965967
  0
ARC
  5
717E
  8
0
 10
3874.3646657864801455
 20
91.1761508802562588
 30
0.0
 40
0.055128257173612
 50
1.5552613843246641
 51
5.6025380521617212
  0
ARC
  5
717F
  8
0
 10
3874.3389751538679775
 20
91.1732764925072132
 30
0.0
 40
0.0808061366947374
 50
351.1866623644668266
 51
0.5141075606020483
  0
ARC
  5
7180
  8
0
 10
3874.1620578315878447
 20
91.1997821700506961
 30
0.0
 40
0.2596972488624923
 50
345.829954092875596
 51
351.3882770863252176
  0
ARC
  5
7181
  8
0
 10
3874.2033435274529438
 20
91.1878378685271258
 30
0.0
 40
0.2167487752279404
 50
330.2569933444174239
 51
346.2196281254629753
  0
ARC
  5
7182
  8
0
 10
3874.1064711330550381
 20
91.2564968739938536
 30
0.0
 40
0.3351208430951007
 50
297.7802185790275757
 51
328.2811384080757762
  0
ARC
  5
7183
  8
0
 10
3873.845059556752858
 20
91.722188479169489
 30
0.0
 40
0.8690932944319122
 50
283.7549256519379242
 51
298.7184971220337957
  0
ARC
  5
7184
  8
0
 10
3873.5991383797909293
 20
92.6510691452245254
 30
0.0
 40
1.8298963312859879
 50
276.8008037211344003
 51
284.3188186487270173
  0
ARC
  5
7185
  8
0
 10
3873.4872339598828148
 20
93.4901045602821483
 30
0.0
 40
2.6763054895182701
 50
273.1172650416631882
 51
277.0525739067012978
  0
ARC
  5
7186
  8
0
 10
3873.4599506177892181
 20
93.8517772252545939
 30
0.0
 40
3.038936099770337
 50
269.9128847808837008
 51
273.2600894747831717
  0
LINE
  5
7187
  8
0
 10
3874.3207069791010326
 20
91.270457029729485
 30
0.0
 11
3874.3856217815291529
 21
91.2878508985294985
 31
0.0
  0
ARC
  5
7188
  8
0
 10
3874.3410864467600732
 20
91.1943998821294883
 30
0.0
 40
0.078740157500017
 50
105.0000115137821979
 51
130.4671177429191005
  0
ARC
  5
7189
  8
0
 10
3874.3406525230011539
 20
91.1947977422608176
 30
0.0
 40
0.0781558855901223
 50
130.4144051336413952
 51
160.4941889144922982
  0
ARC
  5
718A
  8
0
 10
3874.3390425277189024
 20
91.1946947784913959
 30
0.0
 40
0.0766752981232265
 50
160.0199457641294032
 51
182.0580824774810083
  0
ARC
  5
718B
  8
0
 10
3873.447028425796816
 20
91.207318285115349
 30
0.0
 40
0.8155332472288797
 50
348.3876124595569195
 51
358.9196074796712992
  0
LINE
  5
718C
  8
0
 10
3872.5899531730187846
 20
91.270457029729485
 30
0.0
 11
3872.5250383705611057
 21
91.2878508985293422
 31
0.0
  0
ARC
  5
718D
  8
0
 10
3872.5709936469079366
 20
91.1971031076637502
 30
0.0
 40
0.0757645135455472
 50
49.0680774077555668
 51
75.5081180597859287
  0
ARC
  5
718E
  8
0
 10
3872.5708332454009906
 20
91.1953167411306254
 30
0.0
 40
0.0772263092366721
 50
19.4087423866906512
 51
49.846507749976567
  0
ARC
  5
718F
  8
0
 10
3872.5712708570608811
 20
91.1946997744665993
 30
0.0
 40
0.0770220215551503
 50
357.9474673467033199
 51
19.9498046313772512
  0
ARC
  5
7190
  8
0
 10
3873.4616133375088793
 20
91.2070937991026796
 30
0.0
 40
0.8135110058412426
 50
181.0672651113976883
 51
191.6255150022242901
  0
LINE
  5
7191
  8
0
 10
3872.4908541769718795
 20
91.177268628039954
 30
0.0
 11
3872.4908541769718795
 21
90.1303430038294948
 31
0.0
  0
ARC
  5
7192
  8
0
 10
3872.531731609803046
 20
90.1318467941741659
 30
0.0
 40
0.0409050840378662
 50
182.1068349197485929
 51
267.7614941705494971
  0
ARC
  5
7193
  8
0
 10
3874.3741580863979834
 20
90.1365689318804471
 30
0.0
 40
0.046038566191389
 50
277.9508041106752216
 51
352.2279133852676978
  0
LINE
  5
7194
  8
0
 10
3874.4197737350941679
 20
90.1303430038294948
 30
0.0
 11
3874.4197737350941679
 21
91.1776471217187918
 31
0.0
  0
ARC
  5
7195
  8
0
 10
3872.6482434619601918
 20
90.031917807029501
 30
0.0
 40
0.0590551180999999
 50
359.9999999999308216
 51
90.0
  0
ARC
  5
7196
  8
0
 10
3874.2624166489090385
 20
90.0319178483808571
 30
0.0
 40
0.0590550767486707
 50
89.999959880533325
 51
180.0000401195179052
  0
LINE
  5
7197
  8
0
 10
3872.5301338834601665
 20
90.0909729251295062
 30
0.0
 11
3874.3805262686601054
 21
90.0909729251295062
 31
0.0
  0
LINE
  5
7198
  8
0
 10
3872.7072985800600691
 20
90.031917807029501
 30
0.0
 11
3872.7072985800600691
 21
90.0004217440294951
 31
0.0
  0
ARC
  5
7199
  8
0
 10
3872.7463018409780489
 20
90.0000549262502432
 30
0.0
 40
0.0390049858029957
 50
179.4611606700443076
 51
270.5388388451033848
  0
LINE
  5
719A
  8
0
 10
3872.7466686584270974
 20
89.9610516653295065
 30
0.0
 11
3874.1639914934630724
 21
89.9610516653295065
 31
0.0
  0
ARC
  5
719B
  8
0
 10
3874.1639914934598892
 20
90.0004217440302483
 30
0.0
 40
0.0393700787007632
 50
270.0000000042991246
 51
359.9999999970834779
  0
LINE
  5
719C
  8
0
 10
3874.2033615721611568
 20
90.0004217440282588
 30
0.0
 11
3874.2033615721597926
 21
90.0319178070294299
 31
0.0
  0
ARC
  5
719D
  8
0
 10
3874.0950869948701438
 20
89.9511925822855289
 30
0.0
 40
0.0098590854262871
 50
0.0962569134763729
 51
89.9601287251104083
  0
LINE
  5
719E
  8
0
 10
3874.1049460663830359
 20
89.9512091455295035
 30
0.0
 11
3874.1049460663830359
 21
89.8823115077294972
 31
0.0
  0
ARC
  5
719F
  8
0
 10
3874.0655594418649343
 20
89.8823280564280651
 30
0.0
 40
0.0393866279950531
 50
270.009971534396584
 51
359.9759265857235846
  0
LINE
  5
71A0
  8
0
 10
3874.0655662965600641
 20
89.8429414290295085
 30
0.0
 11
3872.8450938556597976
 21
89.8429414290295085
 31
0.0
  0
ARC
  5
71A1
  8
0
 10
3872.8450988924291778
 20
89.8823236675640089
 30
0.0
 40
0.0393822388566028
 50
180.0176914248077082
 51
269.9926721898513051
  0
LINE
  5
71A2
  8
0
 10
3872.8057166554490323
 20
89.8823115073680441
 30
0.0
 11
3872.8057166554490323
 21
89.9512091455295035
 31
0.0
  0
ARC
  5
71A3
  8
0
 10
3872.8155713365399606
 20
89.9511969779153731
 30
0.0
 40
0.0098546886029224
 50
90.0293027641131403
 51
179.929256707985104
  0
ARC
  5
71A4
  8
0
 10
3873.4553300375741856
 20
88.4540919162704427
 30
0.0
 40
0.4771121148151695
 50
180.1203442363126896
 51
359.8796557636865145
  0
ARC
  5
71A5
  8
0
 10
3873.1098871511380821
 20
88.781732341613818
 30
0.0
 40
0.0171808419879146
 50
92.9356537354982066
 51
121.9729465414592937
  0
ARC
  5
71A6
  8
0
 10
3873.1197274946039215
 20
88.1280027692268106
 30
0.0
 40
0.6709735128175444
 50
88.6920576504525542
 51
90.9154623259071144
  0
ARC
  5
71A7
  8
0
 10
3873.1468501008607745
 20
88.0238281852825821
 30
0.0
 40
0.7750632148883121
 50
87.4381345613930137
 51
90.8728560054420029
  0
ARC
  5
71A8
  8
0
 10
3873.1477663516579923
 20
88.1992716775824022
 30
0.0
 40
0.5997941135539923
 50
82.0241533682965382
 51
86.7764471823080044
  0
ARC
  5
71A9
  8
0
 10
3873.4244393327821854
 20
90.1177040260962343
 30
0.0
 40
1.33849324915845
 50
261.6901217259087957
 51
264.6764609192032935
  0
ARC
  5
71AA
  8
0
 10
3873.3807318311460222
 20
89.7180283524611895
 30
0.0
 40
0.9365084672160756
 50
265.0702935000305729
 51
269.1282315053181833
  0
ARC
  5
71AB
  8
0
 10
3873.4480527660389271
 20
98.4278301226888033
 30
0.0
 40
9.6465467126441364
 50
269.515510746576183
 51
270.6163214663590111
  0
ARC
  5
71AC
  8
0
 10
3873.5212403947039093
 20
89.851509456012991
 30
0.0
 40
1.0701048846369621
 50
271.6373679153970784
 51
278.7017171178781041
  0
ARC
  5
71AD
  8
0
 10
3873.7830974548051017
 20
87.8487908556115826
 30
0.0
 40
0.950203807178219
 50
88.843492438443306
 51
96.0386274261483663
  0
ARC
  5
71AE
  8
0
 10
3873.802400639769985
 20
88.7870599534671499
 30
0.0
 40
0.0117418084507266
 50
50.7284257928982925
 51
90.6087559951092203
  0
ARC
  5
71AF
  8
0
 10
3873.0622784044030595
 20
88.786861050987838
 30
0.0
 40
0.0396526495438543
 50
324.5053725620778096
 51
13.7810816545723096
  0
ARC
  5
71B0
  8
0
 10
3873.8489205356568164
 20
88.7869780108110547
 30
0.0
 40
0.0401490516031436
 50
166.7943655651671975
 51
216.7326568351275
  0
ARC
  5
71B1
  8
0
 10
3873.3028112129481997
 20
88.8731469569521266
 30
0.0
 40
0.2161415043988907
 50
153.7185321342344082
 51
200.8246111738411912
  0
ARC
  5
71B2
  8
0
 10
3872.7158555971450369
 20
89.1361691541462591
 30
0.0
 40
0.4272795243407388
 50
336.9464697125665111
 51
6.524229138749388
  0
ARC
  5
71B3
  8
0
 10
3872.4412409957972159
 20
89.7838906553007945
 30
0.0
 40
0.4210969389973751
 50
343.5411557037048169
 51
8.0612036636112041
  0
ARC
  5
71B4
  8
0
 10
3873.0157923186638982
 20
89.662097935250145
 30
0.0
 40
0.1707275468404745
 50
179.1660848036879088
 51
223.5906699888205083
  0
ARC
  5
71B5
  8
0
 10
3871.1485980844940968
 20
87.7350871086770638
 30
0.0
 40
2.5126624552449082
 50
41.0279416062532931
 51
46.0602947009715606
  0
ARC
  5
71B6
  8
0
 10
3872.7493041430470839
 20
89.1193546057782555
 30
0.0
 40
0.3964887601187652
 50
9.4888596602810562
 51
41.9629131655216767
  0
ARC
  5
71B7
  8
0
 10
3873.6056380863301456
 20
88.8730323690566735
 30
0.0
 40
0.218189233320894
 50
339.3679074287626918
 51
25.9948374765412709
  0
ARC
  5
71B8
  8
0
 10
3874.1942337999930714
 20
89.136111695650996
 30
0.0
 40
0.4267079722691352
 50
173.3684448898112009
 51
203.1052198382139125
  0
ARC
  5
71B9
  8
0
 10
3874.4718559034881764
 20
89.7847342403567268
 30
0.0
 40
0.4233925439098055
 50
172.0989360339465009
 51
196.3461063947266041
  0
ARC
  5
71BA
  8
0
 10
3873.8923449201702169
 20
89.6630822782051951
 30
0.0
 40
0.1732502705294622
 50
316.9657091454197939
 51
0.8244236022490798
  0
ARC
  5
71BB
  8
0
 10
3875.7027268778210782
 20
87.7914116548662378
 30
0.0
 40
2.4309555870855748
 50
133.8384199052599968
 51
139.0311946395563041
  0
ARC
  5
71BC
  8
0
 10
3874.1758247881020907
 20
89.1123879563428147
 30
0.0
 40
0.4119636996909514
 50
138.518653377690498
 51
169.7930341150288882
  0
LINE
  5
71BD
  8
0
 10
3874.4197734586859951
 20
91.3429414260517802
 30
0.0
 11
3874.4197734586859951
 21
92.413807570729503
 31
0.0
  0
ARC
  5
71BF
  8
0
 10
3873.4552783202270803
 20
88.4530897892139052
 30
0.0
 40
0.3017438672835979
 50
90.0
 51
270.0
  0
ARC
  5
71C0
  8
0
 10
3873.4705008671548967
 20
88.4379655084939031
 30
0.0
 40
0.2870235414332208
 50
266.9598413817387836
 51
3.0205152020178758
  0
ARC
  5
71C1
  8
0
 10
3873.4592337776412023
 20
88.4569431169225453
 30
0.0
 40
0.2979167991430017
 50
359.2589019090164015
 51
90.7607415072354939
  0
ARC
  5
71C2
  8
0
 10
3873.4690890946139916
 20
88.4464622524457695
 30
0.0
 40
0.4909148585872785
 50
139.7219255858337021
 51
179.2264617486520137
  0
ARC
  5
71C3
  8
0
 10
3873.4406137423320615
 20
88.4459943535217405
 30
0.0
 40
0.4918785367474089
 50
0.8265305132498278
 51
40.1214206195443026
  0
ENDSEC
  0
EOF
