  0
SECTION
  2
HEADER
  9
$ACADVER
  1
AC1009
  9
$INSBASE
 10
3467.4943288925069282
 20
201.3136364596294072
 30
0.0
  9
$EXTMIN
 10
3457.7473053771791456
 20
201.3088486693974062
 30
0.0
  9
$EXTMAX
 10
3468.8446662330479739
 20
206.071789799523799
 30
0.0
  9
$LIMMIN
 10
0.0
 20
0.0
  9
$LIMMAX
 10
11.6929133858000007
 20
8.2677165353999982
  9
$ORTHOMODE
 70
     0
  9
$REGENMODE
 70
     1
  9
$FILLMODE
 70
     1
  9
$QTEXTMODE
 70
     0
  9
$MIRRTEXT
 70
     0
  9
$DRAGMODE
 70
     2
  9
$LTSCALE
 40
0.6431102362
  9
$OSMODE
 70
  3839
  9
$ATTMODE
 70
     1
  9
$TEXTSIZE
 40
0.2
  9
$TRACEWID
 40
0.05
  9
$TEXTSTYLE
  7
STANDARD
  9
$CLAYER
  8
0
  9
$CELTYPE
  6
BYLAYER
  9
$CECOLOR
 62
   256
  9
$DIMSCALE
 40
1.0
  9
$DIMASZ
 40
0.1875
  9
$DIMEXO
 40
0.0625
  9
$DIMDLI
 40
0.4443307087
  9
$DIMRND
 40
0.0
  9
$DIMDLE
 40
0.0
  9
$DIMEXE
 40
0.125
  9
$DIMTP
 40
0.01
  9
$DIMTM
 40
0.01
  9
$DIMTXT
 40
2.0
  9
$DIMCEN
 40
0.1052362205
  9
$DIMTSZ
 40
0.0
  9
$DIMTOL
 70
     1
  9
$DIMLIM
 70
     0
  9
$DIMTIH
 70
     1
  9
$DIMTOH
 70
     1
  9
$DIMSE1
 70
     0
  9
$DIMSE2
 70
     0
  9
$DIMTAD
 70
     0
  9
$DIMZIN
 70
     0
  9
$DIMBLK
  1

  9
$DIMASO
 70
     1
  9
$DIMSHO
 70
     1
  9
$DIMPOST
  1
\X
  9
$DIMAPOST
  1

  9
$DIMALT
 70
     1
  9
$DIMALTD
 70
     2
  9
$DIMALTF
 40
25.3999999999999986
  9
$DIMLFAC
 40
1.0
  9
$DIMTOFL
 70
     0
  9
$DIMTVP
 40
0.0
  9
$DIMTIX
 70
     0
  9
$DIMSOXD
 70
     0
  9
$DIMSAH
 70
     0
  9
$DIMBLK1
  1

  9
$DIMBLK2
  1

  9
$DIMSTYLE
  2
STANDARD
  9
$DIMCLRD
 70
     0
  9
$DIMCLRE
 70
     0
  9
$DIMCLRT
 70
     0
  9
$DIMTFAC
 40
1.0
  9
$DIMGAP
 40
0.09
  9
$LUNITS
 70
     2
  9
$LUPREC
 70
     4
  9
$SKETCHINC
 40
0.1
  9
$FILLETRAD
 40
0.0
  9
$AUNITS
 70
     0
  9
$AUPREC
 70
     0
  9
$MENU
  1
.
  9
$ELEVATION
 40
0.0
  9
$PELEVATION
 40
0.0
  9
$THICKNESS
 40
0.0
  9
$LIMCHECK
 70
     0
  9
$BLIPMODE
 70
     0
  9
$CHAMFERA
 40
0.0
  9
$CHAMFERB
 40
0.0
  9
$SKPOLY
 70
     0
  9
$TDCREATE
 40
2458060.468368056230247
  9
$TDUPDATE
 40
2459031.8282060190103948
  9
$TDINDWG
 40
0.5274028935
  9
$TDUSRTIMER
 40
0.5274028935
  9
$USRTIMER
 70
     1
  9
$ANGBASE
 50
0.0
  9
$ANGDIR
 70
     0
  9
$PDMODE
 70
     0
  9
$PDSIZE
 40
0.3125
  9
$PLINEWID
 40
0.0
  9
$COORDS
 70
     1
  9
$SPLFRAME
 70
     0
  9
$SPLINETYPE
 70
     6
  9
$SPLINESEGS
 70
     8
  9
$ATTDIA
 70
     1
  9
$ATTREQ
 70
     1
  9
$HANDLING
 70
     1
  9
$HANDSEED
  5
918E
  9
$SURFTAB1
 70
     6
  9
$SURFTAB2
 70
     6
  9
$SURFTYPE
 70
     6
  9
$SURFU
 70
     6
  9
$SURFV
 70
     6
  9
$UCSNAME
  2

  9
$UCSORG
 10
0.0
 20
0.0
 30
0.0
  9
$UCSXDIR
 10
1.0
 20
0.0
 30
0.0
  9
$UCSYDIR
 10
0.0
 20
1.0
 30
0.0
  9
$PUCSNAME
  2

  9
$PUCSORG
 10
0.0
 20
0.0
 30
0.0
  9
$PUCSXDIR
 10
1.0
 20
0.0
 30
0.0
  9
$PUCSYDIR
 10
0.0
 20
1.0
 30
0.0
  9
$USERI1
 70
     0
  9
$USERI2
 70
     0
  9
$USERI3
 70
     0
  9
$USERI4
 70
     0
  9
$USERI5
 70
     0
  9
$USERR1
 40
0.0
  9
$USERR2
 40
0.0
  9
$USERR3
 40
0.0
  9
$USERR4
 40
0.0
  9
$USERR5
 40
0.0
  9
$WORLDVIEW
 70
     1
  9
$SHADEDGE
 70
     3
  9
$SHADEDIF
 70
    70
  9
$TILEMODE
 70
     1
  9
$MAXACTVP
 70
    64
  9
$PLIMCHECK
 70
     0
  9
$PEXTMIN
 10
1.0000000000000000E+20
 20
1.0000000000000000E+20
 30
1.0000000000000000E+20
  9
$PEXTMAX
 10
-1.0000000000000000E+20
 20
-1.0000000000000000E+20
 30
-1.0000000000000000E+20
  9
$PLIMMIN
 10
0.0
 20
0.0
  9
$PLIMMAX
 10
12.0
 20
9.0
  9
$UNITMODE
 70
     0
  9
$VISRETAIN
 70
     1
  9
$PLINEGEN
 70
     0
  9
$PSLTSCALE
 70
     1
  0
ENDSEC
  0
SECTION
  2
TABLES
  0
TABLE
  2
VPORT
 70
     1
  0
VPORT
  2
*ACTIVE
 70
     0
 10
0.0
 20
0.0
 11
1.0
 21
1.0
 12
0.0
 22
0.0
 13
0.0
 23
0.0
 14
1.0
 24
1.0
 15
0.0
 25
0.0
 16
0.0
 26
0.0
 36
50.1326674729583317
 17
3463.2958984375
 27
203.6902977477847116
 37
0.0
 40
12.0756572880642992
 41
3.314341846758349
 42
50.0
 43
0.0
 44
0.0
 50
0.0
 51
0.0
 71
     0
 72
   100
 73
     1
 74
     1
 75
     0
 76
     0
 77
     0
 78
     0
  0
ENDTAB
  0
TABLE
  2
LTYPE
 70
     2
  0
LTYPE
  2
CONTINUOUS
 70
     0
  3
Solid line
 72
    65
 73
     0
 40
0.0
  0
LTYPE
  2
PHANTOM2
 70
     0
  3
___ _ _ ___ _ _ ___ _ _ ___ _ _
 72
    65
 73
     6
 40
1.25
 49
0.625
 49
-0.125
 49
0.125
 49
-0.125
 49
0.125
 49
-0.125
  0
ENDTAB
  0
TABLE
  2
LAYER
 70
     2
  0
LAYER
  2
0
 70
     0
 62
   255
  6
CONTINUOUS
  0
LAYER
  2
DEFPOINTS
 70
     0
 62
     7
  6
CONTINUOUS
  0
ENDTAB
  0
TABLE
  2
STYLE
 70
     1
  0
STYLE
  2
STANDARD
 70
     0
 40
0.0
 41
0.8
 50
0.0
 71
     0
 42
0.2
  3
txt
  4

  0
ENDTAB
  0
TABLE
  2
VIEW
 70
     0
  0
ENDTAB
  0
TABLE
  2
UCS
 70
     0
  0
ENDTAB
  0
TABLE
  2
APPID
 70
     9
  0
APPID
  2
ACAD
 70
     0
  0
APPID
  2
ACAD_MLEADERVER
 70
     0
  0
APPID
  2
ACAD_EXEMPT_FROM_CAD_STANDARDS
 70
     0
  0
APPID
  2
ACAD_NAV_VCDISPLAY
 70
     0
  0
APPID
  2
ACAECLAYERSTANDARD
 70
     0
  0
APPID
  2
ACCMTRANSPARENCY
 70
     0
  0
APPID
  2
ACAD_DSTYLE_DIMJAG
 70
     0
  0
APPID
  2
ACAD_DSTYLE_DIMTALN
 70
     0
  0
APPID
  2
ACDBATTR
 70
     0
  0
ENDTAB
  0
TABLE
  2
DIMSTYLE
 70
     1
  0
DIMSTYLE
  2
STANDARD
 70
     0
  3

  4

  5

  6

  7

 40
1.0
 41
0.1875
 42
0.0625
 43
0.38
 44
0.125
 45
0.0
 46
0.0
 47
0.01
 48
0.01
140
0.15625
141
0.09
142
0.0
143
25.3999999999999986
144
1.0
145
0.0
146
1.0
147
0.09
 71
     1
 72
     0
 73
     1
 74
     1
 75
     0
 76
     0
 77
     0
 78
     4
170
     0
171
     2
172
     0
173
     0
174
     0
175
     0
176
     0
177
     0
178
     0
  0
ENDTAB
  0
ENDSEC
  0
SECTION
  2
BLOCKS
  0
BLOCK
  8
0
  2
$MODEL_SPACE
 70
     0
 10
0.0
 20
0.0
 30
0.0
  3
$MODEL_SPACE
  1

  0
ENDBLK
  5
21
  8
0
  0
BLOCK
 67
     1
  8
0
  2
$PAPER_SPACE
 70
     0
 10
0.0
 20
0.0
 30
0.0
  3
$PAPER_SPACE
  1

  0
ENDBLK
  5
1D
 67
     1
  8
0
  0
BLOCK
  8
0
  2
_FILLED
 70
     0
 10
0.0
 20
0.0
 30
0.0
  3
_FILLED
  1

  0
SOLID
  5
6F59
  8
0
  6
BYBLOCK
 62
     0
 10
0.0
 20
0.0
 30
0.0
 11
-1.0
 21
0.1666666667
 31
0.0
 12
-1.0
 22
-0.1666666667
 32
0.0
 13
-1.0
 23
-0.1666666667
 33
0.0
  0
ENDBLK
  5
6F5A
  8
0
  6
BYBLOCK
 62
     0
  0
BLOCK
  8
0
  2
_CLOSED
 70
     0
 10
0.0
 20
0.0
 30
0.0
  3
_CLOSED
  1

  0
LINE
  5
8A02
  8
0
  6
BYBLOCK
 62
     0
 10
0.0
 20
0.0
 30
0.0
 11
-1.0
 21
0.1666666667
 31
0.0
  0
LINE
  5
8A03
  8
0
  6
BYBLOCK
 62
     0
 10
-1.0
 20
0.1666666667
 30
0.0
 11
-1.0
 21
-0.1666666667
 31
0.0
  0
LINE
  5
8A04
  8
0
  6
BYBLOCK
 62
     0
 10
-1.0
 20
-0.1666666667
 30
0.0
 11
0.0
 21
0.0
 31
0.0
  0
LINE
  5
8A05
  8
0
  6
BYBLOCK
 62
     0
 10
-1.0
 20
0.0
 30
0.0
 11
0.0
 21
0.0
 31
0.0
  0
ENDBLK
  5
8A06
  8
0
  6
BYBLOCK
 62
     0
  0
ENDSEC
  0
SECTION
  2
ENTITIES
  0
ATTDEF
  5
3930
  8
DEFPOINTS
 10
3467.4831819560649819
 20
201.3121820027307933
 30
0.0
 40
0.001
  1
K-72777W
  3

  2
MODELNUMBER
 70
     0
1001
ACDBATTR
1070
     0
1070
     1
  0
ATTDEF
  5
3931
  8
DEFPOINTS
 10
3467.4831819560649819
 20
201.3105153360640998
 30
0.0
 40
0.001
  1
ARTIFACTS
  3

  2
TRADENAME
 70
     0
1001
ACDBATTR
1070
     0
1070
     1
  0
ATTDEF
  5
3932
  8
DEFPOINTS
 10
3467.4831819560649819
 20
201.3088486693974062
 30
0.0
 40
0.001
  1
BATH SPOUT
  3

  2
PRODUCT
 70
     0
1001
ACDBATTR
1070
     0
1070
     1
  0
LINE
  5
8C42
  8
0
 10
3466.1443289315570837
 20
201.3136364596294072
 30
0.0
 11
3468.8443288534567728
 21
201.3136364596294072
 31
0.0
  0
ARC
  5
8C43
  8
0
 10
3466.4583331135359003
 20
201.3151101786795891
 30
0.0
 40
0.3140076402698035
 50
92.6949228136402326
 51
180.268904895663411
  0
ARC
  5
8C44
  8
0
 10
3466.4361260613900413
 20
201.6594524104841071
 30
0.0
 40
0.0315717641626456
 50
283.6358701299567997
 51
357.7140691515432991
  0
ARC
  5
8C45
  8
0
 10
3477.3815394011571698
 20
201.7680173890485094
 30
0.0
 40
10.9144192566482303
 50
179.9285406302290937
 51
180.5765375913790081
  0
ARC
  5
8C46
  8
0
 10
3466.5096799762090996
 20
201.7757682771419923
 30
0.0
 40
0.0429531719256482
 50
142.1611179951410975
 51
172.1566826615004118
  0
ARC
  5
8C47
  8
0
 10
3465.516984077332836
 20
202.7475335057179109
 30
0.0
 40
1.3464987988501951
 50
315.4019327698520101
 51
327.0027833791044145
  0
ARC
  5
8C48
  8
0
 10
3466.1830752932742143
 20
202.3130730618757127
 30
0.0
 40
0.5512460673648901
 50
327.1720521988277142
 51
345.074937809736582
  0
ARC
  5
8C49
  8
0
 10
3466.3729396811791048
 20
202.2464008310662962
 30
0.0
 40
0.3509586704481389
 50
347.609863767016293
 51
42.0464985238007003
  0
ARC
  5
8C4A
  8
0
 10
3465.2018638922218088
 20
201.0135177318211106
 30
0.0
 40
2.0505081897254711
 50
45.7159279359625117
 51
69.5022453769769157
  0
ARC
  5
8C4B
  8
0
 10
3426.4918570820618697
 20
111.9135387472747993
 30
0.0
 40
99.1934003179400747
 50
66.578860604346616
 51
67.8657611582772375
  0
ARC
  5
8C4C
  8
0
 10
3455.1790449858281136
 20
183.1030637032912125
 30
0.0
 40
22.4429744533513116
 50
67.2285546396289533
 51
74.9232031615084537
  0
ARC
  5
8C4D
  8
0
 10
3460.2149137559181327
 20
201.7596180659944025
 30
0.0
 40
3.1187327479709981
 50
75.1014568751796645
 51
95.5803498005621464
  0
ARC
  5
8C4E
  8
0
 10
3459.9840559686590495
 20
204.0734489581431887
 30
0.0
 40
0.7934328669845688
 50
95.2363880661962838
 51
166.0801717473675865
  0
ARC
  5
8C4F
  8
0
 10
3459.1345406643290517
 20
204.295262185235714
 30
0.0
 40
0.0852000734615201
 50
270.3641586040686775
 51
338.7051669956334194
  0
ARC
  5
8C50
  8
0
 10
3496.8948084128442133
 20
410.1363312422179774
 30
0.0
 40
209.359558021585201
 50
259.241179189749289
 51
259.6093716952095178
  0
ARC
  5
8C51
  8
0
 10
3457.8273042033160891
 20
204.5355916942557997
 30
0.0
 40
0.0799988261377737
 50
118.5200879842308979
 51
259.3745782763555781
  0
ARC
  5
8C52
  8
0
 10
3457.4185312283061648
 20
205.3005565306575022
 30
0.0
 40
0.7873363446622674
 50
298.07784518033219
 51
314.84174527312382
  0
ARC
  5
8C53
  8
0
 10
3466.7189752433841932
 20
197.427950387790105
 30
0.0
 40
11.4008339522980897
 50
137.8045157981269995
 51
140.091621390294307
  0
ARC
  5
8C54
  8
0
 10
3459.7718886738980473
 20
203.566696228044691
 30
0.0
 40
2.1341425022250342
 50
91.4649896885090357
 51
134.6306439845631928
  0
ARC
  5
8C55
  8
0
 10
3459.5075235352110212
 20
194.8261900823416966
 30
0.0
 40
10.8759748674376606
 50
73.9618736475194964
 51
88.8946649465157748
  0
ARC
  5
8C56
  8
0
 10
3453.1021946330670289
 20
168.3974232036933074
 30
0.0
 40
38.0629726248718327
 50
70.8681135354613332
 51
75.6866504690106581
  0
ARC
  5
8C57
  8
0
 10
3467.2621796568660102
 20
208.3742231126219906
 30
0.0
 40
4.3553586661387147
 50
247.2383124507404943
 51
258.276862545548795
  0
ARC
  5
8C58
  8
0
 10
3466.4465815741668848
 20
204.5467758149582949
 30
0.0
 40
0.4425277616422851
 50
260.9857223572936959
 51
7.2424850034546813
  0
ARC
  5
8C59
  8
0
 10
3466.5449603504348488
 20
204.4905156285032035
 30
0.0
 40
0.3585747093828887
 50
18.2090414744839215
 51
44.2985122626048025
  0
ARC
  5
8C5A
  8
0
 10
3466.8197914340212265
 20
204.7602663243681889
 30
0.0
 40
0.0265416224425595
 50
177.7729329995881926
 51
226.7221381807707985
  0
ARC
  5
8C5B
  8
0
 10
3450.8560779438989812
 20
204.7833801317435132
 30
0.0
 40
15.9372072139229992
 50
359.92061162845431
 51
0.2381883476344732
  0
ARC
  5
8C5C
  8
0
 10
3466.8230118113901881
 20
204.8497276535032086
 30
0.0
 40
0.0298645153276123
 50
89.0834923887192929
 51
180.180376897470893
  0
ARC
  5
8C5D
  8
0
 10
3466.8733772987520751
 20
205.6127486281210963
 30
0.0
 40
0.7348556239272287
 50
262.5433164105497781
 51
266.1073168275631247
  0
ARC
  5
8C5E
  8
0
 10
3466.7992233219620175
 20
204.9236888871388089
 30
0.0
 40
0.0449074876657013
 50
178.6182489965788136
 51
241.8115427479845039
  0
ARC
  5
8C5F
  8
0
 10
-48441.878529814988724
 20
204.9637878601674004
 30
0.0
 40
51908.6328587220996269
 50
359.9999569347742181
 51
0.0001291967993667
  0
ARC
  5
8C60
  8
0
 10
3466.7843356559160384
 20
205.0808323816011978
 30
0.0
 40
0.0300068811395501
 50
112.4950847317674061
 51
179.9909317213746931
  0
ARC
  5
8C61
  8
0
 10
3467.0296037592488574
 20
204.4886825322741117
 30
0.0
 40
0.6709420467149434
 50
90.6151312425629669
 51
112.499117826141898
  0
ARC
  5
8C62
  8
0
 10
3467.0224027288008983
 20
205.1895823473734026
 30
0.0
 40
0.029996435518143
 50
180.004028264982594
 51
269.995971735017406
  0
ARC
  5
8C63
  8
0
 10
2608.7785136613679242
 20
205.2563195075277065
 30
0.0
 40
858.2138952269895071
 50
359.9955443759736227
 51
0.0022468558775364
  0
ARC
  5
8C64
  8
0
 10
3467.0224043226430695
 20
205.2899763614146025
 30
0.0
 40
0.0299960942392141
 50
114.5218002888440054
 51
180.0037586758145096
  0
ARC
  5
8C65
  8
0
 10
3466.9109883876008098
 20
205.592823096034607
 30
0.0
 40
0.2927892660707572
 50
289.7558187527025098
 51
335.2509367248867989
  0
ARC
  5
8C66
  8
0
 10
3467.0381096558189711
 20
205.4939496401686085
 30
0.0
 40
0.1407847180254165
 50
350.3080326267864848
 51
49.3156136535657907
  0
ARC
  5
8C67
  8
0
 10
3467.9680452362467804
 20
206.7332946138857892
 30
0.0
 40
1.4089933930352769
 50
219.7151801952549022
 51
233.4970758739102905
  0
ARC
  5
8C68
  8
0
 10
3466.9979317275219728
 20
205.867099852015599
 30
0.0
 40
0.1187326313631622
 50
103.9476922255301048
 51
196.6964688463095001
  0
ARC
  5
8C69
  8
0
 10
3467.4979737701701197
 20
204.4649741148982116
 30
0.0
 40
1.606815684625569
 50
71.6489592408723865
 51
109.2087900274484014
  0
ARC
  5
8C6A
  8
0
 10
3467.9493655102378398
 20
205.8273344088929946
 30
0.0
 40
0.171623064355155
 50
19.4047400573774986
 51
71.4865264586343443
  0
ARC
  5
8C6B
  8
0
 10
3467.9285347651571101
 20
205.8945298830685999
 30
0.0
 40
0.1829879313411057
 50
301.8848734589182072
 51
356.8122588634223007
  0
ARC
  5
8C6C
  8
0
 10
3471.6274009926301005
 20
201.1219427562145938
 30
0.0
 40
5.856154120056547
 50
127.9602913331240046
 51
129.7380654083069942
  0
ARC
  5
8C6D
  8
0
 10
3468.0177568204899217
 20
205.455392890811595
 30
0.0
 40
0.2163386113356645
 50
128.2963233807066104
 51
163.4600127144356918
  0
ARC
  5
8C6E
  8
0
 10
3467.9465463832571004
 20
205.5007973228159983
 30
0.0
 40
0.1371346660782704
 50
173.2225033841260995
 51
230.5529165822269988
  0
ARC
  5
8C6F
  8
0
 10
3468.1493567175630233
 20
205.7099458493337067
 30
0.0
 40
0.4281581850090369
 50
227.3761882252896953
 51
246.5107913639712933
  0
ARC
  5
8C70
  8
0
 10
3467.966253463969224
 20
205.2899763620551141
 30
0.0
 40
0.0299960930418749
 50
359.996240110675501
 51
65.4782620586389044
  0
ARC
  5
8C71
  8
0
 10
4326.0207594552903174
 20
205.2563124385507933
 30
0.0
 40
858.0245105586566297
 50
179.9977521761524883
 51
180.0044561354376071
  0
ARC
  5
8C72
  8
0
 10
3467.9652103816010822
 20
205.1900708389827912
 30
0.0
 40
0.0310449867515219
 50
279.9613146970019102
 51
359.0945233297701975
  0
ARC
  5
8C73
  8
0
 10
3467.9593288924570516
 20
204.4895883481293879
 30
0.0
 40
0.670000000000028
 50
67.4929563270892459
 51
90.0001238580955345
  0
ARC
  5
8C74
  8
0
 10
3468.2043221270428148
 20
205.0808323801840061
 30
0.0
 40
0.030006883195221
 50
0.009070975072896
 51
67.5049126462326967
  0
ARC
  5
8C75
  8
0
 10
31675.8414383113195072
 20
204.9994206321314039
 30
0.0
 40
28207.6071094189501309
 50
179.9998346253989041
 51
180.0001746578163875
  0
ARC
  5
8C76
  8
0
 10
3468.2043178794001506
 20
204.9134434961571003
 30
0.0
 40
0.0300111455701312
 50
277.3528407452167812
 51
359.9816060853988233
  0
ARC
  5
8C77
  8
0
 10
3468.1069092974648811
 20
205.7290811123745868
 30
0.0
 40
0.8514434439738287
 50
273.9482803796680059
 51
276.8294876788780243
  0
ARC
  5
8C78
  8
0
 10
3468.1654391167739959
 20
204.8495875056931084
 30
0.0
 40
0.0300711257410662
 50
0.0009273982211872
 51
89.8149107855546163
  0
ARC
  5
8C79
  8
0
 10
6954.2584542317190426
 20
204.9060139386303092
 30
0.0
 40
3486.0629444458681974
 50
180.0009273982211937
 51
180.0023785009512949
  0
ARC
  5
8C7A
  8
0
 10
3468.1652422216261584
 20
204.7612968914214946
 30
0.0
 40
0.0302705680212587
 50
318.0177911599495246
 51
0.0023785009497383
  0
ARC
  5
8C7B
  8
0
 10
3468.7569288108570618
 20
204.2288724803526918
 30
0.0
 40
0.7656997664614731
 50
138.0177911599496099
 51
142.0744655891805905
  0
ARC
  5
8C7C
  8
0
 10
3468.3762955635711478
 20
204.5254599086676137
 30
0.0
 40
0.2831588132017111
 50
142.0744655891805905
 51
173.1197217310194105
  0
ARC
  5
8C7D
  8
0
 10
3468.349615692784937
 20
204.5286792102365041
 30
0.0
 40
0.2562854172912104
 50
173.1197217310194105
 51
203.4029265004874958
  0
ARC
  5
8C7E
  8
0
 10
3465.8166645957880974
 20
203.2359765038245882
 30
0.0
 40
2.5880324319725641
 50
6.4648026322520984
 51
27.3973944914040288
  0
ARC
  5
8C7F
  8
0
 10
3465.6127440215091156
 20
203.4160918542781076
 30
0.0
 40
2.7777261129109059
 50
343.9308287022100785
 51
2.2959419209542911
  0
ARC
  5
8C80
  8
0
 10
3469.3493114971947762
 20
202.357493651445111
 30
0.0
 40
1.1059957647049921
 50
164.8134197163284114
 51
184.71237914561911
  0
ARC
  5
8C81
  8
0
 10
3468.4746421207169078
 20
202.2846715539554054
 30
0.0
 40
0.2283015838004341
 50
184.5320631216603999
 51
222.2878569807066071
  0
ARC
  5
8C82
  8
0
 10
3468.5412765437208691
 20
202.3650501575422993
 30
0.0
 40
0.3320015344716594
 50
224.8128909295006963
 51
266.5900475034977717
  0
ARC
  5
8C83
  8
0
 10
1605.5725586866699359
 20
201.9247110720249054
 30
0.0
 40
1862.9489736662819723
 50
359.9910476816615983
 51
0.0033500451570983
  0
ARC
  5
8C84
  8
0
 10
3468.4957629898631239
 20
201.250371340010588
 30
0.0
 40
0.3841225746204592
 50
42.7851523948218784
 51
86.156748585566902
  0
ARC
  5
8C85
  8
0
 10
3468.5591092005502105
 20
201.3275133614754964
 30
0.0
 40
0.2855570324980936
 50
357.2145627929082821
 51
40.0579502209503104
  0
ARC
  5
8C86
  8
0
 10
3467.4909243330221216
 20
182.247162265632511
 30
0.0
 40
22.9172134391854208
 50
88.8288509263859964
 51
91.1714470344811332
  0
ARC
  5
8C87
  8
0
 10
3467.0372977454799184
 20
205.8481719043404041
 30
0.0
 40
0.9657842267286667
 50
252.9627203701236908
 51
279.5387769526317925
  0
ARC
  5
8C88
  8
0
 10
3467.4943288616950667
 20
208.5459265539697071
 30
0.0
 40
3.6622473853945539
 50
265.3485507934325938
 51
274.6514498572478828
  0
ARC
  5
8C89
  8
0
 10
3467.9538041837358833
 20
205.8907273836331058
 30
0.0
 40
1.0081670318515159
 50
260.7250218686726271
 51
286.150002441693573
  0
ARC
  5
8C8A
  8
0
 10
3467.0081448800988255
 20
204.5061963585629883
 30
0.0
 40
0.6028856619546312
 50
71.9653860193802473
 51
114.8978555379648014
  0
ARC
  5
8C8B
  8
0
 10
3467.4943288890171971
 20
203.5518964777504038
 30
0.0
 40
1.5566560244880869
 50
78.9057989708404079
 51
101.0942008761185065
  0
ARC
  5
8C8C
  8
0
 10
3467.9826565780940655
 20
204.4905959453267883
 30
0.0
 40
0.6183894663648037
 50
65.9847134124333934
 51
107.7759751952238929
  0
LINE
  5
8C8D
  8
0
 10
3467.1947930191568048
 20
205.0794619399293879
 30
0.0
 11
3467.1973427278858253
 21
204.8957409219567012
 31
0.0
  0
LINE
  5
8C8E
  8
0
 10
3467.7938647235318967
 20
205.0794619468603059
 30
0.0
 11
3467.7913150369568029
 21
204.8957409253293918
 31
0.0
  0
ARC
  5
8C8F
  8
0
 10
3467.4941201610481585
 20
212.3953449145882928
 30
0.0
 40
7.5456174195147012
 50
264.9010040049382724
 51
275.1049837845906723
  0
LINE
  5
8C90
  8
0
 10
3468.5215291685572083
 20
201.9228468704293959
 30
0.0
 11
3468.5215291685572083
 21
202.0336364596294061
 31
0.0
  0
ARC
  5
8C92
  8
0
 10
3467.4941186143269078
 20
5791.6332841483317679
 30
0.0
 40
5586.3160403742076596
 50
269.9950341484823184
 51
270.0049701641323736
  0
ARC
  5
8C93
  8
0
 10
3467.5481190556379261
 20
-480.8342494323957226
 30
0.0
 40
685.5755974875977472
 50
89.9465444068263906
 51
90.0623892398993604
  0
LINE
  5
8C94
  8
0
 10
3466.4440387536428716
 20
201.6288882878293975
 30
0.0
 11
3468.5611470287940392
 21
201.6288882878293975
 31
0.0
  0
LINE
  5
8C95
  8
0
 10
3466.4673594544237858
 20
201.7831132355730972
 30
0.0
 11
3468.5215269717141382
 21
201.7831132355730972
 31
0.0
  0
ENDSEC
  0
EOF
