  0
SECTION
  2
HEADER
  9
$ACADVER
  1
AC1009
  9
$INSBASE
 10
3474.0026398409431749
 20
203.3268173031297863
 30
0.0
  9
$EXTMIN
 10
3472.6533266375090534
 20
193.5797548520417024
 30
0.0
  9
$EXTMAX
 10
3475.3519530443768417
 20
204.6761305065645047
 30
0.0
  9
$LIMMIN
 10
0.0
 20
0.0
  9
$LIMMAX
 10
11.6929133858000007
 20
8.2677165353999982
  9
$ORTHOMODE
 70
     0
  9
$REGENMODE
 70
     1
  9
$FILLMODE
 70
     1
  9
$QTEXTMODE
 70
     0
  9
$MIRRTEXT
 70
     0
  9
$DRAGMODE
 70
     2
  9
$LTSCALE
 40
0.6431102362
  9
$OSMODE
 70
  3839
  9
$ATTMODE
 70
     1
  9
$TEXTSIZE
 40
0.2
  9
$TRACEWID
 40
0.05
  9
$TEXTSTYLE
  7
STANDARD
  9
$CLAYER
  8
0
  9
$CELTYPE
  6
BYLAYER
  9
$CECOLOR
 62
   256
  9
$DIMSCALE
 40
1.0
  9
$DIMASZ
 40
0.1875
  9
$DIMEXO
 40
0.0625
  9
$DIMDLI
 40
0.4443307087
  9
$DIMRND
 40
0.0
  9
$DIMDLE
 40
0.0
  9
$DIMEXE
 40
0.125
  9
$DIMTP
 40
0.01
  9
$DIMTM
 40
0.01
  9
$DIMTXT
 40
2.0
  9
$DIMCEN
 40
0.1052362205
  9
$DIMTSZ
 40
0.0
  9
$DIMTOL
 70
     1
  9
$DIMLIM
 70
     0
  9
$DIMTIH
 70
     1
  9
$DIMTOH
 70
     1
  9
$DIMSE1
 70
     0
  9
$DIMSE2
 70
     0
  9
$DIMTAD
 70
     0
  9
$DIMZIN
 70
     0
  9
$DIMBLK
  1

  9
$DIMASO
 70
     1
  9
$DIMSHO
 70
     1
  9
$DIMPOST
  1
\X
  9
$DIMAPOST
  1

  9
$DIMALT
 70
     1
  9
$DIMALTD
 70
     2
  9
$DIMALTF
 40
25.3999999999999986
  9
$DIMLFAC
 40
1.0
  9
$DIMTOFL
 70
     0
  9
$DIMTVP
 40
0.0
  9
$DIMTIX
 70
     0
  9
$DIMSOXD
 70
     0
  9
$DIMSAH
 70
     0
  9
$DIMBLK1
  1

  9
$DIMBLK2
  1

  9
$DIMSTYLE
  2
STANDARD
  9
$DIMCLRD
 70
     0
  9
$DIMCLRE
 70
     0
  9
$DIMCLRT
 70
     0
  9
$DIMTFAC
 40
1.0
  9
$DIMGAP
 40
0.09
  9
$LUNITS
 70
     2
  9
$LUPREC
 70
     4
  9
$SKETCHINC
 40
0.1
  9
$FILLETRAD
 40
0.0
  9
$AUNITS
 70
     0
  9
$AUPREC
 70
     0
  9
$MENU
  1
.
  9
$ELEVATION
 40
0.0
  9
$PELEVATION
 40
0.0
  9
$THICKNESS
 40
0.0
  9
$LIMCHECK
 70
     0
  9
$BLIPMODE
 70
     0
  9
$CHAMFERA
 40
0.0
  9
$CHAMFERB
 40
0.0
  9
$SKPOLY
 70
     0
  9
$TDCREATE
 40
2458060.468368056230247
  9
$TDUPDATE
 40
2459031.8267245371825993
  9
$TDINDWG
 40
0.5211760417
  9
$TDUSRTIMER
 40
0.5211760417
  9
$USRTIMER
 70
     1
  9
$ANGBASE
 50
0.0
  9
$ANGDIR
 70
     0
  9
$PDMODE
 70
     0
  9
$PDSIZE
 40
0.3125
  9
$PLINEWID
 40
0.0
  9
$COORDS
 70
     1
  9
$SPLFRAME
 70
     0
  9
$SPLINETYPE
 70
     6
  9
$SPLINESEGS
 70
     8
  9
$ATTDIA
 70
     1
  9
$ATTREQ
 70
     1
  9
$HANDLING
 70
     1
  9
$HANDSEED
  5
8FE9
  9
$SURFTAB1
 70
     6
  9
$SURFTAB2
 70
     6
  9
$SURFTYPE
 70
     6
  9
$SURFU
 70
     6
  9
$SURFV
 70
     6
  9
$UCSNAME
  2

  9
$UCSORG
 10
0.0
 20
0.0
 30
0.0
  9
$UCSXDIR
 10
1.0
 20
0.0
 30
0.0
  9
$UCSYDIR
 10
0.0
 20
1.0
 30
0.0
  9
$PUCSNAME
  2

  9
$PUCSORG
 10
0.0
 20
0.0
 30
0.0
  9
$PUCSXDIR
 10
1.0
 20
0.0
 30
0.0
  9
$PUCSYDIR
 10
0.0
 20
1.0
 30
0.0
  9
$USERI1
 70
     0
  9
$USERI2
 70
     0
  9
$USERI3
 70
     0
  9
$USERI4
 70
     0
  9
$USERI5
 70
     0
  9
$USERR1
 40
0.0
  9
$USERR2
 40
0.0
  9
$USERR3
 40
0.0
  9
$USERR4
 40
0.0
  9
$USERR5
 40
0.0
  9
$WORLDVIEW
 70
     1
  9
$SHADEDGE
 70
     3
  9
$SHADEDIF
 70
    70
  9
$TILEMODE
 70
     1
  9
$MAXACTVP
 70
    64
  9
$PLIMCHECK
 70
     0
  9
$PEXTMIN
 10
1.0000000000000000E+20
 20
1.0000000000000000E+20
 30
1.0000000000000000E+20
  9
$PEXTMAX
 10
-1.0000000000000000E+20
 20
-1.0000000000000000E+20
 30
-1.0000000000000000E+20
  9
$PLIMMIN
 10
0.0
 20
0.0
  9
$PLIMMAX
 10
12.0
 20
9.0
  9
$UNITMODE
 70
     0
  9
$VISRETAIN
 70
     1
  9
$PLINEGEN
 70
     0
  9
$PSLTSCALE
 70
     1
  0
ENDSEC
  0
SECTION
  2
TABLES
  0
TABLE
  2
VPORT
 70
     1
  0
VPORT
  2
*ACTIVE
 70
     0
 10
0.0
 20
0.0
 11
1.0
 21
1.0
 12
0.0
 22
0.0
 13
0.0
 23
0.0
 14
1.0
 24
1.0
 15
0.0
 25
0.0
 16
0.0
 26
0.0
 36
47.4056894626273433
 17
3474.002685546875
 27
199.1279449462890057
 37
0.0
 40
11.4187991246201292
 41
3.3143418467583499
 42
50.0
 43
0.0
 44
0.0
 50
0.0
 51
0.0
 71
     0
 72
   100
 73
     1
 74
     1
 75
     0
 76
     0
 77
     0
 78
     0
  0
ENDTAB
  0
TABLE
  2
LTYPE
 70
     2
  0
LTYPE
  2
CONTINUOUS
 70
     0
  3
Solid line
 72
    65
 73
     0
 40
0.0
  0
LTYPE
  2
PHANTOM2
 70
     0
  3
___ _ _ ___ _ _ ___ _ _ ___ _ _
 72
    65
 73
     6
 40
1.25
 49
0.625
 49
-0.125
 49
0.125
 49
-0.125
 49
0.125
 49
-0.125
  0
ENDTAB
  0
TABLE
  2
LAYER
 70
     2
  0
LAYER
  2
0
 70
     0
 62
   255
  6
CONTINUOUS
  0
LAYER
  2
DEFPOINTS
 70
     0
 62
     7
  6
CONTINUOUS
  0
ENDTAB
  0
TABLE
  2
STYLE
 70
     1
  0
STYLE
  2
STANDARD
 70
     0
 40
0.0
 41
0.8
 50
0.0
 71
     0
 42
0.2
  3
txt
  4

  0
ENDTAB
  0
TABLE
  2
VIEW
 70
     0
  0
ENDTAB
  0
TABLE
  2
UCS
 70
     0
  0
ENDTAB
  0
TABLE
  2
APPID
 70
     9
  0
APPID
  2
ACAD
 70
     0
  0
APPID
  2
ACAD_MLEADERVER
 70
     0
  0
APPID
  2
ACAD_EXEMPT_FROM_CAD_STANDARDS
 70
     0
  0
APPID
  2
ACAD_NAV_VCDISPLAY
 70
     0
  0
APPID
  2
ACAECLAYERSTANDARD
 70
     0
  0
APPID
  2
ACCMTRANSPARENCY
 70
     0
  0
APPID
  2
ACAD_DSTYLE_DIMJAG
 70
     0
  0
APPID
  2
ACAD_DSTYLE_DIMTALN
 70
     0
  0
APPID
  2
ACDBATTR
 70
     0
  0
ENDTAB
  0
TABLE
  2
DIMSTYLE
 70
     1
  0
DIMSTYLE
  2
STANDARD
 70
     0
  3

  4

  5

  6

  7

 40
1.0
 41
0.1875
 42
0.0625
 43
0.38
 44
0.125
 45
0.0
 46
0.0
 47
0.01
 48
0.01
140
0.15625
141
0.09
142
0.0
143
25.3999999999999986
144
1.0
145
0.0
146
1.0
147
0.09
 71
     1
 72
     0
 73
     1
 74
     1
 75
     0
 76
     0
 77
     0
 78
     4
170
     0
171
     2
172
     0
173
     0
174
     0
175
     0
176
     0
177
     0
178
     0
  0
ENDTAB
  0
ENDSEC
  0
SECTION
  2
BLOCKS
  0
BLOCK
  8
0
  2
$MODEL_SPACE
 70
     0
 10
0.0
 20
0.0
 30
0.0
  3
$MODEL_SPACE
  1

  0
ENDBLK
  5
21
  8
0
  0
BLOCK
 67
     1
  8
0
  2
$PAPER_SPACE
 70
     0
 10
0.0
 20
0.0
 30
0.0
  3
$PAPER_SPACE
  1

  0
ENDBLK
  5
1D
 67
     1
  8
0
  0
BLOCK
  8
0
  2
_FILLED
 70
     0
 10
0.0
 20
0.0
 30
0.0
  3
_FILLED
  1

  0
SOLID
  5
6F59
  8
0
  6
BYBLOCK
 62
     0
 10
0.0
 20
0.0
 30
0.0
 11
-1.0
 21
0.1666666667
 31
0.0
 12
-1.0
 22
-0.1666666667
 32
0.0
 13
-1.0
 23
-0.1666666667
 33
0.0
  0
ENDBLK
  5
6F5A
  8
0
  6
BYBLOCK
 62
     0
  0
BLOCK
  8
0
  2
_CLOSED
 70
     0
 10
0.0
 20
0.0
 30
0.0
  3
_CLOSED
  1

  0
LINE
  5
8A02
  8
0
  6
BYBLOCK
 62
     0
 10
0.0
 20
0.0
 30
0.0
 11
-1.0
 21
0.1666666667
 31
0.0
  0
LINE
  5
8A03
  8
0
  6
BYBLOCK
 62
     0
 10
-1.0
 20
0.1666666667
 30
0.0
 11
-1.0
 21
-0.1666666667
 31
0.0
  0
LINE
  5
8A04
  8
0
  6
BYBLOCK
 62
     0
 10
-1.0
 20
-0.1666666667
 30
0.0
 11
0.0
 21
0.0
 31
0.0
  0
LINE
  5
8A05
  8
0
  6
BYBLOCK
 62
     0
 10
-1.0
 20
0.0
 30
0.0
 11
0.0
 21
0.0
 31
0.0
  0
ENDBLK
  5
8A06
  8
0
  6
BYBLOCK
 62
     0
  0
ENDSEC
  0
SECTION
  2
ENTITIES
  0
ATTDEF
  5
3930
  8
DEFPOINTS
 10
3474.0034378435598228
 20
203.3303767410241107
 30
0.0
 40
0.001
  1
K-72777W
  3

  2
MODELNUMBER
 70
     0
1001
ACDBATTR
1070
     0
1070
     1
  0
ATTDEF
  5
3931
  8
DEFPOINTS
 10
3474.0034378435598228
 20
203.3287100743573887
 30
0.0
 40
0.001
  1
ARTIFACTS
  3

  2
TRADENAME
 70
     0
1001
ACDBATTR
1070
     0
1070
     1
  0
ATTDEF
  5
3932
  8
DEFPOINTS
 10
3474.0034378435598228
 20
203.3270434076906952
 30
0.0
 40
0.001
  1
BATH SPOUT
  3

  2
PRODUCT
 70
     0
1001
ACDBATTR
1070
     0
1070
     1
  0
LINE
  5
8C18
  8
0
 10
3473.6873349485408653
 20
204.0580305127336942
 30
0.0
 11
3473.2714265778408844
 21
203.6421221420337133
 31
0.0
  0
LINE
  5
8C19
  8
0
 10
3473.2626398408310706
 20
203.6209089386337041
 30
0.0
 11
3473.2626398408310706
 21
203.0327256799336908
 31
0.0
  0
LINE
  5
8C1A
  8
0
 10
3473.2714265778408844
 20
203.0115124766336976
 30
0.0
 11
3473.6873349485408653
 21
202.5956041058337007
 31
0.0
  0
LINE
  5
8C1B
  8
0
 10
3473.7085481519420682
 20
202.5868173093336964
 30
0.0
 11
3474.0026398409431749
 21
202.5868173093336964
 31
0.0
  0
LINE
  5
8C1C
  8
0
 10
3474.0026398409431749
 20
204.0668173093336861
 30
0.0
 11
3473.7085481519420682
 21
204.0668173093336861
 31
0.0
  0
ARC
  5
8C1D
  8
0
 10
3473.2926394494138549
 20
203.0327254583137062
 30
0.0
 40
0.0299996085830459
 50
179.99957654057431
 51
225.0001486085959925
  0
ARC
  5
8C1E
  8
0
 10
3473.7085481519420682
 20
202.6168173093336975
 30
0.0
 40
0.03
 50
224.9999999999953957
 51
269.9999999093021756
  0
ARC
  5
8C1F
  8
0
 10
3473.7085481519420682
 20
204.0368173093337134
 30
0.0
 40
0.03
 50
90.0
 51
134.9999999094011969
  0
ARC
  5
8C20
  8
0
 10
3473.2926394494138549
 20
203.620909160353591
 30
0.0
 40
0.029999608583078
 50
134.9998513008339955
 51
180.0004233687132
  0
ARC
  5
8C21
  8
0
 10
3473.8132537063529526
 20
204.3688527333891898
 30
0.0
 40
0.0332365520302457
 50
292.6272953040808034
 51
354.135578978684805
  0
ARC
  5
8C22
  8
0
 10
3474.1693812223811619
 20
204.3322740265606114
 30
0.0
 40
0.3247645785056549
 50
149.6866852065458886
 51
174.1355789786846913
  0
ARC
  5
8C23
  8
0
 10
3474.0068014400608263
 20
204.4273286598941013
 30
0.0
 40
0.1364362244605445
 50
91.7479159627329466
 51
149.6866814994660047
  0
ARC
  5
8C24
  8
0
 10
3475.5706627647518872
 20
203.5396756679610917
 30
0.0
 40
2.4780891698219851
 50
184.8793593462177967
 51
202.2878281620207019
  0
ARC
  5
8C25
  8
0
 10
3469.1234544089838892
 20
201.5572469311971986
 30
0.0
 40
4.2830876586667026
 50
359.1296168372003876
 51
14.0884857805286892
  0
ARC
  5
8C26
  8
0
 10
3334.650116792181052
 20
197.4613772084065033
 30
0.0
 40
138.8144654614079059
 50
1.547890160251145
 51
1.6639528945424
  0
ARC
  5
8C27
  8
0
 10
3274.1290809912729856
 20
200.3537212734229058
 30
0.0
 40
199.2866916519386109
 50
358.3676570874458776
 51
0.246501421043754
  0
ARC
  5
8C28
  8
0
 10
3474.4441472569210418
 20
194.2235908502161124
 30
0.0
 40
1.198282065181328
 50
157.7737150743321877
 51
176.4488882570256862
  0
ARC
  5
8C29
  8
0
 10
3474.0119677957891327
 20
194.3449532630039016
 30
0.0
 40
0.765255263870017
 50
183.5318353880713005
 51
269.3015850984073722
  0
ARC
  5
8C2A
  8
0
 10
3474.0045531107530223
 20
194.6245181722771065
 30
0.0
 40
0.671694590691867
 50
175.5307262866487008
 51
269.836797206747292
  0
ARC
  5
8C2B
  8
0
 10
3473.9984780163558753
 20
204.4273282804201131
 30
0.0
 40
0.1364366106354033
 50
30.3134082806188196
 51
88.2519942572047995
  0
CIRCLE
  5
8C2C
  8
0
 10
3474.0028189010231472
 20
203.3268173077431982
 30
0.0
 40
0.6181693243287621
  0
LINE
  5
8C2D
  8
0
 10
3474.3179447333450298
 20
204.0580305127336942
 30
0.0
 11
3474.7338531040459202
 21
203.6421221420337133
 31
0.0
  0
LINE
  5
8C2E
  8
0
 10
3474.7426398410561887
 20
203.6209089386337041
 30
0.0
 11
3474.7426398410561887
 21
203.0327256799336908
 31
0.0
  0
LINE
  5
8C2F
  8
0
 10
3474.7338531040459202
 20
203.0115124766336976
 30
0.0
 11
3474.3179447333450298
 21
202.5956041058337007
 31
0.0
  0
LINE
  5
8C30
  8
0
 10
3474.2967315299461006
 20
202.5868173093336964
 30
0.0
 11
3474.0026398409431749
 21
202.5868173093336964
 31
0.0
  0
LINE
  5
8C31
  8
0
 10
3474.0026398409431749
 20
204.0668173093336861
 30
0.0
 11
3474.2967315299461006
 21
204.0668173093336861
 31
0.0
  0
ARC
  5
8C32
  8
0
 10
3474.7126402324729497
 20
203.0327254583137062
 30
0.0
 40
0.0299996085830459
 50
314.9998513914039222
 51
0.0004234594256502
  0
ARC
  5
8C33
  8
0
 10
3474.2967315299461006
 20
202.6168173093336975
 30
0.0
 40
0.03
 50
270.0000000906978244
 51
315.0000000000046043
  0
ARC
  5
8C34
  8
0
 10
3474.2967315299461006
 20
204.0368173093337134
 30
0.0
 40
0.03
 50
45.0000000905987392
 51
90.0
  0
ARC
  5
8C35
  8
0
 10
3474.7126402324729497
 20
203.620909160353591
 30
0.0
 40
0.029999608583078
 50
359.9995766312868
 51
45.0001486991660329
  0
ARC
  5
8C36
  8
0
 10
3474.1920259755329425
 20
204.3688527333891898
 30
0.0
 40
0.0332365520302457
 50
185.864421021315195
 51
247.3727046967370029
  0
ARC
  5
8C37
  8
0
 10
3473.8358984595060974
 20
204.3322740265606114
 30
0.0
 40
0.3247645785056549
 50
5.8644210213152572
 51
30.3133147934540794
  0
ARC
  5
8C38
  8
0
 10
3472.4346169171349175
 20
203.5396756679610917
 30
0.0
 40
2.4780891698219851
 50
337.7121718379793265
 51
355.1206406537821749
  0
ARC
  5
8C39
  8
0
 10
3478.8818252729029155
 20
201.5572469311971986
 30
0.0
 40
4.2830876586667026
 50
165.911514219471286
 51
180.8703831627996124
  0
ARC
  5
8C3A
  8
0
 10
3613.3551628897062074
 20
197.4613772084065033
 30
0.0
 40
138.8144654614079059
 50
178.3360471054575953
 51
178.4521098397488004
  0
ARC
  5
8C3B
  8
0
 10
3673.8761986906138191
 20
200.3537212734229058
 30
0.0
 40
199.2866916519386109
 50
179.7534985789561972
 51
181.632342912554094
  0
ARC
  5
8C3C
  8
0
 10
3473.5611324249648533
 20
194.2235908502161124
 30
0.0
 40
1.198282065181328
 50
3.551111742974252
 51
22.2262849256677804
  0
ARC
  5
8C3D
  8
0
 10
3473.9933118860981267
 20
194.3449532630039016
 30
0.0
 40
0.765255263870017
 50
270.6984149015925141
 51
356.4681646119287279
  0
ARC
  5
8C3E
  8
0
 10
3474.0007265711337823
 20
194.6245181722771065
 30
0.0
 40
0.671694590691867
 50
270.1632027932525943
 51
4.4692737133512708
  0
ARC
  5
8C3F
  8
0
 10
3474.0026398409431749
 20
203.2964033127456105
 30
0.0
 40
0.9016712442712309
 50
2.0650595569157648
 51
177.9349404430842014
  0
ARC
  5
8C41
  8
0
 10
3474.0026398409431749
 20
203.3268173031297863
 30
0.0
 40
1.0266598920044201
 50
314.9186918500259935
 51
225.0813081499740065
  0
ARC
  5
8C42
  8
0
 10
3474.0026398409431749
 20
203.3268173031297863
 30
0.0
 40
1.3493132034346991
 50
298.0954685123040804
 51
241.9045314876958912
  0
ENDSEC
  0
EOF
