  0
SECTION
  2
HEADER
  9
$ACADVER
  1
AC1009
  9
$INSBASE
 10
507.8495235762603102
 20
42.5566765621037391
 30
0.0
  9
$EXTMIN
 10
499.7194333828970798
 20
36.428276562103747
 30
0.0
  9
$EXTMAX
 10
511.7757749888800731
 20
45.9205896048673665
 30
0.0
  9
$LIMMIN
 10
0.0
 20
0.0
  9
$LIMMAX
 10
11.6929133858000007
 20
8.2677165353999982
  9
$ORTHOMODE
 70
     0
  9
$REGENMODE
 70
     1
  9
$FILLMODE
 70
     1
  9
$QTEXTMODE
 70
     0
  9
$MIRRTEXT
 70
     0
  9
$DRAGMODE
 70
     2
  9
$LTSCALE
 40
0.6431102362
  9
$OSMODE
 70
  4095
  9
$ATTMODE
 70
     1
  9
$TEXTSIZE
 40
0.2
  9
$TRACEWID
 40
0.05
  9
$TEXTSTYLE
  7
STANDARD
  9
$CLAYER
  8
0
  9
$CELTYPE
  6
BYLAYER
  9
$CECOLOR
 62
   256
  9
$DIMSCALE
 40
1.0
  9
$DIMASZ
 40
0.1875
  9
$DIMEXO
 40
0.0625
  9
$DIMDLI
 40
0.4443307087
  9
$DIMRND
 40
0.0
  9
$DIMDLE
 40
0.0
  9
$DIMEXE
 40
0.125
  9
$DIMTP
 40
0.01
  9
$DIMTM
 40
0.01
  9
$DIMTXT
 40
1.0
  9
$DIMCEN
 40
0.1052362205
  9
$DIMTSZ
 40
0.0
  9
$DIMTOL
 70
     1
  9
$DIMLIM
 70
     0
  9
$DIMTIH
 70
     0
  9
$DIMTOH
 70
     1
  9
$DIMSE1
 70
     0
  9
$DIMSE2
 70
     0
  9
$DIMTAD
 70
     0
  9
$DIMZIN
 70
     0
  9
$DIMBLK
  1

  9
$DIMASO
 70
     1
  9
$DIMSHO
 70
     1
  9
$DIMPOST
  1
\X
  9
$DIMAPOST
  1

  9
$DIMALT
 70
     1
  9
$DIMALTD
 70
     2
  9
$DIMALTF
 40
25.3999999999999986
  9
$DIMLFAC
 40
1.0
  9
$DIMTOFL
 70
     0
  9
$DIMTVP
 40
0.0
  9
$DIMTIX
 70
     0
  9
$DIMSOXD
 70
     0
  9
$DIMSAH
 70
     0
  9
$DIMBLK1
  1

  9
$DIMBLK2
  1

  9
$DIMSTYLE
  2
STANDARD
  9
$DIMCLRD
 70
     0
  9
$DIMCLRE
 70
     0
  9
$DIMCLRT
 70
     0
  9
$DIMTFAC
 40
1.0
  9
$DIMGAP
 40
0.09
  9
$LUNITS
 70
     2
  9
$LUPREC
 70
     4
  9
$SKETCHINC
 40
0.1
  9
$FILLETRAD
 40
0.0
  9
$AUNITS
 70
     0
  9
$AUPREC
 70
     0
  9
$MENU
  1
.
  9
$ELEVATION
 40
0.0
  9
$PELEVATION
 40
0.0
  9
$THICKNESS
 40
0.0
  9
$LIMCHECK
 70
     0
  9
$BLIPMODE
 70
     0
  9
$CHAMFERA
 40
0.0
  9
$CHAMFERB
 40
0.0
  9
$SKPOLY
 70
     0
  9
$TDCREATE
 40
2458171.8957638889551163
  9
$TDUPDATE
 40
2459087.0315856491215527
  9
$TDINDWG
 40
0.1587822222
  9
$TDUSRTIMER
 40
0.1587822222
  9
$USRTIMER
 70
     1
  9
$ANGBASE
 50
0.0
  9
$ANGDIR
 70
     0
  9
$PDMODE
 70
     0
  9
$PDSIZE
 40
0.3125
  9
$PLINEWID
 40
0.0
  9
$COORDS
 70
     0
  9
$SPLFRAME
 70
     0
  9
$SPLINETYPE
 70
     6
  9
$SPLINESEGS
 70
     8
  9
$ATTDIA
 70
     1
  9
$ATTREQ
 70
     1
  9
$HANDLING
 70
     1
  9
$HANDSEED
  5
AFF7
  9
$SURFTAB1
 70
     6
  9
$SURFTAB2
 70
     6
  9
$SURFTYPE
 70
     6
  9
$SURFU
 70
     6
  9
$SURFV
 70
     6
  9
$UCSNAME
  2

  9
$UCSORG
 10
0.0
 20
0.0
 30
0.0
  9
$UCSXDIR
 10
1.0
 20
0.0
 30
0.0
  9
$UCSYDIR
 10
0.0
 20
1.0
 30
0.0
  9
$PUCSNAME
  2

  9
$PUCSORG
 10
0.0
 20
0.0
 30
0.0
  9
$PUCSXDIR
 10
1.0
 20
0.0
 30
0.0
  9
$PUCSYDIR
 10
0.0
 20
1.0
 30
0.0
  9
$USERI1
 70
     0
  9
$USERI2
 70
     0
  9
$USERI3
 70
     0
  9
$USERI4
 70
     0
  9
$USERI5
 70
     0
  9
$USERR1
 40
0.0
  9
$USERR2
 40
0.0
  9
$USERR3
 40
0.0
  9
$USERR4
 40
0.0
  9
$USERR5
 40
0.0
  9
$WORLDVIEW
 70
     1
  9
$SHADEDGE
 70
     3
  9
$SHADEDIF
 70
    70
  9
$TILEMODE
 70
     1
  9
$MAXACTVP
 70
    64
  9
$PLIMCHECK
 70
     0
  9
$PEXTMIN
 10
1.0000000000000000E+20
 20
1.0000000000000000E+20
 30
1.0000000000000000E+20
  9
$PEXTMAX
 10
-1.0000000000000000E+20
 20
-1.0000000000000000E+20
 30
-1.0000000000000000E+20
  9
$PLIMMIN
 10
0.0
 20
0.0
  9
$PLIMMAX
 10
12.0
 20
9.0
  9
$UNITMODE
 70
     0
  9
$VISRETAIN
 70
     1
  9
$PLINEGEN
 70
     0
  9
$PSLTSCALE
 70
     1
  0
ENDSEC
  0
SECTION
  2
TABLES
  0
TABLE
  2
VPORT
 70
     1
  0
VPORT
  2
*ACTIVE
 70
     0
 10
0.0
 20
0.0
 11
1.0
 21
1.0
 12
134.1496760551266902
 22
-1.6513721140006721
 13
0.0
 23
0.0
 14
1.0
 24
1.0
 15
0.0
 25
0.0
 16
0.0
 26
0.0
 36
25.5757211105568096
 17
373.821136474609375
 27
41.8864481322634603
 37
0.0
 40
8.4377041892231812
 41
2.7459016393442619
 42
50.0
 43
0.0
 44
0.0
 50
0.0
 51
0.0
 71
     0
 72
   100
 73
     1
 74
     1
 75
     0
 76
     0
 77
     0
 78
     0
  0
ENDTAB
  0
TABLE
  2
LTYPE
 70
     2
  0
LTYPE
  2
CONTINUOUS
 70
     0
  3
Solid line
 72
    65
 73
     0
 40
0.0
  0
LTYPE
  2
PHANTOM2
 70
     0
  3
___ _ _ ___ _ _ ___ _ _ ___ _ _
 72
    65
 73
     6
 40
1.25
 49
0.625
 49
-0.125
 49
0.125
 49
-0.125
 49
0.125
 49
-0.125
  0
ENDTAB
  0
TABLE
  2
LAYER
 70
     2
  0
LAYER
  2
0
 70
     0
 62
   255
  6
CONTINUOUS
  0
LAYER
  2
DEFPOINTS
 70
     0
 62
     7
  6
CONTINUOUS
  0
ENDTAB
  0
TABLE
  2
STYLE
 70
     1
  0
STYLE
  2
STANDARD
 70
     0
 40
0.0
 41
0.8
 50
0.0
 71
     0
 42
0.2
  3
txt
  4

  0
ENDTAB
  0
TABLE
  2
VIEW
 70
     0
  0
ENDTAB
  0
TABLE
  2
UCS
 70
     0
  0
ENDTAB
  0
TABLE
  2
APPID
 70
    10
  0
APPID
  2
ACAD
 70
     0
  0
APPID
  2
ACAD_MLEADERVER
 70
     0
  0
APPID
  2
ACAD_EXEMPT_FROM_CAD_STANDARDS
 70
     0
  0
APPID
  2
ACAD_DSTYLE_DIMJAG
 70
     0
  0
APPID
  2
ACAD_DSTYLE_DIMTALN
 70
     0
  0
APPID
  2
ACAD_NAV_VCDISPLAY
 70
     0
  0
APPID
  2
ACAECLAYERSTANDARD
 70
     0
  0
APPID
  2
ACCMTRANSPARENCY
 70
     0
  0
APPID
  2
DCO15
 70
     0
  0
APPID
  2
ACDBATTR
 70
     0
  0
ENDTAB
  0
TABLE
  2
DIMSTYLE
 70
     1
  0
DIMSTYLE
  2
STANDARD
 70
     0
  3

  4

  5

  6

  7

 40
1.0
 41
0.1875
 42
0.0625
 43
0.38
 44
0.125
 45
0.0
 46
0.0
 47
0.01
 48
0.01
140
0.15625
141
0.09
142
0.0
143
25.3999999999999986
144
1.0
145
0.0
146
1.0
147
0.09
 71
     1
 72
     0
 73
     1
 74
     1
 75
     0
 76
     0
 77
     0
 78
     4
170
     0
171
     2
172
     0
173
     0
174
     0
175
     0
176
     0
177
     0
178
     0
  0
ENDTAB
  0
ENDSEC
  0
SECTION
  2
BLOCKS
  0
BLOCK
  8
0
  2
$MODEL_SPACE
 70
     0
 10
0.0
 20
0.0
 30
0.0
  3
$MODEL_SPACE
  1

  0
ENDBLK
  5
21
  8
0
  0
BLOCK
 67
     1
  8
0
  2
$PAPER_SPACE
 70
     0
 10
0.0
 20
0.0
 30
0.0
  3
$PAPER_SPACE
  1

  0
ENDBLK
  5
1D
 67
     1
  8
0
  0
ENDSEC
  0
SECTION
  2
ENTITIES
  0
ATTDEF
  5
829
  8
DEFPOINTS
 10
507.8444106018781099
 20
42.5534250590257699
 30
0.0
 40
0.001
  1
K-72762T-9MND
  3

  2
MODELNUMBER
 70
     0
1001
ACDBATTR
1070
     0
1070
     1
  0
ATTDEF
  5
82A
  8
DEFPOINTS
 10
507.8444106018781099
 20
42.5517583923590976
 30
0.0
 40
0.001
  1
ARTIFACTS
  3

  2
TRADENAME
 70
     0
1001
ACDBATTR
1070
     0
1070
     1
  0
ATTDEF
  5
82B
  8
DEFPOINTS
 10
507.8444106018781099
 20
42.5500917256924396
 30
0.0
 40
0.001
  1
BATHROOM SINK FAUCET
  3

  2
PRODUCT
 70
     0
1001
ACDBATTR
1070
     0
1070
     1
  0
ARC
  5
AEDC
  8
0
 10
507.8495235762603102
 20
42.5566765621037391
 30
0.0
 40
1.3500000000000001
 50
288.7439136582970036
 51
326.1995335307177015
  0
CIRCLE
  5
AEDD
  8
0
 10
507.8495235762603102
 20
42.5566765621037391
 30
0.0
 40
0.4900000000000003
  0
CIRCLE
  5
AEDE
  8
0
 10
507.8495235762603102
 20
42.5566765621037391
 30
0.0
 40
0.2994191862999997
  0
CIRCLE
  5
AEDF
  8
0
 10
507.8495235762603102
 20
42.5566765621037391
 30
0.0
 40
0.113564588800036
  0
ARC
  5
AEE0
  8
0
 10
507.8495235762603102
 20
42.5566765621037391
 30
0.0
 40
1.0600241542999991
 50
301.2555522713537925
 51
320.7976519116913892
  0
ARC
  5
AEE1
  8
0
 10
507.1595235760867126
 20
41.8122808339675487
 30
0.0
 40
0.1400000001736662
 50
359.9999997592561272
 51
47.1727043105348329
  0
LINE
  5
AEE2
  8
0
 10
507.2995235762602988
 20
41.8122808333792975
 30
0.0
 11
507.2995235762602988
 21
41.7616765621037374
 31
0.0
  0
ARC
  5
AEE3
  8
0
 10
507.3295235762603284
 20
41.7616765621037374
 30
0.0
 40
0.0300000000000058
 50
180.0
 51
216.8698976458439915
  0
ARC
  5
AEE4
  8
0
 10
507.2895235762604216
 20
41.7316765621037433
 30
0.0
 40
0.0199999999999982
 50
323.1301023541632276
 51
36.8698976458371916
  0
ARC
  5
AEE5
  8
0
 10
507.3295235762603852
 20
41.7016765621037422
 30
0.0
 40
0.0300000000000211
 50
143.130102354160897
 51
180.0
  0
LINE
  5
AEE6
  8
0
 10
507.2995235762602988
 20
41.7016765621037422
 30
0.0
 11
507.2995235762602988
 21
41.6092083530037371
 31
0.0
  0
ARC
  5
AEE7
  8
0
 10
507.3295235762603284
 20
41.6092083530037371
 30
0.0
 40
0.0299999999999985
 50
180.0
 51
258.7507343426455009
  0
ARC
  5
AEE8
  8
0
 10
507.2881371808189783
 20
41.4076950911471897
 30
0.0
 40
0.175719975644448
 50
13.6592715535368203
 51
78.3332014854627801
  0
ARC
  5
AEE9
  8
0
 10
507.1498197010104718
 20
41.3531370654696175
 30
0.0
 40
0.3236497006762685
 50
1.0847317933008731
 51
17.2645075687403988
  0
ARC
  5
AEEA
  8
0
 10
507.42348813106031
 20
41.3564951285037523
 30
0.0
 40
0.0500000000000094
 50
296.8490246750212123
 51
3.1746102646327761
  0
ARC
  5
AEEB
  8
0
 10
507.4745235762533753
 20
41.255676562096717
 30
0.0
 40
0.0629999999929756
 50
116.8490245863893051
 51
270.0000000063868129
  0
LINE
  5
AEEC
  8
0
 10
507.4745333367603166
 20
41.1926765621037418
 30
0.0
 11
507.474522409031124
 21
37.1219665722875831
 31
0.0
  0
ARC
  5
AEED
  8
0
 10
508.4611811606088168
 20
43.366676564853087
 30
0.0
 40
0.1400000027493564
 50
232.9459083376391106
 51
269.9999998841882984
  0
LINE
  5
AEEE
  8
0
 10
508.4611811603259071
 20
43.2266765621037408
 30
0.0
 11
508.7645420542604029
 21
43.2266765621037408
 31
0.0
  0
LINE
  5
AEEF
  8
0
 10
508.3995235762603215
 20
41.7616765621037374
 30
0.0
 11
508.3995235762603215
 21
41.8084955158672713
 31
0.0
  0
ARC
  5
AEF0
  8
0
 10
508.4761141226662176
 20
41.8100860389813676
 30
0.0
 40
0.0766070594824953
 50
88.8103083198012371
 51
181.1896659487302941
  0
LINE
  5
AEF1
  8
0
 10
508.4777046801771121
 20
41.8866765846729621
 30
0.0
 11
508.7645420542604029
 21
41.886676563863027
 31
0.0
  0
LINE
  5
AEF2
  8
0
 10
507.4460701865331771
 20
41.3118851434037424
 30
0.0
 11
508.252978477408476
 21
41.3118843782806024
 31
0.0
  0
LINE
  5
AEF3
  8
0
 10
507.3233054045933841
 20
41.5798598548970304
 30
0.0
 11
508.3757417479590117
 21
41.5798598549037379
 31
0.0
  0
LINE
  5
AEF4
  8
0
 10
507.3055235803632854
 20
41.7196765675743819
 30
0.0
 11
508.3935235713000793
 21
41.7196765687174178
 31
0.0
  0
LINE
  5
AEF5
  8
0
 10
509.3008977571865898
 20
41.7983997897308299
 30
0.0
 11
509.3008977571865898
 21
43.3149571794308272
 31
0.0
  0
ARC
  5
AEF6
  8
0
 10
509.3398127856830797
 20
43.3116234012508201
 30
0.0
 40
0.0390575667423867
 50
137.154830322952904
 51
175.1035321246122862
  0
ARC
  5
AEF7
  8
0
 10
509.3531897664897201
 20
43.2997004548462314
 30
0.0
 40
0.0569780333439447
 50
25.172340954867451
 51
137.4681429042877028
  0
ARC
  5
AEF8
  8
0
 10
509.4289630383033227
 20
43.3320077367952408
 30
0.0
 40
0.0255158497857688
 50
198.4427263367547027
 51
276.6308954120733006
  0
LINE
  5
AEF9
  8
0
 10
509.4319094245865926
 20
43.3066625716121365
 30
0.0
 11
509.5872818066865761
 21
43.3066310477340082
 31
0.0
  0
ARC
  5
AEFA
  8
0
 10
509.5896675940529121
 20
43.2794457990498387
 30
0.0
 40
0.0272898040506233
 50
4.6030787045322974
 51
95.0164003728547044
  0
ARC
  5
AEFB
  8
0
 10
510.4537279463149844
 20
43.4342460724624004
 30
0.0
 40
0.8506787785127009
 50
190.3349932031453875
 51
204.3418635835056989
  0
ARC
  5
AEFC
  8
0
 10
510.184164751506728
 20
43.2878336145530227
 30
0.0
 40
0.5451865825454081
 50
201.9988641567852881
 51
229.5851476953056931
  0
ARC
  5
AEFD
  8
0
 10
510.0048555109261201
 20
43.096576725435277
 30
0.0
 40
0.2835967347278884
 50
232.1165460714209132
 51
257.8787907098313781
  0
ARC
  5
AEFE
  8
0
 10
509.9502630712867131
 20
42.8488901944308367
 30
0.0
 40
0.0300000000000075
 50
260.488533929220921
 51
328.1534326009987126
  0
ARC
  5
AEFF
  8
0
 10
510.0182202014975132
 20
42.806678484541699
 30
0.0
 40
0.0499999999891363
 50
359.9999882992061089
 51
148.1534461181616109
  0
ARC
  5
AF00
  8
0
 10
509.3545059880987083
 20
41.8119586716479077
 30
0.0
 40
0.0552963443671528
 50
194.1938867036109002
 51
339.4429604527114748
  0
ARC
  5
AF01
  8
0
 10
509.4283939088335842
 20
41.7827527883805416
 30
0.0
 40
0.0241825926502039
 50
81.6410734118224468
 51
156.1213314452450902
  0
LINE
  5
AF02
  8
0
 10
509.4319094245865926
 20
41.8066784845308206
 30
0.0
 11
509.5872813492866271
 21
41.8067258938308299
 31
0.0
  0
ARC
  5
AF03
  8
0
 10
509.5901367759905725
 20
41.8333558582281313
 30
0.0
 40
0.0267825388835903
 50
263.880748915692493
 51
356.5005833755873823
  0
ARC
  5
AF04
  8
0
 10
510.5140905545629266
 20
41.6571475905665309
 30
0.0
 40
0.9140469083505383
 50
155.9672110581755078
 51
168.9894549581869967
  0
ARC
  5
AF05
  8
0
 10
510.1850073429567942
 20
41.8257640626193634
 30
0.0
 40
0.5451865825454081
 50
130.4808914729952107
 51
158.0671750115151042
  0
ARC
  5
AF06
  8
0
 10
510.0054777786635896
 20
42.0168141527455035
 30
0.0
 40
0.2835967347278884
 50
102.1872484584708047
 51
127.9494930968780011
  0
ARC
  5
AF07
  8
0
 10
509.9505998916259273
 20
42.2644375959432423
 30
0.0
 40
0.0300000000000075
 50
31.9126065673007808
 51
99.577505239079656
  0
ARC
  5
AF08
  8
0
 10
510.0185083234516128
 20
42.3067276052270813
 30
0.0
 40
0.0499999999891363
 50
211.9125930501375876
 51
0.0660508690940831
  0
LINE
  5
AF09
  8
0
 10
510.0682202014866107
 20
42.8066784743308304
 30
0.0
 11
510.0685082902168119
 21
42.3067852454712678
 31
0.0
  0
LINE
  5
AF0A
  8
0
 10
509.9757469889491972
 20
42.8330607932873306
 30
0.0
 11
509.9757469950865811
 21
42.2807967886963922
 31
0.0
  0
LINE
  5
AF0B
  8
0
 10
509.6168693766866227
 20
43.2815302623726126
 30
0.0
 11
509.6168693766866227
 21
41.8317210955305825
 31
0.0
  0
LINE
  5
AF0C
  8
0
 10
509.4077144128083887
 20
43.3178813605837689
 30
0.0
 11
509.4047567379865882
 21
41.7894213382308308
 31
0.0
  0
ARC
  5
AF0D
  8
0
 10
510.4072202014866093
 20
42.5565171732308301
 30
0.0
 40
0.3751550482115913
 50
212.1869091838127872
 51
323.17864226860911
  0
ARC
  5
AF0E
  8
0
 10
510.4072202014866093
 20
42.5565171732308301
 30
0.0
 40
0.3751550482115913
 50
36.8829343412315325
 51
147.754851849236104
  0
CIRCLE
  5
AF0F
  8
0
 10
510.4072202014866093
 20
42.5568689153308313
 30
0.0
 40
0.2153158436000029
  0
ARC
  5
AF10
  8
0
 10
510.4072330845967258
 20
42.5592131947783585
 30
0.0
 40
0.3515501535049956
 50
217.5749533144810925
 51
317.7684590745507762
  0
ARC
  5
AF11
  8
0
 10
510.4074040379912844
 20
42.5544431781899135
 30
0.0
 40
0.3513620173134331
 50
42.2393515345538475
 51
142.5114321917880034
  0
LINE
  5
AF12
  8
0
 10
510.0682490165070249
 20
42.7566784845308305
 30
0.0
 11
510.1047305397866012
 21
42.7566826097308308
 31
0.0
  0
ARC
  5
AF13
  8
0
 10
510.1062509514911198
 20
42.7839252340396996
 30
0.0
 40
0.0272850184347651
 50
266.8056345846031263
 51
325.0205250130925947
  0
LINE
  5
AF14
  8
0
 10
510.0684795367168931
 20
42.356678484530832
 30
0.0
 11
510.1047305342866025
 21
42.3566735209308192
 31
0.0
  0
ARC
  5
AF15
  8
0
 10
510.1064279541756719
 20
42.3301018559147977
 30
0.0
 40
0.0266307796144719
 50
33.5980454905539005
 51
93.654454363732853
  0
ARC
  5
AF16
  8
0
 10
510.6473110210145023
 20
42.771186611985847
 30
0.0
 40
0.0279154597202756
 50
358.7847176206288964
 51
43.5825055745429282
  0
ARC
  5
AF17
  8
0
 10
510.6473101990220016
 20
42.342171010513141
 30
0.0
 40
0.0279162655671266
 50
316.4198155584235224
 51
1.213701400213212
  0
LINE
  5
AF18
  8
0
 10
510.6752202014865816
 20
42.7705945505308307
 30
0.0
 11
510.6752202014865816
 21
42.3427623189309088
 31
0.0
  0
ARC
  5
AF19
  8
0
 10
510.6852202014874251
 20
42.7716784845288132
 30
0.0
 40
0.0100000000020108
 50
90.0000000047745914
 51
179.5214902358937081
  0
LINE
  5
AF1A
  8
0
 10
510.6852202014866862
 20
42.781678484530822
 30
0.0
 11
510.7305479235865846
 21
42.781678484530822
 31
0.0
  0
ARC
  5
AF1B
  8
0
 10
510.7305479278010125
 20
42.7691785002911686
 30
0.0
 40
0.0124999842396505
 50
30.1151523613539709
 51
90.0000193171205467
  0
ARC
  5
AF1C
  8
0
 10
510.3600301666631935
 20
42.5552145102795691
 30
0.0
 40
0.4403597524214236
 50
8.5095652462020297
 51
30.0083912128525796
  0
ARC
  5
AF1D
  8
0
 10
510.5864026809143184
 20
42.5894396739102632
 30
0.0
 40
0.2114573880063009
 50
351.0872269975437234
 51
359.4127258506213138
  0
ARC
  5
AF1E
  8
0
 10
509.9310129351255227
 20
42.5434787925421674
 30
0.0
 40
0.8679415691813716
 50
2.8921867945155189
 51
5.0837857784862832
  0
ARC
  5
AF1F
  8
0
 10
510.6852552487745811
 20
42.3417630961687479
 30
0.0
 40
0.0100846725380685
 50
174.3136139999425893
 51
269.8008794318158721
  0
LINE
  5
AF20
  8
0
 10
510.6852202014890167
 20
42.3316784845308192
 30
0.0
 11
510.7305479235865846
 21
42.3316784845308192
 31
0.0
  0
ARC
  5
AF21
  8
0
 10
510.7305479235865846
 20
42.344178484530822
 30
0.0
 40
0.0124999999999922
 50
269.9999999999869829
 51
329.8827646299486105
  0
ARC
  5
AF22
  8
0
 10
510.3642202023423238
 20
42.5566784842818606
 30
0.0
 40
0.4359999991100386
 50
329.8827658959647806
 51
346.8142242098637098
  0
ARC
  5
AF23
  8
0
 10
510.546496509860674
 20
42.5231920688210394
 30
0.0
 40
0.2510535713871257
 50
344.7505268294910934
 51
7.6651501176216641
  0
ARC
  5
AF24
  8
0
 10
507.2826384275085729
 20
41.8760171234763376
 30
0.0
 40
3.5780076719170841
 50
10.9664830987864708
 51
11.3745441506245193
  0
ARC
  5
AF25
  8
0
 10
510.5587457708398915
 20
42.5186927880208927
 30
0.0
 40
0.2400353799624215
 50
15.2125563489436999
 51
28.5894682322424991
  0
ARC
  5
AF26
  8
0
 10
509.8914041498296115
 20
42.1132094483312969
 30
0.0
 40
1.020704794613154
 50
30.6500048565047187
 51
32.4766599492835084
  0
ARC
  5
AF27
  8
0
 10
510.7724207295419774
 20
42.6737922725970691
 30
0.0
 40
0.0235386354710949
 50
189.0049211084538001
 51
212.1024824001547131
  0
ARC
  5
AF28
  8
0
 10
510.7826360784875988
 20
42.675092466127353
 30
0.0
 40
0.0338330485222336
 50
179.3651055027295911
 51
188.4719214962373997
  0
LINE
  5
AF29
  8
0
 10
510.7488051070993151
 20
42.6754673624447776
 30
0.0
 11
510.7488051079329807
 21
42.724777220836863
 31
0.0
  0
ARC
  5
AF2A
  8
0
 10
510.7531149348494068
 20
42.7252323377048313
 30
0.0
 40
0.0043337904231743
 50
151.7172065973647079
 51
186.0280821821368988
  0
ARC
  5
AF2B
  8
0
 10
510.749988834694193
 20
42.7268171942343713
 30
0.0
 40
0.0008343414637584
 50
50.5332002946703227
 51
145.8309709614964049
  0
ARC
  5
AF2C
  8
0
 10
510.7481928385935817
 20
42.7240624676870624
 30
0.0
 40
0.0041187218583191
 50
33.8427865766882405
 51
55.6103267457141683
  0
ARC
  5
AF2D
  8
0
 10
510.5435138173954783
 20
42.5766150408309372
 30
0.0
 40
0.2563747244902407
 50
19.2318013214340908
 51
35.7374335632926687
  0
ARC
  5
AF2E
  8
0
 10
510.4787133722115868
 20
42.5581624694349898
 30
0.0
 40
0.3236607644759646
 50
13.7920368204247801
 51
18.5375191661091989
  0
LINE
  5
AF2F
  8
0
 10
510.7413604300866155
 20
42.7754506215308297
 30
0.0
 11
510.7413604300866155
 21
42.3379063474797519
 31
0.0
  0
LINE
  5
AF30
  8
0
 10
507.4745235762533753
 20
41.1926765621037418
 30
0.0
 11
508.2245235762674156
 21
41.1926765621037418
 31
0.0
  0
ARC
  5
AF31
  8
0
 10
507.7909421875216935
 20
36.9637292465997405
 30
0.0
 40
0.52804035284416
 50
126.8149665702639055
 51
180.0355813678401944
  0
ARC
  5
AF32
  8
0
 10
507.8105278782484788
 20
36.985051718895761
 30
0.0
 40
0.5480537487670861
 50
182.2640095808581862
 51
254.237464207792101
  0
ARC
  5
AF33
  8
0
 10
507.8642619589309106
 20
37.1390595531103003
 30
0.0
 40
0.7109357778505503
 50
253.4414251970644045
 51
268.8121182691683089
  0
ARC
  5
AF34
  8
0
 10
507.8300356188755131
 20
37.1086410999351486
 30
0.0
 40
0.3557628572340296
 50
177.853424134469293
 51
214.7725758948378996
  0
ARC
  5
AF35
  8
0
 10
507.8611494239351032
 20
37.1649871740061073
 30
0.0
 40
0.4144395441133934
 50
218.7211951644937074
 51
248.1245331821156128
  0
ARC
  5
AF36
  8
0
 10
507.8471293302321214
 20
37.1715101744004315
 30
0.0
 40
0.4155560813627438
 50
250.253987425478897
 51
270.3301141714835012
  0
ARC
  5
AF37
  8
0
 10
507.7909738197406
 20
37.0418413373199016
 30
0.0
 40
0.3779620310362068
 50
146.8515100336022101
 51
170.4061425614225982
  0
ARC
  5
AF38
  8
0
 10
507.7980683544188878
 20
37.0437767353627834
 30
0.0
 40
0.3846471991340677
 50
170.8665318932260959
 51
192.9264252301094018
  0
ARC
  5
AF39
  8
0
 10
507.8118091401423158
 20
37.0654269683810611
 30
0.0
 40
0.4032860590834972
 50
195.4885253279784934
 51
234.8389375542867015
  0
ARC
  5
AF3A
  8
0
 10
507.8406524903684272
 20
37.1000939243197507
 30
0.0
 40
0.4482523669749982
 50
234.3766584059609102
 51
258.6561783805759092
  0
ARC
  5
AF3B
  8
0
 10
507.8511428219214281
 20
37.1545116441552281
 30
0.0
 40
0.5036705907332465
 50
258.7037689754138796
 51
269.8158000409399051
  0
LINE
  5
AF3C
  8
0
 10
508.2245138157603037
 20
41.1926765621037418
 30
0.0
 11
508.22452474348961
 21
37.1219665722875831
 31
0.0
  0
ARC
  5
AF3D
  8
0
 10
507.9081049649990973
 20
36.9637292465997405
 30
0.0
 40
0.52804035284416
 50
359.9644186321597203
 51
53.1850334297360732
  0
ARC
  5
AF3E
  8
0
 10
507.8885192742720847
 20
36.985051718895761
 30
0.0
 40
0.5480537487670861
 50
285.7625357922079274
 51
357.7359904191416717
  0
ARC
  5
AF3F
  8
0
 10
507.8347851935898234
 20
37.1390595531103287
 30
0.0
 40
0.7109357778505756
 50
271.1878817308316911
 51
286.5585748029355955
  0
ARC
  5
AF40
  8
0
 10
507.8690115336452209
 20
37.1086410999351486
 30
0.0
 40
0.3557628572340296
 50
325.227424105162072
 51
2.146575865530298
  0
ARC
  5
AF41
  8
0
 10
507.8378977285856877
 20
37.1649871740061073
 30
0.0
 40
0.4144395441133934
 50
291.8754668178845009
 51
321.2788048355063211
  0
ARC
  5
AF42
  8
0
 10
507.8519178222886126
 20
37.1715101744004315
 30
0.0
 40
0.4155560813627438
 50
269.6698858285166125
 51
289.7460125745209893
  0
ARC
  5
AF43
  8
0
 10
507.9080733327801909
 20
37.0418413373199016
 30
0.0
 40
0.3779620310362068
 50
9.5938574385773467
 51
33.1484899663977615
  0
ARC
  5
AF44
  8
0
 10
507.9009787981017894
 20
37.0437767353627834
 30
0.0
 40
0.3846471991340677
 50
347.073574769890115
 51
9.1334681067738188
  0
ARC
  5
AF45
  8
0
 10
507.8872380123784183
 20
37.0654269683810611
 30
0.0
 40
0.4032860590834972
 50
305.1610624457106269
 51
344.5114746720211087
  0
ARC
  5
AF46
  8
0
 10
507.8583946621523069
 20
37.1000939243197507
 30
0.0
 40
0.4482523669749982
 50
281.3438216194239772
 51
305.6233415940391183
  0
ARC
  5
AF47
  8
0
 10
507.8479043305991922
 20
37.1545116441552281
 30
0.0
 40
0.5036705907332465
 50
270.184199959056798
 51
281.2962310245861204
  0
ARC
  5
AF48
  8
0
 10
508.369523576260292
 20
41.7616765621037374
 30
0.0
 40
0.0300000000000058
 50
323.1301023541557242
 51
0.0
  0
ARC
  5
AF49
  8
0
 10
508.4095235762603124
 20
41.7316765621037433
 30
0.0
 40
0.0199999999999982
 50
143.1301023541628012
 51
216.8698976458364882
  0
ARC
  5
AF4A
  8
0
 10
508.369523576260292
 20
41.7016765621037422
 30
0.0
 40
0.0300000000000211
 50
0.0
 51
36.8698976458391385
  0
LINE
  5
AF4B
  8
0
 10
508.3995235762603215
 20
41.7016765621037422
 30
0.0
 11
508.3995235762603215
 21
41.6092083530037371
 31
0.0
  0
ARC
  5
AF4C
  8
0
 10
508.369523576260292
 20
41.6092083530037371
 30
0.0
 40
0.0299999999999985
 50
281.2492656573543854
 51
0.0
  0
ARC
  5
AF4D
  8
0
 10
508.4109099717018125
 20
41.4076950911471897
 30
0.0
 40
0.175719975644448
 50
101.6667985145372057
 51
166.3407284464630891
  0
ARC
  5
AF4E
  8
0
 10
508.549227451510319
 20
41.3531370654696175
 30
0.0
 40
0.3236497006762685
 50
162.735492431259587
 51
178.9152682066994942
  0
ARC
  5
AF4F
  8
0
 10
508.2755590214603103
 20
41.3564951285037523
 30
0.0
 40
0.0500000000000094
 50
176.8253897353675939
 51
243.1509753249758887
  0
ARC
  5
AF50
  8
0
 10
508.2245235762674156
 20
41.255676562096717
 30
0.0
 40
0.0629999999929756
 50
269.9999999936133008
 51
63.1509754136107091
  0
ARC
  5
AF51
  8
0
 10
508.7795420523971188
 20
43.2481732653669084
 30
0.0
 40
0.0149999981366875
 50
149.9211980831528024
 51
180.0
  0
LINE
  5
AF52
  8
0
 10
508.7665620003824074
 20
43.255691123692273
 30
0.0
 11
508.7867450281527226
 21
43.2953453681069504
 31
0.0
  0
ARC
  5
AF53
  8
0
 10
508.7975621446624928
 20
43.2913267201954923
 30
0.0
 40
0.0115394774849592
 50
100.5290614936928932
 51
159.6195536337125986
  0
LINE
  5
AF54
  8
0
 10
508.7954534871602732
 20
43.302671899972033
 30
0.0
 11
508.8002327773604065
 21
43.3106621210721201
 31
0.0
  0
LINE
  5
AF55
  8
0
 10
508.8002327773604065
 20
43.3106621210721201
 30
0.0
 11
509.0132492027345847
 21
43.3069439055570484
 31
0.0
  0
ARC
  5
AF56
  8
0
 10
509.0127256268917222
 20
43.2769482654350526
 30
0.0
 40
0.0300002092962027
 50
33.5711410401161103
 51
89.0000000055422902
  0
ARC
  5
AF57
  8
0
 10
509.1328904685352086
 20
43.3429904778393222
 30
0.0
 40
0.1072516377800103
 50
207.4580182134141069
 51
276.2780215997472055
  0
LINE
  5
AF58
  8
0
 10
509.1446187594690969
 20
43.2363820307149922
 30
0.0
 11
509.3008977571865898
 21
43.2336731602021871
 31
0.0
  0
LINE
  5
AF59
  8
0
 10
508.7645420542604029
 20
43.2481732653669084
 30
0.0
 11
508.7645420542604029
 21
41.8651704027721223
 31
0.0
  0
ARC
  5
AF5A
  8
0
 10
508.7795420542603892
 20
41.8651704027721223
 30
0.0
 40
0.0149999999999828
 50
180.0
 51
210.0788097904788003
  0
LINE
  5
AF5B
  8
0
 10
508.7665620016665002
 20
41.8576525417291592
 30
0.0
 11
508.787528840617199
 21
41.8164583182551013
 31
0.0
  0
ARC
  5
AF5C
  8
0
 10
508.7966153181392883
 20
41.8205853276655617
 30
0.0
 40
0.009979793606745
 50
204.4271897771311046
 51
263.3085148620783116
  0
LINE
  5
AF5D
  8
0
 10
508.7954524412680826
 20
41.8106735166394401
 30
0.0
 11
508.8002327773676257
 21
41.8026815468600077
 31
0.0
  0
LINE
  5
AF5E
  8
0
 10
508.8002327773676257
 20
41.8026815468600077
 30
0.0
 11
509.0097284405105142
 21
41.8063383072570076
 31
0.0
  0
ARC
  5
AF5F
  8
0
 10
509.0109067595947181
 20
41.8397156448529373
 30
0.0
 40
0.0333981302000147
 50
267.9781285975151945
 51
337.3580267034644748
  0
ARC
  5
AF60
  8
0
 10
509.1328476869396127
 20
41.7703943322979967
 30
0.0
 40
0.1071935653368719
 50
83.7887064035919451
 51
148.214015796844194
  0
LINE
  5
AF61
  8
0
 10
509.1444455280936268
 20
41.8769586346238327
 30
0.0
 11
509.3008977571865898
 21
41.8796705077756428
 31
0.0
  0
LINE
  5
AF62
  8
0
 10
509.0377208398303992
 20
43.293538982356111
 30
0.0
 11
509.0386639524525094
 21
41.8211421867605466
 31
0.0
  0
ARC
  5
AF63
  8
0
 10
509.4288030569913985
 20
42.023974177910091
 30
0.0
 40
0.6285696603369944
 50
160.3021996181585109
 51
200.5452614409776118
  0
ARC
  5
AF64
  8
0
 10
508.8073929350744038
 20
42.2464442995101024
 30
0.0
 40
0.0314632893145283
 50
340.3021996181589088
 51
19.6977971401720389
  0
ARC
  5
AF65
  8
0
 10
510.0389610093650958
 20
42.5566718339721319
 30
0.0
 40
1.2387282321048381
 50
166.0025233507720941
 51
193.9974766492287017
  0
ARC
  5
AF66
  8
0
 10
508.8067823774617864
 20
42.8671179532258932
 30
0.0
 40
0.0321117952199946
 50
340.3022028598286965
 51
18.8693045661341507
  0
ARC
  5
AF67
  8
0
 10
509.4275756548148024
 20
43.089582622373527
 30
0.0
 40
0.6273422794362351
 50
159.4335181736879861
 51
199.7587272309469029
  0
ARC
  5
AF68
  8
0
 10
508.3800981309292979
 20
42.023974177910091
 30
0.0
 40
0.6285696603369944
 50
339.6743075581571816
 51
19.6978003818415317
  0
ARC
  5
AF69
  8
0
 10
509.0015082528464063
 20
42.2464442995101024
 30
0.0
 40
0.0314632893145283
 50
160.3022028598279007
 51
199.6978003818410912
  0
ARC
  5
AF6A
  8
0
 10
507.7699401785554869
 20
42.5566718339721319
 30
0.0
 40
1.2387282321048381
 50
346.0025233507709004
 51
13.9974766492275098
  0
ARC
  5
AF6B
  8
0
 10
509.00211881045891
 20
42.8671179532258932
 30
0.0
 40
0.0321117952199946
 50
161.1306954338654123
 51
199.6977971401709055
  0
ARC
  5
AF6C
  8
0
 10
508.381325533105894
 20
43.089582622373527
 30
0.0
 40
0.6273422794362351
 50
340.2412727690527277
 51
20.3464635395237714
  0
LINE
  5
AF6D
  8
0
 10
508.8388933334060198
 20
42.8668857882014578
 30
0.0
 11
508.9700078545146766
 21
42.8668857882014578
 31
0.0
  0
LINE
  5
AF6E
  8
0
 10
508.8388562243887918
 20
42.246444298620041
 30
0.0
 11
508.9700449635317909
 21
42.246444298620041
 31
0.0
  0
ARC
  5
AF6F
  8
0
 10
507.8495235762603102
 20
42.5566765621037391
 30
0.0
 40
1.3500000397242631
 50
33.7999766211227595
 51
251.2560862746780117
  0
ARC
  5
AF70
  8
0
 10
507.8495235762603102
 20
42.5566765621037391
 30
0.0
 40
0.8750000000000023
 50
52.941779253931287
 51
227.1716005256446067
  0
ARC
  5
AF71
  8
0
 10
507.8495235762603102
 20
42.5566765621037391
 30
0.0
 40
1.048999999911072
 50
39.6952125853765665
 51
238.3782719273119994
  0
ENDSEC
  0
EOF
