  0
SECTION
  2
HEADER
  9
$ACADVER
  1
AC1009
  9
$INSBASE
 10
487.5629991495180207
 20
-7.1470857452228422
 30
0.0
  9
$EXTMIN
 10
480.460296747699374
 20
-7.1481734799679693
 30
-0.000000000000013
  9
$EXTMAX
 10
489.4596379808392044
 20
1.386807294315495
 30
0.0000000000000023
  9
$LIMMIN
 10
0.0
 20
0.0
  9
$LIMMAX
 10
11.6929133858000007
 20
8.2677165353999982
  9
$ORTHOMODE
 70
     0
  9
$REGENMODE
 70
     1
  9
$FILLMODE
 70
     1
  9
$QTEXTMODE
 70
     0
  9
$MIRRTEXT
 70
     0
  9
$DRAGMODE
 70
     2
  9
$LTSCALE
 40
0.6431102362
  9
$OSMODE
 70
  4095
  9
$ATTMODE
 70
     1
  9
$TEXTSIZE
 40
0.2
  9
$TRACEWID
 40
0.05
  9
$TEXTSTYLE
  7
STANDARD
  9
$CLAYER
  8
DEFPOINT
  9
$CELTYPE
  6
BYLAYER
  9
$CECOLOR
 62
   256
  9
$DIMSCALE
 40
1.0
  9
$DIMASZ
 40
0.1875
  9
$DIMEXO
 40
0.0625
  9
$DIMDLI
 40
0.4443307087
  9
$DIMRND
 40
0.0
  9
$DIMDLE
 40
0.0
  9
$DIMEXE
 40
0.125
  9
$DIMTP
 40
0.01
  9
$DIMTM
 40
0.01
  9
$DIMTXT
 40
1.0
  9
$DIMCEN
 40
0.1052362205
  9
$DIMTSZ
 40
0.0
  9
$DIMTOL
 70
     1
  9
$DIMLIM
 70
     0
  9
$DIMTIH
 70
     1
  9
$DIMTOH
 70
     1
  9
$DIMSE1
 70
     0
  9
$DIMSE2
 70
     0
  9
$DIMTAD
 70
     0
  9
$DIMZIN
 70
     0
  9
$DIMBLK
  1

  9
$DIMASO
 70
     1
  9
$DIMSHO
 70
     1
  9
$DIMPOST
  1
\X
  9
$DIMAPOST
  1

  9
$DIMALT
 70
     1
  9
$DIMALTD
 70
     2
  9
$DIMALTF
 40
25.3999999999999986
  9
$DIMLFAC
 40
1.0
  9
$DIMTOFL
 70
     0
  9
$DIMTVP
 40
0.0
  9
$DIMTIX
 70
     0
  9
$DIMSOXD
 70
     0
  9
$DIMSAH
 70
     0
  9
$DIMBLK1
  1

  9
$DIMBLK2
  1

  9
$DIMSTYLE
  2
STANDARD
  9
$DIMCLRD
 70
     0
  9
$DIMCLRE
 70
     0
  9
$DIMCLRT
 70
     0
  9
$DIMTFAC
 40
1.0
  9
$DIMGAP
 40
0.09
  9
$LUNITS
 70
     2
  9
$LUPREC
 70
     4
  9
$SKETCHINC
 40
0.1
  9
$FILLETRAD
 40
0.0
  9
$AUNITS
 70
     0
  9
$AUPREC
 70
     0
  9
$MENU
  1
.
  9
$ELEVATION
 40
0.0
  9
$PELEVATION
 40
0.0
  9
$THICKNESS
 40
0.0
  9
$LIMCHECK
 70
     0
  9
$BLIPMODE
 70
     0
  9
$CHAMFERA
 40
0.0
  9
$CHAMFERB
 40
0.0
  9
$SKPOLY
 70
     0
  9
$TDCREATE
 40
2458306.6094560190103948
  9
$TDUPDATE
 40
2459068.7252662042155862
  9
$TDINDWG
 40
0.0731571759
  9
$TDUSRTIMER
 40
0.0731570486
  9
$USRTIMER
 70
     1
  9
$ANGBASE
 50
0.0
  9
$ANGDIR
 70
     0
  9
$PDMODE
 70
     0
  9
$PDSIZE
 40
0.3125
  9
$PLINEWID
 40
0.0
  9
$COORDS
 70
     1
  9
$SPLFRAME
 70
     0
  9
$SPLINETYPE
 70
     6
  9
$SPLINESEGS
 70
     8
  9
$ATTDIA
 70
     1
  9
$ATTREQ
 70
     1
  9
$HANDLING
 70
     1
  9
$HANDSEED
  5
281D
  9
$SURFTAB1
 70
     6
  9
$SURFTAB2
 70
     6
  9
$SURFTYPE
 70
     6
  9
$SURFU
 70
     6
  9
$SURFV
 70
     6
  9
$UCSNAME
  2

  9
$UCSORG
 10
0.0
 20
0.0
 30
0.0
  9
$UCSXDIR
 10
1.0
 20
0.0
 30
0.0
  9
$UCSYDIR
 10
0.0
 20
1.0
 30
0.0
  9
$PUCSNAME
  2

  9
$PUCSORG
 10
0.0
 20
0.0
 30
0.0
  9
$PUCSXDIR
 10
1.0
 20
0.0
 30
0.0
  9
$PUCSYDIR
 10
0.0
 20
1.0
 30
0.0
  9
$USERI1
 70
     0
  9
$USERI2
 70
     0
  9
$USERI3
 70
     0
  9
$USERI4
 70
     0
  9
$USERI5
 70
     0
  9
$USERR1
 40
0.0
  9
$USERR2
 40
0.0
  9
$USERR3
 40
0.0
  9
$USERR4
 40
0.0
  9
$USERR5
 40
0.0
  9
$WORLDVIEW
 70
     1
  9
$SHADEDGE
 70
     3
  9
$SHADEDIF
 70
    70
  9
$TILEMODE
 70
     1
  9
$MAXACTVP
 70
    64
  9
$PLIMCHECK
 70
     0
  9
$PEXTMIN
 10
1.0000000000000000E+20
 20
1.0000000000000000E+20
 30
1.0000000000000000E+20
  9
$PEXTMAX
 10
-1.0000000000000000E+20
 20
-1.0000000000000000E+20
 30
-1.0000000000000000E+20
  9
$PLIMMIN
 10
0.0
 20
0.0
  9
$PLIMMAX
 10
12.0
 20
9.0
  9
$UNITMODE
 70
     0
  9
$VISRETAIN
 70
     1
  9
$PLINEGEN
 70
     0
  9
$PSLTSCALE
 70
     1
  0
ENDSEC
  0
SECTION
  2
TABLES
  0
TABLE
  2
VPORT
 70
     1
  0
VPORT
  2
*ACTIVE
 70
     0
 10
0.0
 20
0.0
 11
1.0
 21
1.0
 12
143.3526811434084891
 22
6.0892540011642566
 13
0.0
 23
0.0
 14
1.0
 24
1.0
 15
0.0
 25
0.0
 16
0.0
 26
0.0
 36
57.1721640433716018
 17
341.6072862208607717
 27
-8.9699370939904934
 37
0.0
 40
8.5884357686944277
 41
2.005224660397074
 42
50.0
 43
0.0
 44
0.0
 50
0.0
 51
0.0
 71
     0
 72
   100
 73
     1
 74
     1
 75
     0
 76
     0
 77
     0
 78
     0
  0
ENDTAB
  0
TABLE
  2
LTYPE
 70
     1
  0
LTYPE
  2
CONTINUOUS
 70
     0
  3
Solid line
 72
    65
 73
     0
 40
0.0
  0
ENDTAB
  0
TABLE
  2
LAYER
 70
     2
  0
LAYER
  2
0
 70
     0
 62
   255
  6
CONTINUOUS
  0
LAYER
  2
DEFPOINT
 70
     0
 62
     7
  6
CONTINUOUS
  0
ENDTAB
  0
TABLE
  2
STYLE
 70
     1
  0
STYLE
  2
STANDARD
 70
     0
 40
0.0
 41
0.8
 50
0.0
 71
     0
 42
0.2
  3
txt
  4

  0
ENDTAB
  0
TABLE
  2
VIEW
 70
     0
  0
ENDTAB
  0
TABLE
  2
UCS
 70
     0
  0
ENDTAB
  0
TABLE
  2
APPID
 70
    10
  0
APPID
  2
ACAD
 70
     0
  0
APPID
  2
ACADANNOTATIVE
 70
     0
  0
APPID
  2
ACAD_MLEADERVER
 70
     0
  0
APPID
  2
ACAD_EXEMPT_FROM_CAD_STANDARDS
 70
     0
  0
APPID
  2
ACAD_DSTYLE_DIMJAG
 70
     0
  0
APPID
  2
ACAD_DSTYLE_DIMTALN
 70
     0
  0
APPID
  2
ACAD_NAV_VCDISPLAY
 70
     0
  0
APPID
  2
ACAECLAYERSTANDARD
 70
     0
  0
APPID
  2
ACCMTRANSPARENCY
 70
     0
  0
APPID
  2
ACDBATTR
 70
     0
  0
ENDTAB
  0
TABLE
  2
DIMSTYLE
 70
     1
  0
DIMSTYLE
  2
STANDARD
 70
     0
  3

  4

  5

  6

  7

 40
1.0
 41
0.1875
 42
0.0625
 43
0.38
 44
0.125
 45
0.0
 46
0.0
 47
0.01
 48
0.01
140
0.15625
141
0.09
142
0.0
143
25.3999999999999986
144
1.0
145
0.0
146
1.0
147
0.09
 71
     1
 72
     0
 73
     1
 74
     1
 75
     0
 76
     0
 77
     0
 78
     4
170
     0
171
     2
172
     0
173
     0
174
     0
175
     0
176
     0
177
     0
178
     0
  0
ENDTAB
  0
ENDSEC
  0
SECTION
  2
BLOCKS
  0
BLOCK
  8
0
  2
$MODEL_SPACE
 70
     0
 10
0.0
 20
0.0
 30
0.0
  3
$MODEL_SPACE
  1

  0
ENDBLK
  5
1598
  8
0
  0
BLOCK
 67
     1
  8
0
  2
$PAPER_SPACE
 70
     0
 10
0.0
 20
0.0
 30
0.0
  3
$PAPER_SPACE
  1

  0
ENDBLK
  5
1594
 67
     1
  8
0
  0
ENDSEC
  0
SECTION
  2
ENTITIES
  0
ATTDEF
  5
659
  8
DEFPOINT
 10
487.56000316781018
 20
-7.1421865760785659
 30
0.0
 40
0.001
  1
K-72760T-ND
  3

  2
MODELNUMBER
 70
     0
1001
ACDBATTR
1070
     0
1070
     1
  0
ATTDEF
  5
65A
  8
DEFPOINT
 10
487.56000316781018
 20
-7.143853242745231
 30
0.0
 40
0.001
  1
ARTIFACTS
  3

  2
TRADENAME
 70
     0
1001
ACDBATTR
1070
     0
1070
     1
  0
ATTDEF
  5
65B
  8
DEFPOINT
 10
487.56000316781018
 20
-7.1455199094118953
 30
0.0
 40
0.001
  1
BATHROOM SINK SPOUT
  3

  2
PRODUCT
 70
     0
1001
ACDBATTR
1070
     0
1070
     1
  0
LINE
  5
261B
  8
0
 10
480.4783557657494271
 20
-1.392379700825934
 30
0.0
 11
480.4976459911534903
 21
-1.3510116790749711
 31
0.0
  0
LINE
  5
261C
  8
0
 10
480.7644108000287133
 20
-1.275865046287556
 30
0.0
 11
480.8070832049025967
 21
-1.1848220846914219
 31
0.0
  0
LINE
  5
261D
  8
0
 10
481.444118648599499
 20
-1.592818021343809
 30
0.0
 11
481.4868060518028869
 21
-1.5017820536635069
 31
0.0
  0
LINE
  5
261E
  8
0
 10
481.5389423680584855
 20
-1.8864002447702211
 30
0.0
 11
481.5578005854367234
 21
-1.845958667105797
 31
0.0
  0
LINE
  5
261F
  8
0
 10
486.2134121641774982
 20
-7.1470857452228422
 30
0.0
 11
488.9125861348583726
 21
-7.1470857452228422
 31
0.0
  0
LINE
  5
2620
  8
0
 10
488.4134724628584081
 20
-6.6670857102228416
 30
0.0
 11
486.7125258361775764
 21
-6.6670857102228416
 31
0.0
  0
LINE
  5
2621
  8
0
 10
488.4134724628584081
 20
-6.567085710222841
 30
0.0
 11
486.7125258361775764
 21
-6.567085710222841
 31
0.0
  0
LINE
  5
2622
  8
0
 10
488.2480036921746773
 20
-6.4009659427228414
 30
0.0
 11
486.8779946068776212
 21
-6.4009659427228414
 31
0.0
  0
LINE
  5
2623
  8
0
 10
488.187754591662781
 20
-6.2773442566228432
 30
0.0
 11
486.9319574114775833
 21
-6.2773442566228432
 31
0.0
  0
LINE
  5
2624
  8
0
 10
487.0224063849776144
 20
-5.3794234248228392
 30
0.0
 11
488.1033839736775235
 21
-5.3794464192228411
 31
0.0
  0
LINE
  5
2625
  8
0
 10
486.9669294420775145
 20
-5.2773734273228392
 30
0.0
 11
488.1602521128456829
 21
-5.2773733743069702
 31
0.0
  0
LINE
  5
2626
  8
0
 10
486.9669642658777207
 20
-5.1015644536228422
 30
0.0
 11
488.1598600623775042
 21
-5.1015644536228422
 31
0.0
  0
LINE
  5
2627
  8
0
 10
488.1033839736775235
 20
-4.9994464192228421
 30
0.0
 11
487.0181324785013999
 21
-4.9994464192228421
 31
0.0
  0
LINE
  5
2628
  8
0
 10
486.8837121641774957
 20
-5.2363466531204059
 30
0.0
 11
486.8837121641774957
 21
-5.1399699968173813
 31
0.0
  0
LINE
  5
2629
  8
0
 10
486.8924990349776181
 20
-5.1601666432243682
 30
0.0
 11
486.8924990349776181
 21
-5.2189318188213027
 31
0.0
  0
LINE
  5
262A
  8
0
 10
486.901956573777511
 20
-6.3069945991293439
 30
0.0
 11
486.901956573777511
 21
-6.3715798509803871
 31
0.0
  0
LINE
  5
262B
  8
0
 10
486.9934263378775086
 20
-2.069498694269285
 30
0.0
 11
486.9934263378775086
 21
-2.1116023955079291
 31
0.0
  0
LINE
  5
262C
  8
0
 10
486.9934263378776222
 20
-5.0209094087518187
 30
0.0
 11
486.9934263378775086
 21
-5.071773799624375
 31
0.0
  0
LINE
  5
262D
  8
0
 10
486.9934263378775086
 20
-5.3071477171206576
 30
0.0
 11
486.9934263378775086
 21
-5.3496510659281462
 31
0.0
  0
LINE
  5
262E
  8
0
 10
486.9940012526774922
 20
-1.690400496022842
 30
0.0
 11
486.9940012526774922
 21
-1.651896048024319
 31
0.0
  0
LINE
  5
262F
  8
0
 10
487.0627755768775842
 20
-5.4094464192224576
 30
0.0
 11
487.0627755768775842
 21
-6.1523442566236621
 31
0.0
  0
LINE
  5
2630
  8
0
 10
487.0632448308878111
 20
-0.3645830902214655
 30
0.0
 11
487.0629339309775219
 21
-1.386848365222842
 31
0.0
  0
LINE
  5
2631
  8
0
 10
487.3090287677775905
 20
0.9180296712771571
 30
0.0
 11
487.3090287677775905
 21
0.798106653681053
 31
0.0
  0
LINE
  5
2632
  8
0
 10
487.3131308573775868
 20
0.9180198333771585
 30
0.0
 11
487.3131308573775868
 21
0.7981060091771575
 31
0.0
  0
LINE
  5
2633
  8
0
 10
481.2206281465843745
 20
-1.987842972706523
 30
0.0
 11
480.5983389190770936
 21
-1.6976647403308429
 31
0.0
  0
LINE
  5
2634
  8
0
 10
487.8136936365775114
 20
0.7981046591771594
 30
0.0
 11
487.8136936365775114
 21
0.9180302091771572
 31
0.0
  0
LINE
  5
2635
  8
0
 10
481.4891906903625909
 20
-1.6138354595839279
 30
0.0
 11
480.7261158910399104
 21
-1.2580078369600249
 31
0.0
  0
LINE
  5
2636
  8
0
 10
488.234325322977611
 20
-5.2189911867417962
 30
0.0
 11
488.234325322977611
 21
-5.1601072753067374
 31
0.0
  0
LINE
  5
2637
  8
0
 10
488.5433827263776152
 20
-0.5445238190228423
 30
0.0
 11
488.5445066414793018
 21
-1.206238548010848
 31
0.0
  0
LINE
  5
2638
  8
0
 10
487.0134031686775984
 20
-2.1406750726228401
 30
0.0
 11
488.1134206316775135
 21
-2.1406730044228399
 31
0.0
  0
LINE
  5
2639
  8
0
 10
489.3285679945774973
 20
-0.6312336479228406
 30
0.0
 11
489.3293928288775874
 21
-1.1168619702228391
 31
0.0
  0
LINE
  5
263A
  8
0
 10
486.9713332206396217
 20
-2.0406058652967469
 30
0.0
 11
488.1557309505890885
 21
-2.04060709249709
 31
0.0
  0
LINE
  5
263B
  8
0
 10
488.1333973023774888
 20
-1.720400796322842
 30
0.0
 11
486.9934121531775872
 21
-1.720400796322842
 31
0.0
  0
LINE
  5
263C
  8
0
 10
488.1036268970318019
 20
-1.6218957430228429
 30
0.0
 11
487.0240085117741273
 21
-1.6218957430228429
 31
0.0
  0
LINE
  5
263D
  8
0
 10
487.0449858934766212
 20
-1.390622638022843
 30
0.0
 11
486.9560644227775015
 21
-1.3906065695228409
 31
0.0
  0
LINE
  5
263E
  8
0
 10
481.882890102389581
 20
-1.2506226380228429
 30
0.0
 11
485.2447623794308242
 21
-1.2506226380228389
 31
0.0
  0
LINE
  5
263F
  8
0
 10
489.1634677062913283
 20
-1.1787013084701741
 30
0.0
 11
489.2776571477373864
 21
-1.178699862367196
 31
0.0
  0
LINE
  5
2640
  8
0
 10
486.4890189931127225
 20
-1.295247460208226
 30
0.0
 11
485.5447593591201212
 21
-1.2386820559037759
 31
0.0
  0
LINE
  5
2641
  8
0
 10
486.4890188502557749
 20
-0.4559974926911963
 30
0.0
 11
485.5447591641283225
 21
-0.5125632319227976
 31
0.0
  0
LINE
  5
2642
  8
0
 10
489.2776465793864986
 20
-0.5733445261819661
 30
0.0
 11
489.1634601079206277
 21
-0.5733459722720227
 31
0.0
  0
LINE
  5
2643
  8
0
 10
489.1613170563541075
 20
-0.5596807502745982
 30
0.0
 11
489.2792994301228759
 21
-0.5596792579261169
 31
0.0
  0
LINE
  5
2644
  8
0
 10
488.5134119645774717
 20
-0.515622638022844
 30
0.0
 11
488.4648524951808213
 21
-0.515622638022844
 31
0.0
  0
LINE
  5
2645
  8
0
 10
487.0449858933776
 20
-0.3606226380228428
 30
0.0
 11
486.9560644227775015
 21
-0.3606387065228418
 31
0.0
  0
LINE
  5
2646
  8
0
 10
487.933475194977575
 20
0.0465324632771562
 30
0.0
 11
487.1909292301775736
 21
0.0467717809771529
 31
0.0
  0
LINE
  5
2647
  8
0
 10
487.4261701495775014
 20
0.7685312589771592
 30
0.0
 11
487.481173106077506
 21
0.7685324632771576
 31
0.0
  0
LINE
  5
2648
  8
0
 10
487.7006416010775069
 20
0.7685324632771576
 30
0.0
 11
487.6456499199774726
 21
0.7685324632771576
 31
0.0
  0
LINE
  5
2649
  8
0
 10
487.3795047050568883
 20
0.9605734742771581
 30
0.0
 11
487.7473228055059167
 21
0.9605734742771581
 31
0.0
  0
ARC
  5
264A
  8
0
 10
481.8810647650954024
 20
-1.685631835431092
 30
0.0
 40
1.1850091974622039
 50
89.895128454215893
 51
154.9998280265286894
  0
ARC
  5
264B
  8
0
 10
481.8810524186774842
 20
-1.68562100792284
 30
0.0
 40
0.4350022516
 50
89.7579510598416732
 51
155.0001367794997122
  0
ARC
  5
264C
  8
0
 10
480.7142825797317869
 20
-1.283384454956205
 30
0.0
 40
0.028
 50
65.0000000027995952
 51
148.277326336156591
  0
ARC
  5
264D
  8
0
 10
481.4688949657362969
 20
-1.6363547727055019
 30
0.0
 40
0.0303156049187122
 50
339.3253179527209795
 51
47.9729712727054789
  0
ARC
  5
264E
  8
0
 10
480.4953037214276037
 20
-1.400282662372845
 30
0.0
 40
0.0187
 50
154.9999999330040907
 51
226.5723160700092933
  0
ARC
  5
264F
  8
0
 10
481.5212059573303804
 20
-1.8783991766389501
 30
0.0
 40
0.0194575783885936
 50
260.0727993947191976
 51
335.7193992831972764
  0
ARC
  5
2650
  8
0
 10
480.5147032562418872
 20
-1.358639955237926
 30
0.0
 40
0.0186853121329512
 50
84.6026746976815645
 51
155.9050585991122091
  0
ARC
  5
2651
  8
0
 10
481.5402009143766122
 20
-1.83745741374517
 30
0.0
 40
0.0195453250194135
 50
334.2178412870351281
 51
46.8998509491486217
  0
ARC
  5
2652
  8
0
 10
486.7125258361775764
 20
-6.6170857102228409
 30
0.0
 40
0.05
 50
90.0
 51
270.0
  0
ARC
  5
2653
  8
0
 10
486.8189873663775984
 20
-1.4202960906228439
 30
0.0
 40
0.1284910091
 50
18.4338837980995507
 51
93.3269669004992153
  0
ARC
  5
2654
  8
0
 10
486.8189873663775984
 20
-0.3309491855228437
 30
0.0
 40
0.1284910091
 50
266.6730330995007989
 51
341.5661162019002859
  0
ARC
  5
2655
  8
0
 10
486.9560644227775015
 20
-1.3746065695228431
 30
0.0
 40
0.016
 50
198.433883798000295
 51
270.0
  0
ARC
  5
2656
  8
0
 10
486.9560644227775015
 20
-0.3766387065228436
 30
0.0
 40
0.016
 50
90.0
 51
161.566116201999705
  0
ARC
  5
2657
  8
0
 10
487.068006195424914
 20
-1.3954898434777581
 30
0.0
 40
0.0100201303910848
 50
24.9167070103167596
 51
120.4115370629518935
  0
ARC
  5
2658
  8
0
 10
486.8093274069732956
 20
-0.2712105081084957
 30
0.0
 40
0.1880260370154477
 50
226.7319571413526091
 51
270.6713572721507717
  0
ARC
  5
2659
  8
0
 10
487.0482010944592162
 20
-0.389869509134968
 30
0.0
 40
0.029423068963024
 50
59.2500666476228517
 51
96.2735146360881942
  0
ARC
  5
265A
  8
0
 10
487.0684079884874791
 20
-0.3559046840097757
 30
0.0
 40
0.010098164722855
 50
239.2500666476339006
 51
333.2462939535271857
  0
ARC
  5
265B
  8
0
 10
487.1009984201249949
 20
-0.3723342575602331
 30
0.0
 40
0.0263993300044776
 50
127.8332534044174054
 51
153.2462939535269015
  0
ARC
  5
265C
  8
0
 10
487.5570208556376883
 20
-0.8674761041707412
 30
0.0
 40
0.6994531062551986
 50
124.1020480130486021
 51
132.463479998002299
  0
ARC
  5
265D
  8
0
 10
487.1071701750395846
 20
-0.1807997070931897
 30
0.0
 40
0.1220021648381223
 50
298.2197585905082065
 51
8.1969999631618897
  0
ARC
  5
265E
  8
0
 10
487.0524050322878225
 20
-0.2128354943398705
 30
0.0
 40
0.1823484570213042
 50
15.7283746060251897
 51
55.414618279758173
  0
ARC
  5
265F
  8
0
 10
487.1935552756989978
 20
-0.0144096618403467
 30
0.0
 40
0.0612377747825001
 50
92.4577555050531004
 51
232.0695768436841888
  0
ARC
  5
2660
  8
0
 10
480.5688882270334261
 20
-1.1918020516789161
 30
0.0
 40
0.1438349908810612
 50
288.7008060521014841
 51
327.6994318699677251
  0
ARC
  5
2661
  8
0
 10
480.5350433786759936
 20
-1.0818902065235669
 30
0.0
 40
0.2588152421178085
 50
265.8827060099354753
 51
287.9962346178796224
  0
ARC
  5
2662
  8
0
 10
480.3136623967064907
 20
-1.592365728950621
 30
0.0
 40
0.2456661789854374
 50
5.1193951806718117
 51
46.6025481647573727
  0
ARC
  5
2663
  8
0
 10
481.0323624836995009
 20
-1.5217171021075511
 30
0.0
 40
0.4765118419338114
 50
185.8692505471989875
 51
194.8398122988207035
  0
ARC
  5
2664
  8
0
 10
480.7795730906244103
 20
-1.5747378367506351
 30
0.0
 40
0.218990521621928
 50
198.3719159859201113
 51
214.1481277168350914
  0
ARC
  5
2665
  8
0
 10
481.2338508990841888
 20
-1.862538138043937
 30
0.0
 40
0.1260005665601616
 50
263.976174579210408
 51
301.2525899298594254
  0
ARC
  5
2666
  8
0
 10
483.4152341232227172
 20
-5.5727497628663079
 30
0.0
 40
4.1779757198471943
 50
119.2691876903652002
 51
120.4288758703357018
  0
ARC
  5
2667
  8
0
 10
481.4893429899299235
 20
-2.12240403617061
 30
0.0
 40
0.2266387802113399
 50
82.7737091383445431
 51
121.0146273924518994
  0
ARC
  5
2668
  8
0
 10
481.6283104444377159
 20
-1.6902551679320399
 30
0.0
 40
0.1379879314571677
 50
161.75686510043721
 51
204.2758899432920998
  0
ARC
  5
2669
  8
0
 10
481.7431117799038134
 20
-1.641050404959091
 30
0.0
 40
0.2628781635610866
 50
203.7648934524393951
 51
223.8563327764395865
  0
ARC
  5
266A
  8
0
 10
486.8093201358096849
 20
-1.480016754703477
 30
0.0
 40
0.1880081102612895
 50
89.3263626719501787
 51
133.2700752645745865
  0
ARC
  5
266B
  8
0
 10
487.04814896206301
 20
-1.361102323791936
 30
0.0
 40
0.0296892902435774
 50
263.8841553058750264
 51
299.8671066961458109
  0
ARC
  5
266C
  8
0
 10
487.1024168423937226
 20
-1.3789628663615581
 30
0.0
 40
0.0281547246985036
 50
205.9168759653346115
 51
227.7622838737927964
  0
ARC
  5
266D
  8
0
 10
487.0052201758580281
 20
-1.4996713382548881
 30
0.0
 40
0.1268822172644322
 50
285.5727694488853103
 51
51.9115028015422126
  0
ARC
  5
266E
  8
0
 10
487.020714051087225
 20
-1.6505035725218811
 30
0.0
 40
0.0287968987893892
 50
83.4307896140377636
 51
132.3309149499472994
  0
ARC
  5
266F
  8
0
 10
487.0235865273052127
 20
-1.6489231355374121
 30
0.0
 40
0.0297342678308433
 50
138.4854296935895093
 51
185.7381744741095133
  0
ARC
  5
2670
  8
0
 10
487.0337807581897209
 20
-1.6924869052214111
 30
0.0
 40
0.0398341833370854
 50
176.9976247152054896
 51
196.566215500716396
  0
ARC
  5
2671
  8
0
 10
487.0200209689735971
 20
-1.694316669335691
 30
0.0
 40
0.0262137666359281
 50
201.3133829251258931
 51
264.2993945449762805
  0
ARC
  5
2672
  8
0
 10
486.9931758453615771
 20
-1.807231670829015
 30
0.0
 40
0.086831196058162
 50
89.8440715106584946
 51
146.4774262813699863
  0
ARC
  5
2673
  8
0
 10
487.0958185370458864
 20
-1.875227557696675
 30
0.0
 40
0.2099529357595508
 50
146.4774262813699863
 51
181.8278495573032956
  0
ARC
  5
2674
  8
0
 10
487.0974994896234875
 20
-1.8890074249783839
 30
0.0
 40
0.2116456160123098
 50
178.0821396123602938
 51
211.6790123709982936
  0
ARC
  5
2675
  8
0
 10
486.9978986880631169
 20
-1.948982475410439
 30
0.0
 40
0.0953969057867631
 50
212.4402243777491037
 51
255.3064451723618049
  0
ARC
  5
2676
  8
0
 10
486.9689041849296132
 20
-2.0656188653124401
 30
0.0
 40
0.0248271838505238
 50
351.0093420343080197
 51
78.8591180554171842
  0
ARC
  5
2677
  8
0
 10
487.0244134329586814
 20
-2.1142352065917609
 30
0.0
 40
0.0310987420286625
 50
175.1435417303869997
 51
210.4533088895356059
  0
ARC
  5
2678
  8
0
 10
487.0180747904582859
 20
-2.1167375056315301
 30
0.0
 40
0.0243891607794524
 50
212.9338486594641893
 51
258.9570376737236757
  0
ARC
  5
2679
  8
0
 10
487.0130578689845038
 20
-2.1678451965960508
 30
0.0
 40
0.0271723180571193
 50
51.3402944335340976
 51
89.2718785506830841
  0
ARC
  5
267A
  8
0
 10
487.0128713024624858
 20
-2.1642447290664282
 30
0.0
 40
0.0245942466903059
 50
1.165744179129208
 51
45.7522430560270479
  0
ARC
  5
267B
  8
0
 10
486.9324834321466255
 20
-2.1658805323643442
 30
0.0
 40
0.1049987586677866
 50
356.5170066032828231
 51
1.165744179129208
  0
ARC
  5
267C
  8
0
 10
486.7161782973470849
 20
-2.1527151865327769
 30
0.0
 40
0.321704175470189
 50
327.7311154358183103
 51
356.5170066032828231
  0
ARC
  5
267D
  8
0
 10
487.3643634441838799
 20
-2.561988310029089
 30
0.0
 40
0.4448781581353764
 50
147.7311154358181966
 51
174.2364978179720083
  0
ARC
  5
267E
  8
0
 10
491.3004715027562952
 20
-2.9592705513829891
 30
0.0
 40
4.4009848083730123
 50
174.2364978179720083
 51
188.566180660119187
  0
ARC
  5
267F
  8
0
 10
288.6161773635325858
 20
-23.17602881140877
 30
0.0
 40
199.2947169814731012
 50
5.3448626213018962
 51
5.6327784991013532
  0
ARC
  5
2680
  8
0
 10
481.7893699755459807
 20
-5.0597740489937664
 30
0.0
 40
5.2740738104711458
 50
0.8901652036890009
 51
4.873779801861617
  0
ARC
  5
2681
  8
0
 10
487.0374868397590262
 20
-4.97388488023969
 30
0.0
 40
0.0256271194854675
 50
274.0998480452744843
 51
351.1271132891084221
  0
ARC
  5
2682
  8
0
 10
487.0180127414262188
 20
-5.0242597570990402
 30
0.0
 40
0.0248136267704915
 50
89.7235206384811477
 51
172.2401945690089065
  0
ARC
  5
2683
  8
0
 10
486.9677651725418741
 20
-5.0756278457752551
 30
0.0
 40
0.0259489706563618
 50
271.7686967696780016
 51
8.5414026360305133
  0
ARC
  5
2684
  8
0
 10
486.9980023210287072
 20
-5.4174966887207061
 30
0.0
 40
0.3174532060658682
 50
95.6108903838134552
 51
106.8835879078135065
  0
ARC
  5
2685
  8
0
 10
486.9094063177985277
 20
-5.1391795224184849
 30
0.0
 40
0.0257063101215202
 50
98.0533547884232775
 51
181.7621349522958951
  0
ARC
  5
2686
  8
0
 10
486.9094550804022106
 20
-5.2395895686060916
 30
0.0
 40
0.0259463723202935
 50
172.8200923286908903
 51
262.098960520577009
  0
ARC
  5
2687
  8
0
 10
486.9979498454553095
 20
-4.9604590467740008
 30
0.0
 40
0.3184289403059466
 50
253.1952390736051086
 51
264.4095488178875257
  0
ARC
  5
2688
  8
0
 10
486.9673275216559887
 20
-5.303696440977248
 30
0.0
 40
0.0263260235356739
 50
352.4669821655566011
 51
89.1335943702563753
  0
ARC
  5
2689
  8
0
 10
487.019450138443915
 20
-5.3533104090222423
 30
0.0
 40
0.0262798209234734
 50
171.9958192217291071
 51
276.4589378383304847
  0
ARC
  5
268A
  8
0
 10
487.037276053129915
 20
-5.40525920230965
 30
0.0
 40
0.0258410235252939
 50
350.6748155275197973
 51
88.8099513379238346
  0
ARC
  5
268B
  8
0
 10
486.9561163578568994
 20
-6.1693645978971601
 30
0.0
 40
0.1080087080710765
 50
271.3288811865439811
 51
9.0666353419603123
  0
ARC
  5
268C
  8
0
 10
486.929982115898099
 20
-6.3039935924266821
 30
0.0
 40
0.0281857597443113
 50
133.9071494459568044
 51
186.1120069445281899
  0
ARC
  5
268D
  8
0
 10
486.8765777662936216
 20
-6.3753480614272986
 30
0.0
 40
0.0256570317704068
 50
273.1656156294033053
 51
8.4454964225701499
  0
ARC
  5
268E
  8
0
 10
486.91247028981428
 20
-6.568730496903
 30
0.0
 40
0.1712703078595967
 50
101.6126380129275049
 51
170.953939893923291
  0
ARC
  5
268F
  8
0
 10
486.7177562892039191
 20
-6.5415103517866324
 30
0.0
 40
0.0255755699033877
 50
270.2329952014388255
 51
359.3467598832273211
  0
ARC
  5
2690
  8
0
 10
486.7356063875790255
 20
-6.6921812954919684
 30
0.0
 40
0.0253532328742962
 50
81.6479619143198505
 51
81.8247228199336689
  0
ARC
  5
2691
  8
0
 10
486.7356063875790255
 20
-6.6921812954919684
 30
0.0
 40
0.0253532328742962
 50
98.1752771800663453
 51
172.8479783255694997
  0
ARC
  5
2692
  8
0
 10
486.5834722516672741
 20
-6.6356456278704652
 30
0.0
 40
0.1377417393606907
 50
290.4331039969516155
 51
337.1990713608763031
  0
ARC
  5
2693
  8
0
 10
489.0371707612529235
 20
-13.0611792507112394
 30
0.0
 40
6.7403526890394287
 50
110.9097461020443944
 51
113.167144303569998
  0
ARC
  5
2694
  8
0
 10
486.5070561098860935
 20
-7.132048870811019
 30
0.0
 40
0.2940286966324583
 50
114.4374799706695995
 51
182.9314330224655976
  0
ARC
  5
2695
  8
0
 10
486.9154434683825912
 20
-5.1531696946100922
 30
0.0
 40
0.0239875866683035
 50
118.5346091890817064
 51
196.9591845977317917
  0
ARC
  5
2696
  8
0
 10
487.0971301048754754
 20
-6.1387277223823382
 30
0.0
 40
1.0249939970808011
 50
79.1389392246639005
 51
100.8614957659995071
  0
ARC
  5
2697
  8
0
 10
487.5634324576486733
 20
-7.1548932417264011
 30
0.0
 40
2.0411599521017689
 50
82.3095255156166843
 51
97.6908652057676079
  0
ARC
  5
2698
  8
0
 10
488.0296975895803939
 20
-6.1385969428532361
 30
0.0
 40
1.0248629753736469
 50
79.731091536982106
 51
100.8611325898067008
  0
ARC
  5
2699
  8
0
 10
488.2091100526296259
 20
-5.1555603896057303
 30
0.0
 40
0.0256219442718908
 50
349.7781180375421854
 51
82.6268171965576954
  0
ARC
  5
269A
  8
0
 10
486.9154434683825912
 20
-5.2259287674355859
 30
0.0
 40
0.0239875866683035
 50
163.0408154022464089
 51
241.4653908109181941
  0
ARC
  5
269B
  8
0
 10
487.0971301048754754
 20
-4.2403707396633443
 30
0.0
 40
1.0249939970808011
 50
259.1385042340003793
 51
280.8610607753361137
  0
ARC
  5
269C
  8
0
 10
487.5634324576486733
 20
-3.2242052203192801
 30
0.0
 40
2.0411599521017689
 50
262.3091347942324205
 51
277.6904744843832873
  0
ARC
  5
269D
  8
0
 10
488.0296975895803939
 20
-4.240501519192442
 30
0.0
 40
1.0248629753736469
 50
259.1388674101931997
 51
280.862706111120815
  0
ARC
  5
269E
  8
0
 10
488.2154995196033269
 20
-5.2295039675720849
 30
0.0
 40
0.0189738090292606
 50
292.7582451919665232
 51
347.0511577207317941
  0
ARC
  5
269F
  8
0
 10
488.1920161847193071
 20
-5.2254186883799738
 30
0.0
 40
0.0427945785992575
 50
348.766188421184097
 51
8.6381865045859296
  0
LINE
  5
26A0
  8
0
 10
487.2902677176996917
 20
-5.1320944442893568
 30
0.0
 11
487.2902677176996917
 21
-5.2470040177563231
 31
0.0
  0
LINE
  5
26A1
  8
0
 10
487.8365834033684223
 20
-5.132092581523696
 30
0.0
 11
487.8365834033683086
 21
-5.2470058805219706
 31
0.0
  0
LINE
  5
26A2
  8
0
 10
488.2425649931271892
 20
-5.2364495136923006
 30
0.0
 11
488.242576120920603
 21
-5.1400569638014337
 31
0.0
  0
LINE
  5
26A3
  8
0
 10
488.133330260081209
 20
-2.069584981148068
 30
0.0
 11
488.1333238858650816
 21
-2.111688681904198
 31
0.0
  0
LINE
  5
26A4
  8
0
 10
488.1328821439827834
 20
-5.029532672184188
 30
0.0
 11
488.1328757359033261
 21
-5.0718600520974197
 31
0.0
  0
LINE
  5
26A5
  8
0
 10
488.1328401018815839
 20
-5.3072339668982913
 30
0.0
 11
488.1328336981437133
 21
-5.3495326685135502
 31
0.0
  0
LINE
  5
26A6
  8
0
 10
488.1328127381951276
 20
-1.6904867002143931
 30
0.0
 11
488.1328185675084796
 21
-1.6519822526506081
 31
0.0
  0
ARC
  5
26A7
  8
0
 10
488.1061059802163982
 20
-1.650585733026801
 30
0.0
 40
0.0287968987893892
 50
47.6604108558552397
 51
94.9386235043920976
  0
ARC
  5
26A8
  8
0
 10
488.1032337432989152
 20
-1.649004861186941
 30
0.0
 40
0.0297342678308433
 50
354.2531513316772021
 51
41.5058961122200216
  0
ARC
  5
26A9
  8
0
 10
488.093032917270591
 20
-1.6925670870339851
 30
0.0
 40
0.0398341833370854
 50
343.425110305075691
 51
2.9937010812339322
  0
ARC
  5
26AA
  8
0
 10
488.1067924293150782
 20
-1.69439893426647
 30
0.0
 40
0.0262137666359281
 50
275.6919312608645214
 51
338.6779428806415808
  0
ARC
  5
26AB
  8
0
 10
488.1333691323073936
 20
-1.807593933311366
 30
0.0
 40
0.087193141536961
 50
33.3686892105191504
 51
89.9814933621056952
  0
ARC
  5
26AC
  8
0
 10
488.0309674734244823
 20
-1.8752983453142411
 30
0.0
 40
0.2099529357595508
 50
358.1634762485379042
 51
33.4286798936057323
  0
ARC
  5
26AD
  8
0
 10
488.0292844346873267
 20
-1.889077957953166
 30
0.0
 40
0.2116456160123098
 50
329.561479966262425
 51
1.9091861934813801
  0
ARC
  5
26AE
  8
0
 10
488.1288761552887081
 20
-1.9490680865867021
 30
0.0
 40
0.0953969057867631
 50
283.2180110014512024
 51
330.3226919729464157
  0
ARC
  5
26AF
  8
0
 10
488.1578530001280001
 20
-2.0657088647240438
 30
0.0
 40
0.0248271838505238
 50
106.7706838845273012
 51
188.9819837715631934
  0
ARC
  5
26B0
  8
0
 10
488.1023363925493186
 20
-2.1143168017208991
 30
0.0
 40
0.0310987420286625
 50
329.5380169163070718
 51
4.8477840754462092
  0
ARC
  5
26B1
  8
0
 10
488.108988133076025
 20
-2.1171275579706581
 30
0.0
 40
0.0239590294562292
 50
280.6613225739853874
 51
327.2669388083954232
  0
ARC
  5
26B2
  8
0
 10
488.1140737031296908
 20
-2.1686269997246082
 30
0.0
 40
0.0279616229080671
 50
91.3383214859639168
 51
128.3809807821970992
  0
ARC
  5
26B3
  8
0
 10
488.1138709518093037
 20
-2.164328071023081
 30
0.0
 40
0.0245942466903059
 50
134.2390827498147132
 51
178.8255816267125908
  0
ARC
  5
26B4
  8
0
 10
488.1942585735541797
 20
-2.1659760444829921
 30
0.0
 40
0.1049987586677866
 50
178.8255816267125908
 51
183.4743192025584904
  0
ARC
  5
26B5
  8
0
 10
488.410565699019287
 20
-2.1528434459390939
 30
0.0
 40
0.321704175470189
 50
183.4743192025584904
 51
212.260210370023799
  0
ARC
  5
26B6
  8
0
 10
487.7623185984235192
 20
-2.5620184338908301
 30
0.0
 40
0.4448781581353764
 50
5.7548279878694677
 51
32.2602103700237635
  0
ARC
  5
26B7
  8
0
 10
483.8261504391099947
 20
-2.9587047705106211
 30
0.0
 40
4.4009848083730123
 50
351.4251451457287772
 51
5.7548279878694677
  0
ARC
  5
26B8
  8
0
 10
686.5073815748946799
 20
-23.2061478323484813
 30
0.0
 40
199.2947169814731012
 50
174.3585473067398084
 51
174.6464631845402096
  0
ARC
  5
26B9
  8
0
 10
493.3369338552777208
 20
-5.0606481605966769
 30
0.0
 40
5.2740738104711458
 50
175.117546003988906
 51
179.1006446183264984
  0
ARC
  5
26BA
  8
0
 10
488.0888730828161783
 20
-4.9739415366205817
 30
0.0
 40
0.0256651311091731
 50
188.7954849843054035
 51
263.5939678623141162
  0
ARC
  5
26BB
  8
0
 10
488.1040115299618947
 20
-5.047461251172634
 30
0.0
 40
0.048018932870869
 50
76.7433126882077943
 51
90.7488161017003989
  0
ARC
  5
26BC
  8
0
 10
488.0816368456206078
 20
-5.0280335345948544
 30
0.0
 40
0.0512672216697843
 50
358.3243386383015263
 51
12.5340033228006504
  0
ARC
  5
26BD
  8
0
 10
488.1095912641641235
 20
-5.0229787435366466
 30
0.0
 40
0.0229100436445288
 50
15.3669720784334096
 51
76.2853089128546031
  0
ARC
  5
26BE
  8
0
 10
488.158438443625414
 20
-5.075747025692638
 30
0.0
 40
0.0258565386281533
 50
171.3540383148663864
 51
266.8482266541677177
  0
ARC
  5
26BF
  8
0
 10
488.1244052941503924
 20
-5.4329076906332041
 30
0.0
 40
0.3332347239300466
 50
73.2413027809437409
 51
83.8924106588544589
  0
ARC
  5
26C0
  8
0
 10
488.2168892990072209
 20
-5.1392714694181629
 30
0.0
 40
0.0256988291837547
 50
358.2484601421755883
 51
81.9440498204759251
  0
ARC
  5
26C1
  8
0
 10
488.2168215862420197
 20
-5.2396885318371167
 30
0.0
 40
0.0259463723202935
 50
277.8923652852665782
 51
7.1712334771045843
  0
ARC
  5
26C2
  8
0
 10
488.1283690806793061
 20
-4.9605446156939861
 30
0.0
 40
0.3184289403059466
 50
275.5817769879540151
 51
286.7960867322373133
  0
ARC
  5
26C3
  8
0
 10
488.158939440303925
 20
-5.3037866419767923
 30
0.0
 40
0.0263260235356739
 50
89.1249150851243854
 51
187.5243436449937917
  0
ARC
  5
26C4
  8
0
 10
487.1940447970288801
 20
0.0677827876973609
 30
0.0
 40
0.0212407429296054
 50
201.0689899078151086
 51
261.5654926564560014
  0
ARC
  5
26C5
  8
0
 10
487.4211613137132986
 20
0.2233801696247077
 30
0.0
 40
0.2960120185342385
 50
128.0954306442903032
 51
213.4659491208454085
  0
ARC
  5
26C6
  8
0
 10
486.8721275465633767
 20
0.9527510360012492
 30
0.0
 40
0.6169907520075406
 50
306.4309660173202019
 51
324.8525563805638967
  0
ARC
  5
26C7
  8
0
 10
487.3252545114584109
 20
0.6850653542915417
 30
0.0
 40
0.0850636897038923
 50
343.440267060282622
 51
78.8815922720495593
  0
ARC
  5
26C8
  8
0
 10
487.1914648326156794
 20
0.7246753706402629
 30
0.0
 40
0.2245936909883984
 50
325.5297551195798178
 51
343.4823399541007234
  0
ARC
  5
26C9
  8
0
 10
487.399144719023127
 20
0.9374084763045863
 30
0.0
 40
0.1783923641426014
 50
243.180018846907501
 51
251.2010101349690103
  0
ARC
  5
26CA
  8
0
 10
487.3304421494955818
 20
0.7961867935149947
 30
0.0
 40
0.021499273933748
 50
174.8767289886444871
 51
236.7558658672363947
  0
ARC
  5
26CB
  8
0
 10
487.3309625734181054
 20
0.919849019940532
 30
0.0
 40
0.0220091312740046
 50
105.7776864392678959
 51
184.7416720926524079
  0
ARC
  5
26CC
  8
0
 10
487.5404212495927823
 20
0.4258855221662366
 30
0.0
 40
0.5583802071390674
 50
106.7517945081628028
 51
112.6956382179708953
  0
ARC
  5
26CD
  8
0
 10
487.3745509084519085
 20
0.9886655624667888
 30
0.0
 40
0.0285255240032158
 50
279.9532923488268921
 51
326.5862680134122797
  0
ARC
  5
26CE
  8
0
 10
487.3763082763430248
 20
0.9820575958724013
 30
0.0
 40
0.0238572587262936
 50
337.5761063619776223
 51
48.9401712991643834
  0
ARC
  5
26CF
  8
0
 10
487.5559231178127106
 20
1.0942532155622009
 30
0.0
 40
0.1890836414983491
 50
153.8749628680718899
 51
209.8828019870528863
  0
ARC
  5
26D0
  8
0
 10
487.8557671822758834
 20
1.008218943485321
 30
0.0
 40
0.4991933008552781
 50
135.0858155675880994
 51
160.1758365928357932
  0
ARC
  5
26D1
  8
0
 10
487.3757155116944091
 20
0.7596916117071792
 30
0.0
 40
0.1702486502078318
 50
68.4422115662324302
 51
111.5680146489614941
  0
ARC
  5
26D2
  8
0
 10
487.5634077044135779
 20
0.2556925762423923
 30
0.0
 40
0.6740557455488402
 50
79.3003964890898061
 51
100.6988297651555939
  0
ARC
  5
26D3
  8
0
 10
487.7511232032276212
 20
0.7596473114743354
 30
0.0
 40
0.1702935568326493
 50
68.4429853119865328
 51
111.5570146880137941
  0
ARC
  5
26D4
  8
0
 10
487.3757137379212168
 20
0.9564353593141206
 30
0.0
 40
0.1702486502078318
 50
248.4330184686969858
 51
291.5588215514276271
  0
ARC
  5
26D5
  8
0
 10
487.5633968428497269
 20
1.4604377790320939
 30
0.0
 40
0.6740557455488402
 50
259.3022033525006123
 51
280.7006366285702939
  0
ARC
  5
26D6
  8
0
 10
487.7511214285945016
 20
0.9564864286374331
 30
0.0
 40
0.1702935568326493
 50
248.4440184296443022
 51
291.5580478056702987
  0
ARC
  5
26D7
  8
0
 10
487.5634115130275177
 20
1.387479398425089
 30
0.0
 40
0.6243864701502507
 50
262.431539096272104
 51
277.5684609037280097
  0
ARC
  5
26D8
  8
0
 10
487.3839163596591106
 20
0.9303832138871221
 30
0.0
 40
0.1672765317390679
 50
255.3670395591103102
 51
284.6313275457069949
  0
ARC
  5
26D9
  8
0
 10
487.7429039862690843
 20
0.926462509283553
 30
0.0
 40
0.1634870289462074
 50
255.0185654330686873
 51
284.9790572811414791
  0
LINE
  5
26DA
  8
0
 10
487.8177956902487153
 20
0.9180304472355231
 30
0.0
 11
487.8177960560523161
 21
0.7981074296327364
 31
0.0
  0
ARC
  5
26DB
  8
0
 10
488.0196576347677251
 20
-0.1807983154034822
 30
0.0
 40
0.1220021648381223
 50
171.8031748073559868
 51
241.7660077093489122
  0
ARC
  5
26DC
  8
0
 10
488.074422875238497
 20
-0.2128339355987627
 30
0.0
 40
0.1823484570213042
 50
124.585556490750605
 51
164.271800164489008
  0
ARC
  5
26DD
  8
0
 10
487.9335264203307929
 20
-0.0144871184560671
 30
0.0
 40
0.0610196032348226
 50
307.7875470712734227
 51
90.0480992456624989
  0
ARC
  5
26DE
  8
0
 10
487.9327312369472907
 20
0.0678212439592088
 30
0.0
 40
0.0213017758996596
 50
272.0014446476827175
 51
338.8868211617888164
  0
ARC
  5
26DF
  8
0
 10
487.7056652632170994
 20
0.2233806035388532
 30
0.0
 40
0.2960120185342386
 50
326.5342256496497271
 51
51.9047441262292324
  0
ARC
  5
26E0
  8
0
 10
488.2546968055494858
 20
0.9527531446410861
 30
0.0
 40
0.6169907520075406
 50
215.1476183899175965
 51
233.5692087531735979
  0
ARC
  5
26E1
  8
0
 10
487.8015706571836745
 20
0.6850660807500475
 30
0.0
 40
0.0850636897038923
 50
106.2060175061618992
 51
196.5599077096802034
  0
ARC
  5
26E2
  8
0
 10
487.9353602152025928
 20
0.7246765052000157
 30
0.0
 40
0.2245936909883985
 50
196.5178348161981887
 51
214.4704196508627092
  0
ARC
  5
26E3
  8
0
 10
487.7276796798919918
 20
0.9374089773730852
 30
0.0
 40
0.1783923641426014
 50
288.796742791183874
 51
296.8201559235931768
  0
ARC
  5
26E4
  8
0
 10
487.7963826801905043
 20
0.796187504149021
 30
0.0
 40
0.021499273933748
 50
303.2443089032445869
 51
5.1234457818112258
  0
ARC
  5
26E5
  8
0
 10
487.7958618790585206
 20
0.9198497289865237
 30
0.0
 40
0.0220091312740046
 50
355.2585026965913926
 51
74.2224883310075541
  0
ARC
  5
26E6
  8
0
 10
487.5864047096318927
 20
0.4258855922983891
 30
0.0
 40
0.5583802071390676
 50
67.304536552524624
 51
73.2483802623364397
  0
ARC
  5
26E7
  8
0
 10
487.752273334112374
 20
0.988666138554059
 30
0.0
 40
0.0285255240032158
 50
213.4139067570839927
 51
260.0468824217526276
  0
ARC
  5
26E8
  8
0
 10
487.7505159863778772
 20
0.9820581665991667
 30
0.0
 40
0.0238572587262936
 50
131.0600034713546904
 51
202.4240684085189059
  0
ARC
  5
26E9
  8
0
 10
487.5709008026761921
 20
1.094253238405567
 30
0.0
 40
0.1890836414983491
 50
330.1173727834500937
 51
26.1252119024217215
  0
ARC
  5
26EA
  8
0
 10
487.2863920004044189
 20
1.0158159473969439
 30
0.0
 40
0.4821943011338545
 50
19.5929956002547598
 51
46.6215459123673028
  0
ARC
  5
26EB
  8
0
 10
487.5633213841574047
 20
-0.8756949464582213
 30
0.0
 40
0.7098933209326962
 50
31.4199505177755789
 51
55.8389254602797109
  0
ARC
  5
26EC
  8
0
 10
488.4717659137348278
 20
-0.3385482097188301
 30
0.0
 40
0.3456976808512568
 50
208.9009307043124863
 51
229.8795922133479905
  0
ARC
  5
26ED
  8
0
 10
488.3182839773426736
 20
-0.5333934025292564
 30
0.0
 40
0.0981404051656752
 50
225.0919564123919088
 51
313.1362202286096021
  0
ARC
  5
26EE
  8
0
 10
488.2666710244363912
 20
-0.4639493809550395
 30
0.0
 40
0.1843669889103606
 50
310.083698096112812
 51
337.5431636988765831
  0
ARC
  5
26EF
  8
0
 10
488.4617053777473075
 20
-0.540933727799942
 30
0.0
 40
0.0255059917239855
 50
82.9123615983100137
 51
165.0998422075556107
  0
ARC
  5
26F0
  8
0
 10
488.5175306555386783
 20
-0.5413420751388891
 30
0.0
 40
0.0260471315272868
 50
4.1036471734571469
 51
99.0980551510178316
  0
ARC
  5
26F1
  8
0
 10
488.6434001289653111
 20
-0.5445421787478715
 30
0.0
 40
0.1000174042728392
 50
29.2849277108214103
 51
179.9894824828664923
  0
ARC
  5
26F2
  8
0
 10
487.5200074238737784
 20
-1.208930301937243
 30
0.0
 40
1.4051452984112001
 50
24.2142591018309083
 51
30.50694715817977
  0
ARC
  5
26F3
  8
0
 10
488.9603702080291896
 20
-0.565205622385399
 30
0.0
 40
0.1725544453031654
 50
202.9934767880831998
 51
232.3595380096327858
  0
ARC
  5
26F4
  8
0
 10
488.8885069487973283
 20
-0.6555475934730062
 30
0.0
 40
0.0571554520820128
 50
234.0973469493007997
 51
269.2203037616413894
  0
ARC
  5
26F5
  8
0
 10
488.885041939123596
 20
-0.6890006476882711
 30
0.0
 40
0.0238489857078568
 50
276.469692029395901
 51
346.3635227449171907
  0
ARC
  5
26F6
  8
0
 10
488.9534182738436812
 20
-0.7160311282342456
 30
0.0
 40
0.0500130088112343
 50
16.4304132397880309
 51
154.656439215127989
  0
ARC
  5
26F7
  8
0
 10
489.023767162466072
 20
-0.6911527965963736
 30
0.0
 40
0.0248185980339799
 50
205.6213973627669986
 51
282.7011958706830796
  0
ARC
  5
26F8
  8
0
 10
489.0301819037185282
 20
-0.6215601234614851
 30
0.0
 40
0.0938088503647423
 50
269.4148942710385199
 51
306.1223425305769865
  0
ARC
  5
26F9
  8
0
 10
489.0384834686396971
 20
-0.6496640664179978
 30
0.0
 40
0.0669441329363726
 50
314.5937418830125125
 51
358.9077015985698154
  0
ARC
  5
26FA
  8
0
 10
489.329948062254914
 20
-0.6870828227122985
 30
0.0
 40
0.2274229259461645
 50
151.9992269612858138
 51
170.8556460381398949
  0
ARC
  5
26FB
  8
0
 10
489.1681834787261209
 20
-0.6057849307432833
 30
0.0
 40
0.0466126936883005
 50
98.4709529088700179
 51
146.8733933193059045
  0
ARC
  5
26FC
  8
0
 10
489.273996534021876
 20
-0.6038048203500388
 30
0.0
 40
0.044443064321515
 50
31.0781342417208215
 51
83.1472058744469962
  0
ARC
  5
26FD
  8
0
 10
489.0771187473812915
 20
-0.6857488707177133
 30
0.0
 40
0.2572909509328343
 50
12.2326426550535601
 51
24.0575877927035897
  0
ARC
  5
26FE
  8
0
 10
489.3525226454013932
 20
-0.630191872426149
 30
0.0
 40
0.0239772932643018
 50
182.4901949683847988
 51
260.2825293369500059
  0
ARC
  5
26FF
  8
0
 10
489.3172368180191256
 20
-0.7355377971266002
 30
0.0
 40
0.0874803675930342
 50
32.5674504540020706
 51
69.0781734243440297
  0
ARC
  5
2700
  8
0
 10
489.1012103952426742
 20
-0.8705897071366983
 30
0.0
 40
0.3422447200731121
 50
359.4714026001947786
 51
32.1540747130933227
  0
LINE
  5
2701
  8
0
 10
489.1636045493337974
 20
-1.1922919430291501
 30
0.0
 11
489.2790764999498947
 21
-1.1922910611021851
 31
0.0
  0
LINE
  5
2702
  8
0
 10
488.5146342289871768
 20
-1.235241371979469
 30
0.0
 11
488.4660750397629272
 21
-1.235406326940129
 31
0.0
  0
ARC
  5
2703
  8
0
 10
488.4717543494753045
 20
-1.412686923991241
 30
0.0
 40
0.3456826586285802
 50
126.334915731583294
 51
151.0996314120029922
  0
ARC
  5
2704
  8
0
 10
488.3183354363268904
 20
-1.2169497367515121
 30
0.0
 40
0.0973998908203718
 50
46.0819503836872073
 51
121.8512859239882005
  0
ARC
  5
2705
  8
0
 10
488.2681084020936169
 20
-1.286495402830919
 30
0.0
 40
0.1827331364232088
 50
22.3585936648651291
 51
49.8656937228154504
  0
ARC
  5
2706
  8
0
 10
488.4634255502738256
 20
-1.207581932792422
 30
0.0
 40
0.0279502540995972
 50
199.6553655647992969
 51
275.4394079867485061
  0
ARC
  5
2707
  8
0
 10
488.5186655280814989
 20
-1.209508092196028
 30
0.0
 40
0.0260471315272868
 50
261.0965771493901002
 51
356.0909851268930879
  0
ARC
  5
2708
  8
0
 10
488.644523404628103
 20
-1.205880432485045
 30
0.0
 40
0.1000174042728392
 50
180.2051498174824076
 51
328.2783864120839894
  0
ARC
  5
2709
  8
0
 10
487.5188802760358726
 20
-0.5453122716256367
 30
0.0
 40
1.405145298411199
 50
329.5004058594367962
 51
336.2473952674213251
  0
ARC
  5
270A
  8
0
 10
488.9389039634248775
 20
-1.170194558947105
 30
0.0
 40
0.1462879579745399
 50
124.7224374249439052
 51
156.2546171227205889
  0
ARC
  5
270B
  8
0
 10
488.8882848089576214
 20
-1.0949242188966251
 30
0.0
 40
0.0556034243368084
 50
90.0051273696839331
 51
126.0303245003416066
  0
ARC
  5
270C
  8
0
 10
488.8843427935805721
 20
-1.063698560175552
 30
0.0
 40
0.0246936373431116
 50
14.7448301638807404
 51
80.8258748080827445
  0
ARC
  5
270D
  8
0
 10
488.9534139462764983
 20
-1.03600811655799
 30
0.0
 40
0.0500039727191981
 50
205.3455829099590915
 51
337.5072663844064778
  0
ARC
  5
270E
  8
0
 10
489.0238807551892819
 20
-1.0610727608439841
 30
0.0
 40
0.0249819222439968
 50
77.640493134544343
 51
166.2571755818646011
  0
ARC
  5
270F
  8
0
 10
489.0300945206927281
 20
-1.130854635576348
 30
0.0
 40
0.0941887967545956
 50
54.9097247841387386
 51
90.5271118694417964
  0
ARC
  5
2710
  8
0
 10
489.0389676129930194
 20
-1.102443525007796
 30
0.0
 40
0.0664627324974385
 50
1.230740195554572
 51
47.0643186530199884
  0
ARC
  5
2711
  8
0
 10
489.3336389447483157
 20
-1.0633893509448411
 30
0.0
 40
0.2313048349055951
 50
189.361975904690496
 51
207.2878243093290962
  0
ARC
  5
2712
  8
0
 10
489.1656097084792236
 20
-1.1501336141365921
 30
0.0
 40
0.0422059872318104
 50
207.2116705639988083
 51
267.2769167059822735
  0
ARC
  5
2713
  8
0
 10
489.2778962310861175
 20
-1.1541242058244801
 30
0.0
 40
0.0381851001881673
 50
271.7712457654213267
 51
333.4731385689444778
  0
ARC
  5
2714
  8
0
 10
489.0951640297375889
 20
-1.072046793677071
 30
0.0
 40
0.2384775259754593
 50
335.4375359764101177
 51
349.1684600208380971
  0
ARC
  5
2715
  8
0
 10
489.3522597711041726
 20
-1.1211499455441181
 30
0.0
 40
0.0232655062088082
 50
99.3386895885652166
 51
169.3793192639842005
  0
ARC
  5
2716
  8
0
 10
489.3123502269011169
 20
-1.010041924363672
 30
0.0
 40
0.095269403322647
 50
292.2893950566062813
 51
330.8064987646432087
  0
ARC
  5
2717
  8
0
 10
489.0904898159286063
 20
-0.8788647154481986
 30
0.0
 40
0.352987833523557
 50
329.7838560634896226
 51
0.8306978139800248
  0
ARC
  5
2718
  8
0
 10
487.3842119825584973
 20
-0.7434846412833096
 30
0.0
 40
0.9317870561191337
 50
313.2874895141263778
 51
327.3913610491628106
  0
ARC
  5
2719
  8
0
 10
488.1204205645803995
 20
-1.5008641787289421
 30
0.0
 40
0.1254180972962048
 50
140.8925674083608897
 51
254.8017977331359987
  0
ARC
  5
271A
  8
0
 10
489.1584811548140124
 20
-1.1559176207477859
 30
0.0
 40
0.0233229955600352
 50
222.5206521383890106
 51
282.3453744391921987
  0
ARC
  5
271B
  8
0
 10
489.4444262809835777
 20
-1.085095564246241
 30
0.0
 40
0.3152582659801486
 50
164.0569662583824027
 51
195.9410362378640116
  0
ARC
  5
271C
  8
0
 10
489.7534144585346212
 20
-0.8760482126199775
 30
0.0
 40
0.6242479242960575
 50
168.685111967512114
 51
191.3124271693066021
  0
ARC
  5
271D
  8
0
 10
489.4427617936858042
 20
-0.6669409934836886
 30
0.0
 40
0.3136623523323228
 50
163.9779456694990927
 51
196.0327112616429019
  0
ARC
  5
271E
  8
0
 10
489.1584724035801059
 20
-0.5961238789107135
 30
0.0
 40
0.023317594760979
 50
77.6488211250070748
 51
137.4904681521859118
  0
ARC
  5
271F
  8
0
 10
489.2826424086675274
 20
-1.1559158922275179
 30
0.0
 40
0.0233229955600352
 50
257.6578709726131251
 51
317.480943156648209
  0
ARC
  5
2720
  8
0
 10
488.9966953106995788
 20
-1.0851017973667321
 30
0.0
 40
0.3152582659801486
 50
344.0605590571735775
 51
15.9446290366549501
  0
ARC
  5
2721
  8
0
 10
488.6877013127312921
 20
-0.8760630490259657
 30
0.0
 40
0.6242479242960575
 50
348.6891681257308733
 51
11.3164833275250594
  0
ARC
  5
2722
  8
0
 10
488.9983481552558828
 20
-0.666947180421694
 30
0.0
 40
0.3136623523323228
 50
343.9688840333935786
 51
16.0236496255371392
  0
ARC
  5
2723
  8
0
 10
489.2826355734795811
 20
-0.5961221503637724
 30
0.0
 40
0.023317594760979
 50
42.511127142849972
 51
102.3544231521887014
  0
LINE
  5
2724
  8
0
 10
489.141299598064677
 20
-0.7535701795699233
 30
0.0
 11
489.2998127627897134
 21
-0.7535679728169349
 31
0.0
  0
LINE
  5
2725
  8
0
 10
489.1412943610023945
 20
-0.9984999932533007
 30
0.0
 11
489.2998248422935035
 21
-0.9984977481284644
 31
0.0
  0
LINE
  5
2726
  8
0
 10
487.4382715834275928
 20
0.9180309333771567
 30
0.0
 11
487.438272664708677
 21
0.7980971656374756
 31
0.0
  0
LINE
  5
2727
  8
0
 10
487.6885527698775036
 20
0.9180292434271564
 30
0.0
 11
487.6885538510874767
 21
0.7981033684838117
 31
0.0
  0
ARC
  5
2728
  8
0
 10
486.9271505079909161
 20
-6.3032659453870501
 30
0.0
 40
0.0257436503621485
 50
92.9620623004989284
 51
130.4877667396490892
  0
ARC
  5
2729
  8
0
 10
486.9351005594235744
 20
-6.4569083989479088
 30
0.0
 40
0.1795916495496036
 50
91.0028211622198739
 51
92.9620623004956741
  0
LINE
  5
272A
  8
0
 10
488.2240417252583029
 20
-6.3069945991293439
 30
0.0
 11
488.2240417252583029
 21
-6.3715798509803871
 31
0.0
  0
LINE
  5
272B
  8
0
 10
488.0632227221584003
 20
-5.4094464192224576
 30
0.0
 11
488.0632227221584003
 21
-6.1523442566236621
 31
0.0
  0
ARC
  5
272C
  8
0
 10
488.4134724628584081
 20
-6.6170857102228409
 30
0.0
 40
0.05
 50
270.0
 51
90.0
  0
ARC
  5
272D
  8
0
 10
488.1065481605920127
 20
-5.3533104090222423
 30
0.0
 40
0.0262798209234734
 50
263.5410621616695153
 51
8.0041807782708414
  0
ARC
  5
272E
  8
0
 10
488.0887222459060126
 20
-5.40525920230965
 30
0.0
 40
0.0258410235252939
 50
91.1900486620794339
 51
189.3251844724800037
  0
ARC
  5
272F
  8
0
 10
488.1698819411790282
 20
-6.1693645978971601
 30
0.0
 40
0.1080087080710765
 50
170.933364658039693
 51
268.6711188134560189
  0
ARC
  5
2730
  8
0
 10
488.1960161831377718
 20
-6.3039935924266821
 30
0.0
 40
0.0281857597443113
 50
353.8879930554714974
 51
46.0928505540430393
  0
ARC
  5
2731
  8
0
 10
488.249420532742306
 20
-6.3753480614272986
 30
0.0
 40
0.0256570317704068
 50
171.5545035774300118
 51
266.8343843705966947
  0
ARC
  5
2732
  8
0
 10
488.2135280092215908
 20
-6.568730496903
 30
0.0
 40
0.1712703078595967
 50
9.0460601060767001
 51
78.3873619869494149
  0
ARC
  5
2733
  8
0
 10
488.4082420098320085
 20
-6.5415103517866324
 30
0.0
 40
0.0255755699033877
 50
180.6532401167725084
 51
269.7670047985611745
  0
ARC
  5
2734
  8
0
 10
488.3903919114569021
 20
-6.6921812954919684
 30
0.0
 40
0.0253532328742962
 50
98.1752771800663453
 51
98.3520380856801637
  0
ARC
  5
2735
  8
0
 10
488.3903919114569021
 20
-6.6921812954919684
 30
0.0
 40
0.0253532328742962
 50
7.1520216744302942
 51
81.8247228199336689
  0
ARC
  5
2736
  8
0
 10
488.542526047368483
 20
-6.6356456278704652
 30
0.0
 40
0.1377417393606907
 50
202.800928639123498
 51
249.5668960030452865
  0
ARC
  5
2737
  8
0
 10
486.0888275377828904
 20
-13.0611792507112394
 30
0.0
 40
6.7403526890394287
 50
66.8328556964299452
 51
69.0902538979555629
  0
ARC
  5
2738
  8
0
 10
488.6189421891497773
 20
-7.132048870811019
 30
0.0
 40
0.2940286966324583
 50
357.068566977534374
 51
65.5625200293303152
  0
ARC
  5
2739
  8
0
 10
488.1988477910450115
 20
-6.3032659453870501
 30
0.0
 40
0.0257436503621485
 50
49.5122332603508823
 51
87.0379376995010858
  0
ARC
  5
273A
  8
0
 10
488.1908977396124101
 20
-6.4569083989479088
 30
0.0
 40
0.1795916495496036
 50
87.0379376995010858
 51
91.0028211633697452
  0
LINE
  5
273B
  8
0
 10
489.105415436727526
 20
-1.101018555525755
 30
0.0
 11
489.105415436727526
 21
-0.6509402256874069
 31
0.0
  0
ARC
  5
273C
  8
0
 10
486.6250757956738084
 20
-0.4658588584085273
 30
0.0
 40
0.0799999998856843
 50
46.1952425987403572
 51
142.7053152574565047
  0
ARC
  5
273D
  8
0
 10
486.4831332542474911
 20
-0.3577484268263475
 30
0.0
 40
0.0984251958783372
 50
273.4281981501990231
 51
322.7053152574570163
  0
ARC
  5
273E
  8
0
 10
485.5170637168175745
 20
-0.3448758967755126
 30
0.0
 40
0.1699590543940243
 50
220.6629756558509996
 51
279.3783780887853823
  0
ARC
  5
273F
  8
0
 10
485.3273806245945821
 20
-0.5078159575980977
 30
0.0
 40
0.0800992166072343
 50
40.6629756558510422
 51
159.87862619934549
  0
ARC
  5
2740
  8
0
 10
489.7655120252991878
 20
-2.1338190026416219
 30
0.0
 40
4.8067149437857033
 50
159.87862619934549
 51
160.1368995214187123
  0
ARC
  5
2741
  8
0
 10
486.6250759359271001
 20
-1.285386047967733
 30
0.0
 40
0.0799999998856843
 50
217.2947043536701131
 51
313.8047770123637861
  0
ARC
  5
2742
  8
0
 10
486.4831334315048252
 20
-1.393496528133823
 30
0.0
 40
0.0984251958783372
 50
37.2947043536702907
 51
86.5718216029674039
  0
ARC
  5
2743
  8
0
 10
485.5170638984808988
 20
-1.4063693888497071
 30
0.0
 40
0.1699590543940243
 50
80.6216173570946353
 51
139.3370439552751918
  0
ARC
  5
2744
  8
0
 10
485.3273807504870092
 20
-1.243429392951618
 30
0.0
 40
0.0800992166072342
 50
200.1213934117801898
 51
319.3370439552751918
  0
ARC
  5
2745
  8
0
 10
489.7655115946450906
 20
0.3825751711697727
 30
0.0
 40
4.8067149437857024
 50
199.8631187870471138
 51
200.1213934117801898
  0
LINE
  5
2746
  8
0
 10
485.2447623794308242
 20
-1.2506226380228389
 30
0.0
 11
485.2447623794308242
 21
-0.5006226380228398
 31
0.0
  0
LINE
  5
2747
  8
0
 10
485.388140474598913
 20
-1.295622691630214
 30
0.0
 11
485.3879910234222166
 21
-0.4554493264761704
 31
0.0
  0
LINE
  5
2748
  8
0
 10
486.5614335770723073
 20
-1.333859237888553
 30
0.0
 11
486.5614335770723073
 21
-0.4173858960631556
 31
0.0
  0
LINE
  5
2749
  8
0
 10
486.6804522036982235
 20
-1.3431222493447841
 30
0.0
 11
486.6804522036982235
 21
-0.4081224844969711
 31
0.0
  0
LINE
  5
274A
  8
0
 10
486.9408853959616863
 20
-0.3715793444163573
 30
0.0
 11
486.9408853959618
 21
-1.3796830589153399
 31
0.0
  0
LINE
  5
274B
  8
0
 10
488.7283160871604082
 20
-1.2604905735899621
 30
0.0
 11
488.7283160871604082
 21
-0.4916955970109882
 31
0.0
  0
LINE
  5
274C
  8
0
 10
488.9082259112774977
 20
-1.0574193000992551
 30
0.0
 11
488.9082259112774977
 21
-0.6946079768310903
 31
0.0
  0
LINE
  5
274D
  8
0
 10
488.9996158007270992
 20
-1.0551306716532449
 30
0.0
 11
488.9996158007270992
 21
-0.6968715468138207
 31
0.0
  0
LINE
  5
274E
  8
0
 10
488.4371038202348245
 20
-1.216983189556277
 30
0.0
 11
488.4371038202348245
 21
-0.5342017903534356
 31
0.0
  0
LINE
  5
274F
  8
0
 10
480.4977681789670783
 20
-1.350744130568877
 30
0.0
 11
481.5581504024934247
 21
-1.8452084820069381
 31
0.0
  0
LINE
  5
2750
  8
0
 10
480.4782335620670892
 20
-1.3926472410086601
 30
0.0
 11
481.5386062137399108
 21
-1.887107128960497
 31
0.0
  0
ARC
  5
2751
  8
0
 10
487.5746249578099878
 20
1.280168825920512
 30
0.0
 40
0.1082505043488082
 50
108.0107489452005041
 51
131.9539406279648972
  0
ARC
  5
2752
  8
0
 10
487.5635544543068818
 20
1.3114417500519471
 30
0.0
 40
0.0750919593223367
 50
90.4237059603660782
 51
107.3556250931650027
  0
ARC
  5
2753
  8
0
 10
487.5626804986054026
 20
1.3076386499667829
 30
0.0
 40
0.0788936496579518
 50
69.7311414304760149
 51
89.7685821083297952
  0
ARC
  5
2754
  8
0
 10
487.554526835150682
 20
1.285559560418704
 30
0.0
 40
0.102430183451249
 50
52.0136576112342226
 51
69.7311414304792123
  0
LINE
  5
2756
  8
0
 10
481.8832337499310938
 20
-0.5006246229742289
 30
0.0
 11
485.2447623794308242
 21
-0.5006246229742289
 31
0.0
  0
ENDSEC
  0
EOF
