  0
SECTION
  2
HEADER
  9
$ACADVER
  1
AC1009
  9
$INSBASE
 10
470.6592577040366905
 20
-7.4693982706160567
 30
0.0
  9
$EXTMIN
 10
469.2878983387487892
 20
-7.4696458857309187
 30
-0.0000000000000058
  9
$EXTMAX
 10
472.0247743194000805
 20
1.065074960251557
 30
0.0000000000000104
  9
$LIMMIN
 10
0.0
 20
0.0
  9
$LIMMAX
 10
11.6929133858000007
 20
8.2677165353999982
  9
$ORTHOMODE
 70
     0
  9
$REGENMODE
 70
     1
  9
$FILLMODE
 70
     1
  9
$QTEXTMODE
 70
     0
  9
$MIRRTEXT
 70
     0
  9
$DRAGMODE
 70
     2
  9
$LTSCALE
 40
0.6431102362
  9
$OSMODE
 70
  4095
  9
$ATTMODE
 70
     1
  9
$TEXTSIZE
 40
0.2
  9
$TRACEWID
 40
0.05
  9
$TEXTSTYLE
  7
STANDARD
  9
$CLAYER
  8
DEFPOINT
  9
$CELTYPE
  6
BYLAYER
  9
$CECOLOR
 62
   256
  9
$DIMSCALE
 40
1.0
  9
$DIMASZ
 40
0.1875
  9
$DIMEXO
 40
0.0625
  9
$DIMDLI
 40
0.4443307087
  9
$DIMRND
 40
0.0
  9
$DIMDLE
 40
0.0
  9
$DIMEXE
 40
0.125
  9
$DIMTP
 40
0.01
  9
$DIMTM
 40
0.01
  9
$DIMTXT
 40
1.0
  9
$DIMCEN
 40
0.1052362205
  9
$DIMTSZ
 40
0.0
  9
$DIMTOL
 70
     1
  9
$DIMLIM
 70
     0
  9
$DIMTIH
 70
     1
  9
$DIMTOH
 70
     1
  9
$DIMSE1
 70
     0
  9
$DIMSE2
 70
     0
  9
$DIMTAD
 70
     0
  9
$DIMZIN
 70
     0
  9
$DIMBLK
  1

  9
$DIMASO
 70
     1
  9
$DIMSHO
 70
     1
  9
$DIMPOST
  1
\X
  9
$DIMAPOST
  1

  9
$DIMALT
 70
     1
  9
$DIMALTD
 70
     2
  9
$DIMALTF
 40
25.3999999999999986
  9
$DIMLFAC
 40
1.0
  9
$DIMTOFL
 70
     0
  9
$DIMTVP
 40
0.0
  9
$DIMTIX
 70
     0
  9
$DIMSOXD
 70
     0
  9
$DIMSAH
 70
     0
  9
$DIMBLK1
  1

  9
$DIMBLK2
  1

  9
$DIMSTYLE
  2
STANDARD
  9
$DIMCLRD
 70
     0
  9
$DIMCLRE
 70
     0
  9
$DIMCLRT
 70
     0
  9
$DIMTFAC
 40
1.0
  9
$DIMGAP
 40
0.09
  9
$LUNITS
 70
     2
  9
$LUPREC
 70
     4
  9
$SKETCHINC
 40
0.1
  9
$FILLETRAD
 40
0.0
  9
$AUNITS
 70
     0
  9
$AUPREC
 70
     0
  9
$MENU
  1
.
  9
$ELEVATION
 40
0.0
  9
$PELEVATION
 40
0.0
  9
$THICKNESS
 40
0.0
  9
$LIMCHECK
 70
     0
  9
$BLIPMODE
 70
     0
  9
$CHAMFERA
 40
0.0
  9
$CHAMFERB
 40
0.0
  9
$SKPOLY
 70
     0
  9
$TDCREATE
 40
2458306.6094560190103948
  9
$TDUPDATE
 40
2459068.7254745368845761
  9
$TDINDWG
 40
0.07191875
  9
$TDUSRTIMER
 40
0.0719186227
  9
$USRTIMER
 70
     1
  9
$ANGBASE
 50
0.0
  9
$ANGDIR
 70
     0
  9
$PDMODE
 70
     0
  9
$PDSIZE
 40
0.3125
  9
$PLINEWID
 40
0.0
  9
$COORDS
 70
     1
  9
$SPLFRAME
 70
     0
  9
$SPLINETYPE
 70
     6
  9
$SPLINESEGS
 70
     8
  9
$ATTDIA
 70
     1
  9
$ATTREQ
 70
     1
  9
$HANDLING
 70
     1
  9
$HANDSEED
  5
27DE
  9
$SURFTAB1
 70
     6
  9
$SURFTAB2
 70
     6
  9
$SURFTYPE
 70
     6
  9
$SURFU
 70
     6
  9
$SURFV
 70
     6
  9
$UCSNAME
  2

  9
$UCSORG
 10
0.0
 20
0.0
 30
0.0
  9
$UCSXDIR
 10
1.0
 20
0.0
 30
0.0
  9
$UCSYDIR
 10
0.0
 20
1.0
 30
0.0
  9
$PUCSNAME
  2

  9
$PUCSORG
 10
0.0
 20
0.0
 30
0.0
  9
$PUCSXDIR
 10
1.0
 20
0.0
 30
0.0
  9
$PUCSYDIR
 10
0.0
 20
1.0
 30
0.0
  9
$USERI1
 70
     0
  9
$USERI2
 70
     0
  9
$USERI3
 70
     0
  9
$USERI4
 70
     0
  9
$USERI5
 70
     0
  9
$USERR1
 40
0.0
  9
$USERR2
 40
0.0
  9
$USERR3
 40
0.0
  9
$USERR4
 40
0.0
  9
$USERR5
 40
0.0
  9
$WORLDVIEW
 70
     1
  9
$SHADEDGE
 70
     3
  9
$SHADEDIF
 70
    70
  9
$TILEMODE
 70
     1
  9
$MAXACTVP
 70
    64
  9
$PLIMCHECK
 70
     0
  9
$PEXTMIN
 10
1.0000000000000000E+20
 20
1.0000000000000000E+20
 30
1.0000000000000000E+20
  9
$PEXTMAX
 10
-1.0000000000000000E+20
 20
-1.0000000000000000E+20
 30
-1.0000000000000000E+20
  9
$PLIMMIN
 10
0.0
 20
0.0
  9
$PLIMMAX
 10
12.0
 20
9.0
  9
$UNITMODE
 70
     0
  9
$VISRETAIN
 70
     1
  9
$PLINEGEN
 70
     0
  9
$PSLTSCALE
 70
     1
  0
ENDSEC
  0
SECTION
  2
TABLES
  0
TABLE
  2
VPORT
 70
     1
  0
VPORT
  2
*ACTIVE
 70
     0
 10
0.0
 20
0.0
 11
1.0
 21
1.0
 12
129.0490501082136916
 22
5.7676516312508106
 13
0.0
 23
0.0
 14
1.0
 24
1.0
 15
0.0
 25
0.0
 16
0.0
 26
0.0
 36
57.1721640433716018
 17
341.6072862208607717
 27
-8.9699370939904934
 37
0.0
 40
8.5882601948123423
 41
2.005224660397074
 42
50.0
 43
0.0
 44
0.0
 50
0.0
 51
0.0
 71
     0
 72
   100
 73
     1
 74
     1
 75
     0
 76
     0
 77
     0
 78
     0
  0
ENDTAB
  0
TABLE
  2
LTYPE
 70
     1
  0
LTYPE
  2
CONTINUOUS
 70
     0
  3
Solid line
 72
    65
 73
     0
 40
0.0
  0
ENDTAB
  0
TABLE
  2
LAYER
 70
     2
  0
LAYER
  2
0
 70
     0
 62
   255
  6
CONTINUOUS
  0
LAYER
  2
DEFPOINT
 70
     0
 62
     7
  6
CONTINUOUS
  0
ENDTAB
  0
TABLE
  2
STYLE
 70
     1
  0
STYLE
  2
STANDARD
 70
     0
 40
0.0
 41
0.8
 50
0.0
 71
     0
 42
0.2
  3
txt
  4

  0
ENDTAB
  0
TABLE
  2
VIEW
 70
     0
  0
ENDTAB
  0
TABLE
  2
UCS
 70
     0
  0
ENDTAB
  0
TABLE
  2
APPID
 70
    10
  0
APPID
  2
ACAD
 70
     0
  0
APPID
  2
ACADANNOTATIVE
 70
     0
  0
APPID
  2
ACAD_MLEADERVER
 70
     0
  0
APPID
  2
ACAD_EXEMPT_FROM_CAD_STANDARDS
 70
     0
  0
APPID
  2
ACAD_DSTYLE_DIMJAG
 70
     0
  0
APPID
  2
ACAD_DSTYLE_DIMTALN
 70
     0
  0
APPID
  2
ACAD_NAV_VCDISPLAY
 70
     0
  0
APPID
  2
ACAECLAYERSTANDARD
 70
     0
  0
APPID
  2
ACCMTRANSPARENCY
 70
     0
  0
APPID
  2
ACDBATTR
 70
     0
  0
ENDTAB
  0
TABLE
  2
DIMSTYLE
 70
     1
  0
DIMSTYLE
  2
STANDARD
 70
     0
  3

  4

  5

  6

  7

 40
1.0
 41
0.1875
 42
0.0625
 43
0.38
 44
0.125
 45
0.0
 46
0.0
 47
0.01
 48
0.01
140
0.15625
141
0.09
142
0.0
143
25.3999999999999986
144
1.0
145
0.0
146
1.0
147
0.09
 71
     1
 72
     0
 73
     1
 74
     1
 75
     0
 76
     0
 77
     0
 78
     4
170
     0
171
     2
172
     0
173
     0
174
     0
175
     0
176
     0
177
     0
178
     0
  0
ENDTAB
  0
ENDSEC
  0
SECTION
  2
BLOCKS
  0
BLOCK
  8
0
  2
$MODEL_SPACE
 70
     0
 10
0.0
 20
0.0
 30
0.0
  3
$MODEL_SPACE
  1

  0
ENDBLK
  5
1598
  8
0
  0
BLOCK
 67
     1
  8
0
  2
$PAPER_SPACE
 70
     0
 10
0.0
 20
0.0
 30
0.0
  3
$PAPER_SPACE
  1

  0
ENDBLK
  5
1594
 67
     1
  8
0
  0
ENDSEC
  0
SECTION
  2
ENTITIES
  0
ATTDEF
  5
659
  8
DEFPOINT
 10
470.656211350039996
 20
-7.4651507864409012
 30
0.0
 40
0.001
  1
K-72760T-ND
  3

  2
MODELNUMBER
 70
     0
1001
ACDBATTR
1070
     0
1070
     1
  0
ATTDEF
  5
65A
  8
DEFPOINT
 10
470.656211350039996
 20
-7.4668174531075664
 30
0.0
 40
0.001
  1
ARTIFACTS
  3

  2
TRADENAME
 70
     0
1001
ACDBATTR
1070
     0
1070
     1
  0
ATTDEF
  5
65B
  8
DEFPOINT
 10
470.656211350039996
 20
-7.4684841197742289
 30
0.0
 40
0.001
  1
BATHROOM SINK SPOUT
  3

  2
PRODUCT
 70
     0
1001
ACDBATTR
1070
     0
1070
     1
  0
ARC
  5
2491
  8
0
 10
470.6592465128848062
 20
-1.197938389429047
 30
0.0
 40
0.3750012410616023
 50
357.9976469230015255
 51
181.5100794606566126
  0
ARC
  5
2492
  8
0
 10
470.6592465123367219
 20
-1.197935163416058
 30
0.0
 40
0.7097781583
 50
124.2983040186192056
 51
231.2486755518307859
  0
ARC
  5
2493
  8
0
 10
470.6592465123367219
 20
-1.197935163416058
 30
0.0
 40
0.7097781583
 50
308.7508526241308005
 51
57.3428133543362506
  0
ARC
  5
2494
  8
0
 10
470.0890213852209172
 20
-2.1295441962222301
 30
0.0
 40
0.086831196058162
 50
92.5551187052204938
 51
146.4774262813699863
  0
ARC
  5
2495
  8
0
 10
470.1916640769049991
 20
-2.1975400830898901
 30
0.0
 40
0.2099529357595508
 50
146.4774262813699863
 51
181.8278495573038072
  0
ARC
  5
2496
  8
0
 10
470.1893061863225967
 20
-2.2117787873050498
 30
0.0
 40
0.2076252400248825
 50
177.918290407125113
 51
212.2164383475005138
  0
ARC
  5
2497
  8
0
 10
471.2294659979098128
 20
-2.1296305240294471
 30
0.0
 40
0.086831196058162
 50
33.5138995244708369
 51
90.0
  0
ARC
  5
2498
  8
0
 10
471.1268130132837086
 20
-2.1976108707074569
 30
0.0
 40
0.2099529357595508
 50
358.1634762485376768
 51
33.5138995244706734
  0
ARC
  5
2499
  8
0
 10
471.1203058623326001
 20
-2.2108416953372441
 30
0.0
 40
0.2164499290531853
 50
330.1385636128027841
 51
1.721455574822246
  0
ARC
  5
249A
  8
0
 10
470.3778887395276911
 20
-1.8080616210989711
 30
0.0
 40
0.1620950967699793
 50
125.2894930117669929
 51
157.099057687363711
  0
ARC
  5
249B
  8
0
 10
470.9403286982162058
 20
-1.808282638692027
 30
0.0
 40
0.1624345526953117
 50
22.9329372950675499
 51
54.6762894044615919
  0
ARC
  5
249C
  8
0
 10
470.5358003704852194
 20
-2.0319632528591072
 30
0.0
 40
0.4360804007680447
 50
102.1801276421559947
 51
125.2296584229610943
  0
ARC
  5
249D
  8
0
 10
470.7638694004626814
 20
-2.0730597029233091
 30
0.0
 40
0.4805802147535898
 50
55.7636603935902215
 51
79.6422710023112614
  0
ARC
  5
249E
  8
0
 10
470.6568834036277735
 20
-2.415809031496575
 30
0.0
 40
0.8381154142363222
 50
76.6590468968475705
 51
89.8376863467953797
  0
ARC
  5
249F
  8
0
 10
470.6719247028739233
 20
-2.518106387117192
 30
0.0
 40
0.9404947130084542
 50
90.7717082365291077
 51
104.0379780369605953
  0
ARC
  5
24A0
  8
0
 10
470.6592406701217897
 20
-2.824781506779753
 30
0.0
 40
1.1625143383041621
 50
68.2550052611730536
 51
111.744279654548194
  0
ARC
  5
24A1
  8
0
 10
470.9361111855969284
 20
-2.0850295283696241
 30
0.0
 40
0.373210183383561
 50
44.5433368731223496
 51
65.6608907018466397
  0
ARC
  5
24A2
  8
0
 10
471.0948061876916881
 20
-1.9280446700821969
 30
0.0
 40
0.1499893480796599
 50
2.6084973631409998
 51
44.3256408227834697
  0
ARC
  5
24A3
  8
0
 10
471.1086288580979158
 20
-1.959137470570979
 30
0.0
 40
0.1360177655538657
 50
331.8141464989611222
 51
359.4397644226237958
  0
ARC
  5
24A4
  8
0
 10
470.2242531126443055
 20
-1.9285115166769691
 30
0.0
 40
0.1505786123852231
 50
135.73306366543531
 51
177.2918359033012905
  0
ARC
  5
24A5
  8
0
 10
470.2113024803755934
 20
-1.9587476260594761
 30
0.0
 40
0.1374666831966395
 50
180.5730884094500084
 51
208.0470598138319929
  0
ARC
  5
24A6
  8
0
 10
470.3823699910652749
 20
-2.0850295283696241
 30
0.0
 40
0.373210183383561
 50
114.339109298153403
 51
135.456663126877487
  0
ARC
  5
24A7
  8
0
 10
471.0942831904712875
 20
-1.9746447620275369
 30
0.0
 40
0.1510238510550687
 50
5.3865623939944793
 51
54.1413640498737934
  0
ARC
  5
24A8
  8
0
 10
470.8068741268598956
 20
-2.3683633350262161
 30
0.0
 40
0.6384836276522253
 50
53.9350095535243099
 51
82.674796683117961
  0
ARC
  5
24A9
  8
0
 10
470.6556772586209263
 20
-3.0685247801538149
 30
0.0
 40
1.3535697479797679
 50
80.104894849675361
 51
89.848461838491545
  0
ARC
  5
24AA
  8
0
 10
470.6646831603675878
 20
-3.048824599663543
 30
0.0
 40
1.3338758690883139
 50
90.2330680038738251
 51
103.9724020998404939
  0
ARC
  5
24AB
  8
0
 10
470.4422165602671839
 20
-2.2325138185608111
 30
0.0
 40
0.4883637311415077
 50
101.7682735798537976
 51
129.6654696143824879
  0
ARC
  5
24AC
  8
0
 10
470.2229050993730084
 20
-1.974407240616386
 30
0.0
 40
0.149745311158041
 50
128.1072144142497109
 51
174.5260591380240101
  0
ARC
  5
24AD
  8
0
 10
470.2791944877589003
 20
-1.91646902284652
 30
0.0
 40
0.2173316946914045
 50
209.4684198053645048
 51
230.8464099677260037
  0
ARC
  5
24AE
  8
0
 10
470.4037944203706161
 20
-1.7634397895712861
 30
0.0
 40
0.4146717297654411
 50
230.846559439188411
 51
248.9797876733375119
  0
ARC
  5
24AF
  8
0
 10
470.9853096654272235
 20
-1.58275787299388
 30
0.0
 40
0.9250001236842885
 50
217.8642916134625978
 51
219.4681061957020063
  0
ARC
  5
24B0
  8
0
 10
470.517986859465509
 20
-1.967552359664225
 30
0.0
 40
0.3196428721841718
 50
219.4681061957026031
 51
245.3944832177180047
  0
ARC
  5
24B1
  8
0
 10
471.0393190653471152
 20
-1.9164675936968081
 30
0.0
 40
0.2173316946914045
 50
309.1538054818195178
 51
330.5317956441817273
  0
ARC
  5
24B2
  8
0
 10
470.9147185572999774
 20
-1.763438828956267
 30
0.0
 40
0.4146717297654411
 50
291.0204277762092033
 51
309.1536560103572242
  0
ARC
  5
24B3
  8
0
 10
470.3332026328284883
 20
-1.5827590990542
 30
0.0
 40
0.9250001236842885
 50
320.5321092538439984
 51
322.1359238360810764
  0
ARC
  5
24B4
  8
0
 10
470.8005268857310739
 20
-1.967551828446076
 30
0.0
 40
0.3196428721841282
 50
294.6057322318238789
 51
320.5321092538439984
  0
ARC
  5
24B5
  8
0
 10
470.659256125309696
 20
-1.5700902646486621
 30
0.0
 40
0.7407609653503321
 50
248.2613290464308022
 51
291.7388864031141793
  0
LINE
  5
24B6
  8
0
 10
469.3096707186962817
 20
-7.4693982706160567
 30
0.0
 11
472.0088446893772129
 21
-7.4693982706160567
 31
0.0
  0
LINE
  5
24B7
  8
0
 10
471.5097310173771916
 20
-6.9893982356160569
 30
0.0
 11
469.808784390696303
 21
-6.9893982356160569
 31
0.0
  0
LINE
  5
24B8
  8
0
 10
471.5097310173771916
 20
-6.8893982356160564
 30
0.0
 11
469.808784390696303
 21
-6.8893982356160564
 31
0.0
  0
LINE
  5
24B9
  8
0
 10
471.3442622466935177
 20
-6.7232784681160558
 30
0.0
 11
469.974253161396291
 21
-6.7232784681160558
 31
0.0
  0
LINE
  5
24BA
  8
0
 10
471.2840131461816213
 20
-6.5996567820160577
 30
0.0
 11
470.0282159659963099
 21
-6.5996567820160577
 31
0.0
  0
LINE
  5
24BB
  8
0
 10
470.1186649394962842
 20
-5.7017359502160563
 30
0.0
 11
471.199642528196307
 21
-5.7017589446160581
 31
0.0
  0
LINE
  5
24BC
  8
0
 10
470.063187996596298
 20
-5.5996859527160563
 30
0.0
 11
471.2565106673645232
 21
-5.5996858997001873
 31
0.0
  0
LINE
  5
24BD
  8
0
 10
470.0632228203962768
 20
-5.4238769790160566
 30
0.0
 11
471.2561186168962877
 21
-5.4238769790160566
 31
0.0
  0
LINE
  5
24BE
  8
0
 10
471.199642528196307
 20
-5.3217589446160574
 30
0.0
 11
470.119698909096428
 21
-5.3217589446160574
 31
0.0
  0
LINE
  5
24BF
  8
0
 10
469.9799707186962792
 20
-5.5586591785160566
 30
0.0
 11
469.9799707186962792
 21
-5.4649767170160573
 31
0.0
  0
LINE
  5
24C0
  8
0
 10
469.9887575894962879
 20
-5.4824791686175853
 30
0.0
 11
469.9887575894962879
 21
-5.5412443442145181
 31
0.0
  0
LINE
  5
24C1
  8
0
 10
469.9982151282962946
 20
-6.6293071245225601
 30
0.0
 11
469.9982151282962946
 21
-6.6938923763736016
 31
0.0
  0
LINE
  5
24C2
  8
0
 10
470.0896848923962921
 20
-2.3918112196624999
 30
0.0
 11
470.0896848923962921
 21
-2.4339149209011448
 31
0.0
  0
LINE
  5
24C3
  8
0
 10
470.0896848923962921
 20
-5.3517589446160558
 30
0.0
 11
470.0896848923962921
 21
-5.3940863250160556
 31
0.0
  0
LINE
  5
24C4
  8
0
 10
470.0896848923962921
 20
-5.6294602425138729
 30
0.0
 11
470.0896848923962921
 21
-5.6719635913213633
 31
0.0
  0
LINE
  5
24C5
  8
0
 10
470.1590341313964245
 20
-5.7317589446156747
 30
0.0
 11
470.1590341313964245
 21
-6.4746567820168774
 31
0.0
  0
LINE
  5
24C6
  8
0
 10
471.3305838774962808
 20
-5.5413037121350106
 30
0.0
 11
471.3305838774962808
 21
-5.4824198006971034
 31
0.0
  0
LINE
  5
24C7
  8
0
 10
470.1096617231963251
 20
-2.4629875980160558
 30
0.0
 11
471.209679186196297
 21
-2.4629855298160548
 31
0.0
  0
LINE
  5
24C8
  8
0
 10
470.0675917751584052
 20
-2.3629183906899618
 30
0.0
 11
471.2519895051078151
 21
-2.3629196178903049
 31
0.0
  0
ARC
  5
24C9
  8
0
 10
469.808784390696303
 20
-6.9393982356160571
 30
0.0
 40
0.05
 50
90.0
 51
270.0
  0
ARC
  5
24CA
  8
0
 10
470.0941572425819004
 20
-2.2712950008036539
 30
0.0
 40
0.0953969057867631
 50
212.4402243777491037
 51
255.3064451723618049
  0
ARC
  5
24CB
  8
0
 10
470.0651627394483967
 20
-2.3879313907056559
 30
0.0
 40
0.0248271838505238
 50
351.0093420343080197
 51
78.8591180554171842
  0
ARC
  5
24CC
  8
0
 10
470.120671987477408
 20
-2.4365477319849762
 30
0.0
 40
0.0310987420286625
 50
175.1435417303869997
 51
210.4533088895356059
  0
ARC
  5
24CD
  8
0
 10
470.1143333449770125
 20
-2.4390500310247449
 30
0.0
 40
0.0243891607794524
 50
212.9338486594641893
 51
258.9570376737236757
  0
ARC
  5
24CE
  8
0
 10
470.1093164235031168
 20
-2.4901577219892661
 30
0.0
 40
0.0271723180571193
 50
51.3402944335340976
 51
89.2718785506830841
  0
ARC
  5
24CF
  8
0
 10
470.1091298569813262
 20
-2.486557254459643
 30
0.0
 40
0.0245942466903059
 50
1.165744179129208
 51
45.7522430560270479
  0
ARC
  5
24D0
  8
0
 10
470.0287419866654091
 20
-2.4881930577575591
 30
0.0
 40
0.1049987586677866
 50
356.5170066032828231
 51
1.165744179129208
  0
ARC
  5
24D1
  8
0
 10
469.8124368518659253
 20
-2.4750277119259918
 30
0.0
 40
0.321704175470189
 50
327.7311154358183103
 51
356.5170066032828231
  0
ARC
  5
24D2
  8
0
 10
470.4606219987026066
 20
-2.8843008354223052
 30
0.0
 40
0.4448781581353764
 50
147.7311154358181966
 51
174.2364978179720083
  0
ARC
  5
24D3
  8
0
 10
474.3967300572750787
 20
-3.281583076776204
 30
0.0
 40
4.4009848083730123
 50
174.2364978179720083
 51
188.5661806601127068
  0
ARC
  5
24D4
  8
0
 10
271.7124359180514261
 20
-23.4983413368019782
 30
0.0
 40
199.2947169814731012
 50
5.3448626213016919
 51
5.6327784991015548
  0
ARC
  5
24D5
  8
0
 10
464.885628530064821
 20
-5.3820865743869826
 30
0.0
 40
5.2740738104711458
 50
0.9850398363135004
 51
4.8737798018528959
  0
ARC
  5
24D6
  8
0
 10
470.1207608830411004
 20
-5.2939143099825863
 30
0.0
 40
0.0382435919707507
 50
340.6403420604341932
 51
3.7423263692648732
  0
ARC
  5
24D7
  8
0
 10
470.1340978582130106
 20
-5.2971942295659353
 30
0.0
 40
0.0246092434128337
 50
273.4472467375675251
 51
337.5499791448855262
  0
ARC
  5
24D8
  8
0
 10
470.1177414967758068
 20
-5.3648953387466811
 30
0.0
 40
0.0431652150213253
 50
87.4243266680426672
 51
103.6588428735313983
  0
ARC
  5
24D9
  8
0
 10
470.1409304171306189
 20
-5.3502675652394913
 30
0.0
 40
0.0512672216697843
 50
167.4573224830411107
 51
181.6669871636827054
  0
ARC
  5
24DA
  8
0
 10
470.1129767641687067
 20
-5.3452085421290061
 30
0.0
 40
0.0229100436445288
 50
103.706016892984394
 51
164.6243537274085895
  0
ARC
  5
24DB
  8
0
 10
470.0640237270607145
 20
-5.3979403711684704
 30
0.0
 40
0.0259489706563618
 50
271.7686967696780016
 51
8.541402639382456
  0
ARC
  5
24DC
  8
0
 10
470.0942608755474907
 20
-5.7398092141139241
 30
0.0
 40
0.3174532060658682
 50
95.610890383852734
 51
106.8835879078135065
  0
ARC
  5
24DD
  8
0
 10
470.0055606374843933
 20
-5.4612966519193096
 30
0.0
 40
0.0254983511814021
 50
97.8829552015553617
 51
178.6627142163825965
  0
ARC
  5
24DE
  8
0
 10
470.2040707567600748
 20
-5.4671579673698956
 30
0.0
 40
0.2240945525392998
 50
178.3490213535440034
 51
179.4423854578454041
  0
ARC
  5
24DF
  8
0
 10
470.0057136349209941
 20
-5.5619020939993087
 30
0.0
 40
0.0259463723202935
 50
172.8200923340262989
 51
262.098960520577009
  0
ARC
  5
24E0
  8
0
 10
470.0942083999739793
 20
-5.282771572167217
 30
0.0
 40
0.3184289403059466
 50
253.1952390736051086
 51
264.4095488178875257
  0
ARC
  5
24E1
  8
0
 10
470.0635860761747722
 20
-5.6260089663704633
 30
0.0
 40
0.0263260235356739
 50
352.4669821655566011
 51
89.1335943702563753
  0
ARC
  5
24E2
  8
0
 10
470.1157086929626985
 20
-5.6756229344154594
 30
0.0
 40
0.0262798209234734
 50
171.9958192217291071
 51
276.4589378383304847
  0
ARC
  5
24E3
  8
0
 10
470.1335346076485848
 20
-5.7275717277028662
 30
0.0
 40
0.0258410235252939
 50
350.6748155275197973
 51
88.8099513379238346
  0
ARC
  5
24E4
  8
0
 10
470.0523749123756829
 20
-6.4916771232903763
 30
0.0
 40
0.1080087080710765
 50
271.3288811865439811
 51
9.0666353419603123
  0
ARC
  5
24E5
  8
0
 10
470.0262406704168257
 20
-6.6263061178198992
 30
0.0
 40
0.0281857597443113
 50
133.9071494459568044
 51
186.1120069445281899
  0
ARC
  5
24E6
  8
0
 10
469.9728363208124051
 20
-6.6976605868205157
 30
0.0
 40
0.0256570317704068
 50
273.1656156294033053
 51
8.4454964225701499
  0
ARC
  5
24E7
  8
0
 10
470.0087288443331204
 20
-6.8910430222962162
 30
0.0
 40
0.1712703078595967
 50
101.6126380129275049
 51
170.953939893923291
  0
ARC
  5
24E8
  8
0
 10
469.8140148437227026
 20
-6.8638228771798468
 30
0.0
 40
0.0255755699033877
 50
270.2329952014388255
 51
359.3467598832273211
  0
ARC
  5
24E9
  8
0
 10
469.8318649420976953
 20
-7.0144938208851828
 30
0.0
 40
0.0253532328742962
 50
81.6479619143198505
 51
81.8247228199336689
  0
ARC
  5
24EA
  8
0
 10
469.8318649420976953
 20
-7.0144938208851828
 30
0.0
 40
0.0253532328742962
 50
98.1752771800663453
 51
172.8479783255694997
  0
ARC
  5
24EB
  8
0
 10
469.6797308061861145
 20
-6.9579581532636796
 30
0.0
 40
0.1377417393606907
 50
290.4331039969516155
 51
337.1990713608763031
  0
ARC
  5
24EC
  8
0
 10
472.133429315771707
 20
-13.3834917761044601
 30
0.0
 40
6.7403526890394287
 50
110.9097461020443944
 51
113.167144303569998
  0
ARC
  5
24ED
  8
0
 10
469.603314664404877
 20
-7.4543613962042343
 30
0.0
 40
0.2940286966324583
 50
114.4374799706695995
 51
182.9314330224655976
  0
ARC
  5
24EE
  8
0
 10
470.0117020229013747
 20
-5.4754822200033093
 30
0.0
 40
0.0239875866683035
 50
118.5346091890817064
 51
196.9591845977317917
  0
ARC
  5
24EF
  8
0
 10
470.1933886593943157
 20
-6.4610402477755526
 30
0.0
 40
1.0249939970808011
 50
79.1389392246639005
 51
100.8614957659995071
  0
ARC
  5
24F0
  8
0
 10
470.6596910121674
 20
-7.4772057671196173
 30
0.0
 40
2.0411599521017689
 50
82.3095255156166843
 51
97.6908652057676079
  0
ARC
  5
24F1
  8
0
 10
471.1259561440991774
 20
-6.4609094682464541
 30
0.0
 40
1.0248629753736469
 50
79.5826587401654422
 51
100.8611325898067008
  0
ARC
  5
24F2
  8
0
 10
471.3117580741221104
 20
-5.471907019866812
 30
0.0
 40
0.0189738090292606
 50
6.788554518511404
 51
91.4781978210079245
  0
ARC
  5
24F3
  8
0
 10
471.2882747392380907
 20
-5.4759922990589214
 30
0.0
 40
0.0427945785992575
 50
351.3618134954085122
 51
8.5035852192372143
  0
ARC
  5
24F4
  8
0
 10
470.0117020229013747
 20
-5.548241292828803
 30
0.0
 40
0.0239875866683035
 50
163.0408154022464089
 51
241.4653908109181941
  0
ARC
  5
24F5
  8
0
 10
470.1933886593943157
 20
-4.5626832650565587
 30
0.0
 40
1.0249939970808011
 50
259.1385042340003793
 51
280.8610607753361137
  0
ARC
  5
24F6
  8
0
 10
470.6596910121674
 20
-3.546517745712495
 30
0.0
 40
2.0411599521017689
 50
262.3091347942324205
 51
277.6904744843832873
  0
ARC
  5
24F7
  8
0
 10
471.1259561440991774
 20
-4.5628140445856591
 30
0.0
 40
1.0248629753736469
 50
259.1388674101931997
 51
280.862706111120815
  0
ARC
  5
24F8
  8
0
 10
471.3117580741221104
 20
-5.5518164929653011
 30
0.0
 40
0.0189738090292606
 50
292.7582451919665232
 51
347.0511577207317941
  0
ARC
  5
24F9
  8
0
 10
471.2882747392380907
 20
-5.5477312137731909
 30
0.0
 40
0.0427945785992575
 50
348.766188421184097
 51
8.6381865045859296
  0
LINE
  5
24FA
  8
0
 10
470.3865262722184752
 20
-5.4544069696825721
 30
0.0
 11
470.3865262722184752
 21
-5.5693165431495384
 31
0.0
  0
LINE
  5
24FB
  8
0
 10
470.9328419578872058
 20
-5.454405106916913
 30
0.0
 11
470.9328419578870921
 21
-5.5693184059151859
 31
0.0
  0
LINE
  5
24FC
  8
0
 10
471.3388235476459727
 20
-5.5587620390879318
 30
0.0
 11
471.338837730537989
 21
-5.4650795786615296
 31
0.0
  0
LINE
  5
24FD
  8
0
 10
471.2295888145999925
 20
-2.3918975065412829
 30
0.0
 11
471.2295824403839219
 21
-2.4340012072974129
 31
0.0
  0
LINE
  5
24FE
  8
0
 10
471.2291406985015101
 20
-5.3518451975774042
 30
0.0
 11
471.2291342904221096
 21
-5.3941725774906351
 31
0.0
  0
LINE
  5
24FF
  8
0
 10
471.2290986564004243
 20
-5.6295464922915084
 30
0.0
 11
471.2290922526624968
 21
-5.6718451939067647
 31
0.0
  0
ARC
  5
2500
  8
0
 10
471.2251347098073779
 20
-2.271380611979918
 30
0.0
 40
0.0953969057867631
 50
283.2180110014512024
 51
330.3226919729464157
  0
ARC
  5
2501
  8
0
 10
471.2541115546467836
 20
-2.3880213901172591
 30
0.0
 40
0.0248271838505238
 50
106.7706838845273012
 51
188.9819837715629092
  0
ARC
  5
2502
  8
0
 10
471.1985949470679884
 20
-2.4366293271141148
 30
0.0
 40
0.0310987420286625
 50
329.5380169163070718
 51
4.8477840754462092
  0
ARC
  5
2503
  8
0
 10
471.2052466875948085
 20
-2.4394400833638761
 30
0.0
 40
0.0239590294562292
 50
280.6613225739853874
 51
327.2669388083954232
  0
ARC
  5
2504
  8
0
 10
471.2103322576484743
 20
-2.490939525117823
 30
0.0
 40
0.0279616229080671
 50
91.3383214859639168
 51
128.3809807821970992
  0
ARC
  5
2505
  8
0
 10
471.2101295063279736
 20
-2.4866405964162972
 30
0.0
 40
0.0245942466903059
 50
134.2390827498147132
 51
178.8255816267125908
  0
ARC
  5
2506
  8
0
 10
471.2905171280730201
 20
-2.4882885698762069
 30
0.0
 40
0.1049987586677866
 50
178.8255816267125908
 51
183.4743192025584904
  0
ARC
  5
2507
  8
0
 10
471.5068242535381273
 20
-2.4751559713323088
 30
0.0
 40
0.321704175470189
 50
183.4743192025584904
 51
212.260210370023799
  0
ARC
  5
2508
  8
0
 10
470.8585771529423027
 20
-2.8843309592840458
 30
0.0
 40
0.4448781581353764
 50
5.7548279878694677
 51
32.2602103700237635
  0
ARC
  5
2509
  8
0
 10
466.9224089936287783
 20
-3.281017295903836
 30
0.0
 40
4.4009848083730123
 50
351.4251451457287772
 51
5.7548279878694677
  0
ARC
  5
250A
  8
0
 10
669.6036401294134066
 20
-23.5284603577417002
 30
0.0
 40
199.2947169814731012
 50
174.3585473067398084
 51
174.6464631845402096
  0
ARC
  5
250B
  8
0
 10
476.4331924097965043
 20
-5.3829606859898931
 30
0.0
 40
5.2740738104711458
 50
175.117546003988906
 51
179.0062859695281077
  0
ARC
  5
250C
  8
0
 10
471.1980734655001015
 20
-5.2939958589082394
 30
0.0
 40
0.0382435919707507
 50
176.2489994365768098
 51
199.3509837454070066
  0
ARC
  5
250D
  8
0
 10
471.1847359939233115
 20
-5.2972737593260169
 30
0.0
 40
0.0246092434128337
 50
202.4413466609559009
 51
264.2444912973033979
  0
ARC
  5
250E
  8
0
 10
471.201082105682417
 20
-5.3649773439735853
 30
0.0
 40
0.0431652150213253
 50
76.3324829323096594
 51
92.5669991378013748
  0
ARC
  5
250F
  8
0
 10
471.1778954001393913
 20
-5.3503460599880706
 30
0.0
 40
0.0512672216697843
 50
358.3243386383015263
 51
12.5340033228006504
  0
ARC
  5
2510
  8
0
 10
471.205849818682907
 20
-5.3452912689298619
 30
0.0
 40
0.0229100436445288
 50
15.3669720784334096
 51
76.2853089128546031
  0
ARC
  5
2511
  8
0
 10
471.2546969981441976
 20
-5.3980595510858542
 30
0.0
 40
0.0258565386281533
 50
171.3540383148663864
 51
266.8482266541677177
  0
ARC
  5
2512
  8
0
 10
471.2206638486691759
 20
-5.7552202160264194
 30
0.0
 40
0.3332347239300466
 50
73.2413027809437409
 51
83.8924106588544589
  0
ARC
  5
2513
  8
0
 10
471.3132483691802008
 20
-5.4613956394660486
 30
0.0
 40
0.0254983511814021
 50
1.328611589459052
 51
82.108370604289135
  0
ARC
  5
2514
  8
0
 10
471.1147373648158805
 20
-5.467226901757857
 30
0.0
 40
0.2240945525392998
 50
0.5489403479962071
 51
1.6423044522973851
  0
ARC
  5
2515
  8
0
 10
471.3130801407608033
 20
-5.5620010572303338
 30
0.0
 40
0.0259463723202935
 50
277.8923652852665782
 51
7.1712334718152349
  0
ARC
  5
2516
  8
0
 10
471.2246276351980896
 20
-5.2828571410872041
 30
0.0
 40
0.3184289403059466
 50
275.5817769879540151
 51
286.7960867322373133
  0
ARC
  5
2517
  8
0
 10
471.2551979948225949
 20
-5.6260991673700067
 30
0.0
 40
0.0263260235356739
 50
89.1249150851243854
 51
187.5243436449937917
  0
ARC
  5
2518
  8
0
 10
470.0234090625096997
 20
-6.6255784707802654
 30
0.0
 40
0.0257436503621485
 50
92.9620623004989284
 51
130.4877667396490892
  0
ARC
  5
2519
  8
0
 10
470.0313591139424148
 20
-6.7792209243411259
 30
0.0
 40
0.1795916495496036
 50
91.0028211622198739
 51
92.9620623004956741
  0
LINE
  5
251A
  8
0
 10
471.3203002797770864
 20
-6.6293071245225601
 30
0.0
 11
471.3203002797770864
 21
-6.6938923763736016
 31
0.0
  0
LINE
  5
251B
  8
0
 10
471.159481276677127
 20
-5.7317589446156747
 30
0.0
 11
471.159481276677127
 21
-6.4746567820168774
 31
0.0
  0
ARC
  5
251C
  8
0
 10
471.5097310173771916
 20
-6.9393982356160571
 30
0.0
 40
0.05
 50
270.0
 51
90.0
  0
ARC
  5
251D
  8
0
 10
471.2028067151107962
 20
-5.6756229344154594
 30
0.0
 40
0.0262798209234734
 50
263.5410621616695153
 51
8.0041807782708414
  0
ARC
  5
251E
  8
0
 10
471.1849808004247961
 20
-5.7275717277028662
 30
0.0
 40
0.0258410235252939
 50
91.1900486620794339
 51
189.3251844724800037
  0
ARC
  5
251F
  8
0
 10
471.266140495697698
 20
-6.4916771232903763
 30
0.0
 40
0.1080087080710765
 50
170.933364658039693
 51
268.6711188134560189
  0
ARC
  5
2520
  8
0
 10
471.2922747376566122
 20
-6.6263061178198992
 30
0.0
 40
0.0281857597443113
 50
353.8879930554714974
 51
46.0928505540430393
  0
ARC
  5
2521
  8
0
 10
471.3456790872610895
 20
-6.6976605868205157
 30
0.0
 40
0.0256570317704068
 50
171.5545035774300118
 51
266.8343843705966947
  0
ARC
  5
2522
  8
0
 10
471.3097865637403743
 20
-6.8910430222962162
 30
0.0
 40
0.1712703078595967
 50
9.0460601060767001
 51
78.3873619869494149
  0
ARC
  5
2523
  8
0
 10
471.504500564350792
 20
-6.8638228771798468
 30
0.0
 40
0.0255755699033877
 50
180.6532401167725084
 51
269.7670047985611745
  0
ARC
  5
2524
  8
0
 10
471.4866504659756856
 20
-7.0144938208851828
 30
0.0
 40
0.0253532328742962
 50
98.1752771800663453
 51
98.3520380856801637
  0
ARC
  5
2525
  8
0
 10
471.4866504659756856
 20
-7.0144938208851828
 30
0.0
 40
0.0253532328742962
 50
7.1520216744302942
 51
81.8247228199336689
  0
ARC
  5
2526
  8
0
 10
471.6387846018873233
 20
-6.9579581532636796
 30
0.0
 40
0.1377417393606907
 50
202.800928639123498
 51
249.5668960030452865
  0
ARC
  5
2527
  8
0
 10
469.1850860923016739
 20
-13.3834917761044601
 30
0.0
 40
6.7403526890394287
 50
66.8328556964299452
 51
69.0902538979555629
  0
ARC
  5
2528
  8
0
 10
471.7152007436686176
 20
-7.4543613962042343
 30
0.0
 40
0.2940286966324583
 50
357.068566977534374
 51
65.5625200293303152
  0
ARC
  5
2529
  8
0
 10
471.295106345563795
 20
-6.6255784707802654
 30
0.0
 40
0.0257436503621485
 50
49.5122332603508823
 51
87.0379376995010858
  0
ARC
  5
252A
  8
0
 10
471.2871562941311936
 20
-6.7792209243411259
 30
0.0
 40
0.1795916495496036
 50
87.0379376995010858
 51
91.0028211633697452
  0
LINE
  5
252B
  8
0
 10
470.085150411052723
 20
-2.0427993279712839
 30
0.0
 11
470.1023507162415171
 21
-2.0427993279712839
 31
0.0
  0
LINE
  5
252C
  8
0
 10
471.2161618159269096
 20
-2.0427993279712839
 30
0.0
 11
471.2294659979098128
 21
-2.0427993279712839
 31
0.0
  0
LINE
  5
252D
  8
0
 10
470.4052873222797189
 20
0.5957171458833912
 30
0.0
 11
470.4052873222797189
 21
0.4757941282915397
 31
0.0
  0
LINE
  5
252E
  8
0
 10
470.4093894118797152
 20
0.5957073079839433
 30
0.0
 11
470.4093894118797152
 21
0.4757934837839422
 31
0.0
  0
LINE
  5
252F
  8
0
 10
470.9099521910795829
 20
0.4757921337839442
 30
0.0
 11
470.9099521910795829
 21
0.595717683783942
 31
0.0
  0
LINE
  5
2530
  8
0
 10
471.0297337494795897
 20
-0.2757800621160591
 30
0.0
 11
470.2871877846795883
 21
-0.2755407444160625
 31
0.0
  0
LINE
  5
2531
  8
0
 10
470.522428704079573
 20
0.4462187335839439
 30
0.0
 11
470.5774316605795775
 21
0.4462199378839422
 31
0.0
  0
LINE
  5
2532
  8
0
 10
470.7969001555795785
 20
0.4462199378839422
 30
0.0
 11
470.741908474479601
 21
0.4462199378839422
 31
0.0
  0
LINE
  5
2533
  8
0
 10
470.4757632595590167
 20
0.6382609488839428
 30
0.0
 11
470.8435813600079882
 21
0.6382609488839428
 31
0.0
  0
ARC
  5
2534
  8
0
 10
470.203428729541713
 20
-0.5031122324864051
 30
0.0
 40
0.1220021648381223
 50
297.247384664129072
 51
8.1969999631618897
  0
ARC
  5
2535
  8
0
 10
470.148663586789894
 20
-0.5351480197330858
 30
0.0
 40
0.1823484570213042
 50
15.7283746060251897
 51
55.414618279758173
  0
ARC
  5
2536
  8
0
 10
470.2898138302011262
 20
-0.3367221872335619
 30
0.0
 40
0.0612377747825001
 50
92.4577555050531004
 51
232.0695768436841888
  0
ARC
  5
2537
  8
0
 10
470.2915786013514889
 20
-0.2516050522209809
 30
0.0
 40
0.0243350905464448
 50
205.7163017553363886
 51
259.6051060603442124
  0
ARC
  5
2538
  8
0
 10
469.9818229011362973
 20
0.6193687516596924
 30
0.0
 40
0.5996326168877103
 50
305.9625371705229213
 51
324.9783132501033833
  0
ARC
  5
2539
  8
0
 10
470.4215130659604256
 20
0.3627528288983264
 30
0.0
 40
0.0850636897038923
 50
343.4402670602825083
 51
78.8815922720495593
  0
ARC
  5
253A
  8
0
 10
470.2877233871178078
 20
0.4023628452470476
 30
0.0
 40
0.2245936909883984
 50
325.5297551195798178
 51
343.4823399541007234
  0
ARC
  5
253B
  8
0
 10
470.4954032735250848
 20
0.6150959509113711
 30
0.0
 40
0.1783923641426014
 50
243.180018846907501
 51
251.2010101349690103
  0
ARC
  5
253C
  8
0
 10
470.4267007039977102
 20
0.4738742681217794
 30
0.0
 40
0.021499273933748
 50
174.8767289788250991
 51
236.7558658672363947
  0
ARC
  5
253D
  8
0
 10
470.427221127920177
 20
0.5975364945473168
 30
0.0
 40
0.0220091312740046
 50
105.7776864393797069
 51
184.7416720940724133
  0
ARC
  5
253E
  8
0
 10
470.6366798040949107
 20
0.1035729967730212
 30
0.0
 40
0.5583802071390674
 50
106.7517945081628028
 51
112.6956382179746043
  0
ARC
  5
253F
  8
0
 10
470.4708094629539801
 20
0.6663530370735736
 30
0.0
 40
0.0285255240032158
 50
279.9532923488237088
 51
326.5862680134121092
  0
ARC
  5
2540
  8
0
 10
470.4725668308449826
 20
0.6597450704791861
 30
0.0
 40
0.0238572587262936
 50
337.5761063619776223
 51
48.9401712991643834
  0
ARC
  5
2541
  8
0
 10
470.6521816723147822
 20
0.7719406901689858
 30
0.0
 40
0.1890836414983491
 50
153.8749628680718899
 51
209.882801987052801
  0
ARC
  5
2542
  8
0
 10
470.9520257367780118
 20
0.685906418092106
 30
0.0
 40
0.4991933008552781
 50
135.0858155675880994
 51
160.1758365928359922
  0
ARC
  5
2543
  8
0
 10
470.4719740661964806
 20
0.437379086313964
 30
0.0
 40
0.1702486502078318
 50
68.4422115662324302
 51
111.5680146489614941
  0
ARC
  5
2544
  8
0
 10
470.6596662589155926
 20
-0.066619949150823
 30
0.0
 40
0.6740557455488402
 50
79.3003964890898061
 51
100.6988297651555939
  0
ARC
  5
2545
  8
0
 10
470.847381757729579
 20
0.4373347860811201
 30
0.0
 40
0.1702935568326493
 50
68.4429853119865328
 51
111.5570146880137941
  0
ARC
  5
2546
  8
0
 10
470.4719722924232883
 20
0.6341228339209053
 30
0.0
 40
0.1702486502078318
 50
248.4330184686969858
 51
291.5588215514276271
  0
ARC
  5
2547
  8
0
 10
470.6596553973516848
 20
1.1381252536388791
 30
0.0
 40
0.6740557455488402
 50
259.3022033525006123
 51
280.7006366285702939
  0
ARC
  5
2548
  8
0
 10
470.8473799830965731
 20
0.6341739032442179
 30
0.0
 40
0.1702935568326493
 50
248.4440184296443022
 51
291.5580478056702987
  0
ARC
  5
2549
  8
0
 10
470.6596700675295892
 20
1.0651668730318731
 30
0.0
 40
0.6243864701502507
 50
262.431539096272104
 51
277.5684609037280097
  0
ARC
  5
254A
  8
0
 10
470.4801749141611253
 20
0.6080706884939069
 30
0.0
 40
0.1672765317390679
 50
255.3670395591103102
 51
284.6313275457069949
  0
ARC
  5
254B
  8
0
 10
470.8391625407712127
 20
0.6041499838903377
 30
0.0
 40
0.1634870289462074
 50
255.0185654330686873
 51
284.9790572811414791
  0
LINE
  5
254C
  8
0
 10
470.9140542447506732
 20
0.5957179218424004
 30
0.0
 11
470.9140546105542739
 21
0.4757949042395389
 31
0.0
  0
ARC
  5
254D
  8
0
 10
471.1159161892696829
 20
-0.5031108407966975
 30
0.0
 40
0.1220021648381223
 50
171.8031748073559868
 51
232.8572186089558045
  0
ARC
  5
254E
  8
0
 10
471.1706814297406254
 20
-0.535146460991978
 30
0.0
 40
0.1823484570213042
 50
124.585556490750605
 51
164.271800164489008
  0
ARC
  5
254F
  8
0
 10
471.0297849748328076
 20
-0.3367996438492824
 30
0.0
 40
0.0610196032348226
 50
307.7875470712731953
 51
90.0480992456624989
  0
ARC
  5
2550
  8
0
 10
471.0289897914493054
 20
-0.2544912814340066
 30
0.0
 40
0.0213017758996596
 50
272.0014446476827175
 51
338.8868211617888164
  0
ARC
  5
2551
  8
0
 10
470.8019238177192278
 20
-0.0989319218543621
 30
0.0
 40
0.2960120185342386
 50
326.5342256496497271
 51
51.9047441262292324
  0
ARC
  5
2552
  8
0
 10
471.3509553600515005
 20
0.6304406192478709
 30
0.0
 40
0.6169907520075406
 50
215.9227649876094119
 51
233.5692087531735979
  0
ARC
  5
2553
  8
0
 10
470.8978292116858029
 20
0.3627535553568322
 30
0.0
 40
0.0850636897038923
 50
106.2060175061618992
 51
196.4244629278871912
  0
ARC
  5
2554
  8
0
 10
471.0316187697046075
 20
0.4023639798068004
 30
0.0
 40
0.2245936909883985
 50
196.4665358213692912
 51
216.5999637266635034
  0
ARC
  5
2555
  8
0
 10
470.8239382343940065
 20
0.61509645197987
 30
0.0
 40
0.1783923641426014
 50
288.796742791183874
 51
296.8201559235931768
  0
ARC
  5
2556
  8
0
 10
470.8926412346925758
 20
0.4738749787558057
 30
0.0
 40
0.021499273933748
 50
303.2443089032445869
 51
5.1234457818591617
  0
ARC
  5
2557
  8
0
 10
470.8921204335605921
 20
0.5975372035933085
 30
0.0
 40
0.0220091312740046
 50
355.2585026968333182
 51
74.2224883310075541
  0
ARC
  5
2558
  8
0
 10
470.6826632641340211
 20
0.1035730669051738
 30
0.0
 40
0.5583802071390676
 50
67.304536552524624
 51
73.2483802623364397
  0
ARC
  5
2559
  8
0
 10
470.8485318886145023
 20
0.6663536131608438
 30
0.0
 40
0.0285255240032158
 50
213.4139067570839927
 51
260.0468824217526276
  0
ARC
  5
255A
  8
0
 10
470.8467745408798919
 20
0.6597456412059515
 30
0.0
 40
0.0238572587262936
 50
131.0600034713546904
 51
202.4240684085189059
  0
ARC
  5
255B
  8
0
 10
470.6671593571783205
 20
0.7719407130123522
 30
0.0
 40
0.1890836414983491
 50
330.1173727834500937
 51
26.1252119024217215
  0
ARC
  5
255C
  8
0
 10
470.3826505549064905
 20
0.6935034220037295
 30
0.0
 40
0.4821943011338545
 50
19.5929956002547598
 51
46.6215459123673028
  0
LINE
  5
255D
  8
0
 10
470.5345301379296075
 20
0.5957184079839415
 30
0.0
 11
470.5345312192108054
 21
0.4757846402442603
 31
0.0
  0
LINE
  5
255E
  8
0
 10
470.7848113243795751
 20
0.5957167180339411
 30
0.0
 11
470.7848124055896051
 21
0.4757908430905964
 31
0.0
  0
ARC
  5
255F
  8
0
 10
470.6708835123121162
 20
0.9578563005272968
 30
0.0
 40
0.1082505043488082
 50
108.0107489452005041
 51
131.9539406279648972
  0
ARC
  5
2560
  8
0
 10
470.6598130088088965
 20
0.9891292246587327
 30
0.0
 40
0.0750919593223367
 50
90.4237059603660782
 51
107.3556250931650027
  0
ARC
  5
2561
  8
0
 10
470.6589390531074741
 20
0.9853261245735681
 30
0.0
 40
0.0788936496579518
 50
69.7311414304760149
 51
89.7685821083297952
  0
ARC
  5
2562
  8
0
 10
470.6507853896528104
 20
0.9632470350254891
 30
0.0
 40
0.102430183451249
 50
52.0136576112342226
 51
69.7311414304792123
  0
ARC
  5
2564
  8
0
 10
470.6068526996684227
 20
-2.4987224181863601
 30
0.0
 40
0.4748600259628016
 50
96.9531511499629204
 51
120.0447051415622042
  0
ARC
  5
2565
  8
0
 10
470.4165122734074771
 20
-2.1778924412010339
 30
0.0
 40
0.101923419476241
 50
117.7203793787113
 51
170.9399614348064063
  0
ARC
  5
2566
  8
0
 10
470.458614743219016
 20
-2.1314485668428769
 30
0.0
 40
0.1459540452793256
 50
192.0194682608133121
 51
241.7401574395875912
  0
ARC
  5
2567
  8
0
 10
470.6515422727958935
 20
-2.677174729453589
 30
0.0
 40
0.6488529030794012
 50
89.3186867729292118
 51
104.9694582362943009
  0
ARC
  5
2568
  8
0
 10
470.5721574784865879
 20
-2.3802736765159618
 30
0.0
 40
0.3415221678721921
 50
104.9694582362943009
 51
122.4056020313754942
  0
ARC
  5
2569
  8
0
 10
470.4318863252296978
 20
-2.1592894681873771
 30
0.0
 40
0.079777985956711
 50
122.4056020313753947
 51
166.6699719580460908
  0
ARC
  5
256A
  8
0
 10
470.4409157763187181
 20
-2.1314316439834822
 30
0.0
 40
0.0871733514412886
 50
186.2327711887643886
 51
239.9431738571711037
  0
ARC
  5
256B
  8
0
 10
470.6379964938606122
 20
-1.778834826668525
 30
0.0
 40
0.4911026611514185
 50
240.6457738432712858
 51
272.4812703325707162
  0
ARC
  5
256C
  8
0
 10
470.4798978139681935
 20
-2.112565862740488
 30
0.0
 40
0.059524238948506
 50
121.4817360649332016
 51
182.9542346218887019
  0
ARC
  5
256D
  8
0
 10
470.5100493456452
 20
-2.0877307016802749
 30
0.0
 40
0.0938410153180182
 50
197.298067277274896
 51
249.7005955694015995
  0
ARC
  5
256E
  8
0
 10
470.6475700360115866
 20
-1.783742823464997
 30
0.0
 40
0.4273061688840129
 50
246.5455181149866917
 51
271.5673482509571954
  0
ARC
  5
256F
  8
0
 10
470.6513071287471917
 20
-1.7234938420218811
 30
0.0
 40
0.4740259931336716
 50
251.417273529677999
 51
270.961035420415385
  0
ARC
  5
2570
  8
0
 10
470.5624453606561133
 20
-1.987804810689926
 30
0.0
 40
0.1951771057654075
 50
224.8880179755279869
 51
251.417273529677999
  0
ARC
  5
2571
  8
0
 10
470.6491038918799177
 20
-1.742664438597969
 30
0.0
 40
0.4745833231876321
 50
248.0753137988457127
 51
271.2259490547253904
  0
ARC
  5
2572
  8
0
 10
470.5305350023083975
 20
-2.0372470004629188
 30
0.0
 40
0.1570341658447844
 50
220.5287369048702999
 51
248.0753137988457127
  0
ARC
  5
2573
  8
0
 10
470.4577628558553783
 20
-2.0994634358091062
 30
0.0
 40
0.061291437000501
 50
167.8750968145930074
 51
220.528736904869703
  0
ARC
  5
2574
  8
0
 10
470.659204416500188
 20
-1.521598654550171
 30
0.0
 40
0.7437979610618909
 50
265.7608808600849102
 51
270.0041048122042753
  0
ARC
  5
2575
  8
0
 10
470.6590541924866784
 20
-1.579161143015273
 30
0.0
 40
0.6679884417007828
 50
265.7475298010548954
 51
270.017455920413795
  0
LINE
  5
2576
  8
0
 10
470.609521857786774
 20
-2.2155942359515102
 30
0.0
 11
470.609521857786774
 21
-2.2446882667051389
 31
0.0
  0
LINE
  5
2577
  8
0
 10
470.6042235374100073
 20
-2.2633617636998551
 30
0.0
 11
470.6042235374100073
 21
-2.215120875140506
 31
0.0
  0
LINE
  5
2578
  8
0
 10
470.6042235374100073
 20
-2.2633617636998551
 30
0.0
 11
470.6087777289623091
 21
-2.2524463352791741
 31
0.0
  0
ARC
  5
2579
  8
0
 10
470.5732301559147004
 20
-2.2451220056402188
 30
0.0
 40
0.0362942936869155
 50
348.3575345530338723
 51
0.6847357928236633
  0
ARC
  5
257A
  8
0
 10
470.4173447843481881
 20
-2.1954486328069081
 30
0.0
 40
0.0072940724436498
 50
289.6772640635667813
 51
0.6629802204488299
  0
ARC
  5
257B
  8
0
 10
470.4855123409133739
 20
-2.2253990765048388
 30
0.0
 40
0.0094641757284472
 50
309.940109548241594
 51
0.8493906956611627
  0
LINE
  5
257C
  8
0
 10
470.4949754766867045
 20
-2.2252587784160549
 30
0.0
 11
470.4949754766867045
 21
-2.1949295808160718
 31
0.0
  0
LINE
  5
257D
  8
0
 10
470.4246383684867965
 20
-2.165203834416054
 30
0.0
 11
470.4246383684867965
 21
-2.195364233608831
 31
0.0
  0
LINE
  5
257E
  8
0
 10
470.4915882141867201
 20
-2.2326554107160561
 30
0.0
 11
470.4787685326687097
 21
-2.2434080503531031
 31
0.0
  0
LINE
  5
257F
  8
0
 10
470.4198008563867006
 20
-2.2023167623160549
 30
0.0
 11
470.4046896089155894
 21
-2.2109803128503058
 31
0.0
  0
LINE
  5
2580
  8
0
 10
470.3948070439867024
 20
-2.1740315346160548
 30
0.0
 11
470.3948070439867024
 21
-2.2054125739874162
 31
0.0
  0
LINE
  5
2581
  8
0
 10
470.3948070439867024
 20
-2.1740315346160548
 30
0.0
 11
470.4246383684867965
 21
-2.165203834416054
 31
0.0
  0
ARC
  5
2582
  8
0
 10
470.6335717489790227
 20
-1.7217204902317631
 30
0.0
 40
0.493087994281872
 50
253.6754360569611038
 51
262.846943930077714
  0
ARC
  5
2583
  8
0
 10
470.5962498129534879
 20
-1.8790521953451309
 30
0.0
 40
0.3607039444610188
 50
241.5819049558209883
 51
253.6939183623466079
  0
ARC
  5
2584
  8
0
 10
470.4249283182290924
 20
-2.1269256803275378
 30
0.0
 40
0.0520944118688059
 50
157.4233495806944916
 51
203.5558314431391977
  0
ARC
  5
2585
  8
0
 10
470.3710093175507723
 20
-2.1466596514875391
 30
0.0
 40
0.0062603292137752
 50
273.3570483290733932
 51
350.0178877069300825
  0
ARC
  5
2586
  8
0
 10
470.4765262363804936
 20
-2.0668916340159522
 30
0.0
 40
0.1111649206452821
 50
206.673635678735792
 51
242.1755055738134956
  0
ARC
  5
2587
  8
0
 10
470.3720041426955163
 20
-2.1047570598878802
 30
0.0
 40
0.0052843270601199
 50
263.1721840415601719
 51
335.7833490795803755
  0
LINE
  5
2588
  8
0
 10
470.3768260675950046
 20
-2.1069256495072959
 30
0.0
 11
470.3765480314190768
 21
-2.1018246939214111
 31
0.0
  0
LINE
  5
2589
  8
0
 10
470.3771748773867216
 20
-2.1477448214160542
 30
0.0
 11
470.3771917038866945
 21
-2.1167944419160558
 31
0.0
  0
LINE
  5
258A
  8
0
 10
470.3713759100867264
 20
-2.1529092380160568
 30
0.0
 11
470.3566538905233188
 21
-2.1537728123440441
 31
0.0
  0
LINE
  5
258B
  8
0
 10
470.3720041426955163
 20
-2.110041386948001
 30
0.0
 11
470.3687236489435008
 21
-2.1105554619119178
 31
0.0
  0
LINE
  5
258C
  8
0
 10
470.6592577040368042
 20
-2.0414556508121531
 30
0.0
 11
470.6458015100366765
 21
-2.0447411820660539
 31
0.0
  0
LINE
  5
258D
  8
0
 10
470.6458015100366765
 20
-2.0447411820660539
 30
0.0
 11
470.6323444151577178
 21
-2.0480247020350779
 31
0.0
  0
LINE
  5
258E
  8
0
 10
470.6323444151577178
 20
-2.0480247020350779
 30
0.0
 11
470.6054219014367845
 21
-2.0416386116160581
 31
0.0
  0
LINE
  5
258F
  8
0
 10
470.6054219014367845
 20
-2.0416386116160581
 30
0.0
 11
470.5784834594938957
 21
-2.0480327748246552
 31
0.0
  0
LINE
  5
2590
  8
0
 10
470.5784834594938957
 20
-2.0480327748246552
 30
0.0
 11
470.5515896621367915
 21
-2.0419200133160582
 31
0.0
  0
LINE
  5
2591
  8
0
 10
470.5515896621367915
 20
-2.0419200133160582
 30
0.0
 11
470.5246934557866894
 21
-2.0480245897160572
 31
0.0
  0
LINE
  5
2592
  8
0
 10
470.5246934557866894
 20
-2.0480245897160572
 30
0.0
 11
470.5074138931364018
 21
-2.0445317811712931
 31
0.0
  0
LINE
  5
2593
  8
0
 10
470.6592577040368042
 20
-2.0677245596706402
 30
0.0
 11
470.6323416424538095
 21
-2.0617641152749249
 31
0.0
  0
LINE
  5
2594
  8
0
 10
470.6323416424538095
 20
-2.0617641152749249
 30
0.0
 11
470.605432293886679
 21
-2.0677244755160582
 31
0.0
  0
LINE
  5
2595
  8
0
 10
470.605432293886679
 20
-2.0677244755160582
 30
0.0
 11
470.5785154889222781
 21
-2.0617637220540672
 31
0.0
  0
LINE
  5
2596
  8
0
 10
470.5785154889222781
 20
-2.0617637220540672
 30
0.0
 11
470.5514850609300197
 21
-2.06775250660246
 31
0.0
  0
LINE
  5
2597
  8
0
 10
470.5514850609300197
 20
-2.06775250660246
 30
0.0
 11
470.5246898984223094
 21
-2.0617637220540699
 31
0.0
  0
LINE
  5
2598
  8
0
 10
470.5246898984223094
 20
-2.0617637220540699
 30
0.0
 11
470.4977811218867032
 21
-2.0677242036160588
 31
0.0
  0
LINE
  5
2599
  8
0
 10
470.4977811218867032
 20
-2.0677242036160588
 30
0.0
 11
470.4708642502582734
 21
-2.0617637360974181
 31
0.0
  0
LINE
  5
259A
  8
0
 10
470.4708642502582734
 20
-2.0617637360974181
 30
0.0
 11
470.4396977853763815
 21
-2.0686671984827711
 31
0.0
  0
LINE
  5
259B
  8
0
 10
470.6592577040368042
 20
-2.0808574060263778
 30
0.0
 11
470.6300122804868238
 21
-2.087460000816058
 31
0.0
  0
LINE
  5
259C
  8
0
 10
470.6300122804868238
 20
-2.087460000816058
 30
0.0
 11
470.6054323328013993
 21
-2.0814627497508869
 31
0.0
  0
LINE
  5
259D
  8
0
 10
470.6054323328013993
 20
-2.0814627497508869
 30
0.0
 11
470.5786764191266798
 21
-2.0880684594993708
 31
0.0
  0
LINE
  5
259E
  8
0
 10
470.5786764191266798
 20
-2.0880684594993708
 30
0.0
 11
470.5516025018096116
 21
-2.0814636508046709
 31
0.0
  0
LINE
  5
259F
  8
0
 10
470.5516025018096116
 20
-2.0814636508046709
 30
0.0
 11
470.5245730449695998
 21
-2.0874524810115922
 31
0.0
  0
LINE
  5
25A0
  8
0
 10
470.5245730449695998
 20
-2.0874524810115922
 30
0.0
 11
470.4977811516210977
 21
-2.0814634916333712
 31
0.0
  0
LINE
  5
25A1
  8
0
 10
470.4977811516210977
 20
-2.0814634916333712
 30
0.0
 11
470.4707469229271055
 21
-2.087452746903522
 31
0.0
  0
LINE
  5
25A2
  8
0
 10
470.4707469229271055
 20
-2.087452746903522
 30
0.0
 11
470.4439553417867046
 21
-2.0814634381160562
 31
0.0
  0
LINE
  5
25A3
  8
0
 10
470.4439553417867046
 20
-2.0814634381160562
 30
0.0
 11
470.426807985591779
 21
-2.085647371970182
 31
0.0
  0
ARC
  5
25A4
  8
0
 10
470.6286089256329888
 20
-2.0537626074228461
 30
0.0
 40
0.0088293432808433
 50
295.0091302502531221
 51
348.6391631247652185
  0
ARC
  5
25A5
  8
0
 10
470.6360777576838927
 20
-2.0537689629931739
 30
0.0
 40
0.0088250222107733
 50
191.2964158546309079
 51
244.9534300597256049
  0
LINE
  5
25A6
  8
0
 10
470.6274237033866825
 20
-2.0468574963788271
 30
0.0
 11
470.6274237033866825
 21
-2.0554976507157998
 31
0.0
  0
LINE
  5
25A7
  8
0
 10
470.6372676455233091
 20
-2.046823437916593
 30
0.0
 11
470.6372652671977903
 21
-2.055501875509758
 31
0.0
  0
ARC
  5
25A8
  8
0
 10
470.5747827721015142
 20
-2.053762214201988
 30
0.0
 40
0.0088293432808433
 50
295.0091302502531221
 51
348.6391631247652185
  0
ARC
  5
25A9
  8
0
 10
470.5822516041523045
 20
-2.0537685697723158
 30
0.0
 40
0.0088250222107733
 50
191.2964158546309079
 51
244.9534300597256049
  0
LINE
  5
25AA
  8
0
 10
470.5735975498552079
 20
-2.0469222436498589
 30
0.0
 11
470.5735975498552079
 21
-2.0554972574949408
 31
0.0
  0
LINE
  5
25AB
  8
0
 10
470.5834414829801062
 20
-2.0468559283155119
 30
0.0
 11
470.5834391136663157
 21
-2.0555014822888991
 31
0.0
  0
ARC
  5
25AC
  8
0
 10
470.5209571816014886
 20
-2.053762214201988
 30
0.0
 40
0.0088293432808433
 50
295.0091302503470274
 51
348.6391631247652185
  0
ARC
  5
25AD
  8
0
 10
470.5284260136522789
 20
-2.0537685697723189
 30
0.0
 40
0.0088250222107733
 50
191.2964158546309079
 51
244.9534300597256049
  0
LINE
  5
25AE
  8
0
 10
470.5197719593551824
 20
-2.0470297818533281
 30
0.0
 11
470.5197719593551824
 21
-2.0554972574949408
 31
0.0
  0
LINE
  5
25AF
  8
0
 10
470.5296158783858118
 20
-2.0469073576262242
 30
0.0
 11
470.5296135231662902
 21
-2.0555014822889031
 31
0.0
  0
ARC
  5
25B0
  8
0
 10
470.4671315334373958
 20
-2.0537622282453318
 30
0.0
 40
0.0088293432808433
 50
295.0091302502531221
 51
348.6391631247652185
  0
ARC
  5
25B1
  8
0
 10
470.4746003654882998
 20
-2.0537685838156641
 30
0.0
 40
0.0088250222107733
 50
192.473475663295801
 51
244.9534300597256049
  0
LINE
  5
25B2
  8
0
 10
470.4757886619623264
 20
-2.0526299029602408
 30
0.0
 11
470.4757878750021973
 21
-2.0555014963322469
 31
0.0
  0
ARC
  5
25B3
  8
0
 10
470.6016996159805785
 20
-2.0734612418988041
 30
0.0
 40
0.0088293432808433
 50
295.0091302502531221
 51
348.6391631247652185
  0
ARC
  5
25B4
  8
0
 10
470.6091684480314257
 20
-2.0734675974691319
 30
0.0
 40
0.0088250222107733
 50
191.2964158546309079
 51
244.9534300597256049
  0
LINE
  5
25B5
  8
0
 10
470.6005143937342723
 20
-2.0666354015937141
 30
0.0
 11
470.6005143937342723
 21
-2.0751962851917578
 31
0.0
  0
LINE
  5
25B6
  8
0
 10
470.6103583053683224
 20
-2.0666333750418531
 30
0.0
 11
470.6103559575453801
 21
-2.075200509985716
 31
0.0
  0
ARC
  5
25B7
  8
0
 10
470.5478697849887908
 20
-2.073462142952589
 30
0.0
 40
0.0088293432808433
 50
295.0091302502531221
 51
348.6391631247652185
  0
ARC
  5
25B8
  8
0
 10
470.5553386170395811
 20
-2.0734684985229168
 30
0.0
 40
0.0088250222107733
 50
191.2964158546309079
 51
244.9534300597256049
  0
LINE
  5
25B9
  8
0
 10
470.5466845627424846
 20
-2.0666795834820308
 30
0.0
 11
470.5466845627424846
 21
-2.0751971862455418
 31
0.0
  0
LINE
  5
25BA
  8
0
 10
470.5565284741501273
 20
-2.0666351023507801
 30
0.0
 11
470.5565261265535923
 21
-2.0752014110395001
 31
0.0
  0
ARC
  5
25BB
  8
0
 10
470.4940484348002769
 20
-2.0734619837812889
 30
0.0
 40
0.0088293432808433
 50
295.0091302502531221
 51
348.6391631247652185
  0
ARC
  5
25BC
  8
0
 10
470.5015172668511241
 20
-2.0734683393516171
 30
0.0
 40
0.0088250222107733
 50
191.2964158546309079
 51
244.9534300597256049
  0
LINE
  5
25BD
  8
0
 10
470.4928632125540275
 20
-2.066635182601952
 30
0.0
 11
470.4928632125540275
 21
-2.0751970270742421
 31
0.0
  0
LINE
  5
25BE
  8
0
 10
470.5027071244778085
 20
-2.0666330597069549
 30
0.0
 11
470.5027047763650785
 21
-2.0752012518681999
 31
0.0
  0
ARC
  5
25BF
  8
0
 10
470.4402226249658838
 20
-2.0734619302639739
 30
0.0
 40
0.0088293432808433
 50
295.0091302502531221
 51
348.6391631247652185
  0
ARC
  5
25C0
  8
0
 10
470.4476914570166741
 20
-2.0734682858343021
 30
0.0
 40
0.0088250222107733
 50
191.2964158546309079
 51
244.9534300597256049
  0
LINE
  5
25C1
  8
0
 10
470.4390374027195776
 20
-2.0692812024669598
 30
0.0
 11
470.4390374027195776
 21
-2.0751969735569271
 31
0.0
  0
LINE
  5
25C2
  8
0
 10
470.4488813146396069
 20
-2.0666330201095171
 30
0.0
 11
470.4488789665306854
 21
-2.0752011983508849
 31
0.0
  0
LINE
  5
25C3
  8
0
 10
470.6592577040368042
 20
-2.1208613385508239
 30
0.0
 11
470.6458011823024208
 21
-2.1241469498259589
 31
0.0
  0
LINE
  5
25C4
  8
0
 10
470.6458011823024208
 20
-2.1241469498259589
 30
0.0
 11
470.6323440874235189
 21
-2.1274304697949828
 31
0.0
  0
LINE
  5
25C5
  8
0
 10
470.6323440874235189
 20
-2.1274304697949828
 30
0.0
 11
470.6054215737024151
 21
-2.121044379375959
 31
0.0
  0
LINE
  5
25C6
  8
0
 10
470.6054215737024151
 20
-2.121044379375959
 30
0.0
 11
470.5784831317595831
 21
-2.1274385425845561
 31
0.0
  0
LINE
  5
25C7
  8
0
 10
470.5784831317595831
 20
-2.1274385425845561
 30
0.0
 11
470.5515893344024221
 21
-2.12132578107596
 31
0.0
  0
LINE
  5
25C8
  8
0
 10
470.5515893344024221
 20
-2.12132578107596
 30
0.0
 11
470.5246931280524905
 21
-2.1274303574759621
 31
0.0
  0
LINE
  5
25C9
  8
0
 10
470.5246931280524905
 20
-2.1274303574759621
 30
0.0
 11
470.4977804582534873
 21
-2.1208633242259149
 31
0.0
  0
LINE
  5
25CA
  8
0
 10
470.6592577040368042
 20
-2.14713040000587
 30
0.0
 11
470.6323413147194969
 21
-2.1411698830348298
 31
0.0
  0
LINE
  5
25CB
  8
0
 10
470.6323413147194969
 20
-2.1411698830348298
 30
0.0
 11
470.6054319661524232
 21
-2.14713024327596
 31
0.0
  0
LINE
  5
25CC
  8
0
 10
470.6054319661524232
 20
-2.14713024327596
 30
0.0
 11
470.5785151611880224
 21
-2.1411694898139721
 31
0.0
  0
LINE
  5
25CD
  8
0
 10
470.5785151611880224
 20
-2.1411694898139721
 30
0.0
 11
470.5514847331957071
 21
-2.1471582743623641
 31
0.0
  0
LINE
  5
25CE
  8
0
 10
470.5514847331957071
 20
-2.1471582743623641
 30
0.0
 11
470.5246895706879968
 21
-2.1411694898139748
 31
0.0
  0
LINE
  5
25CF
  8
0
 10
470.5246895706879968
 20
-2.1411694898139748
 30
0.0
 11
470.4977807941523906
 21
-2.1471299713759602
 31
0.0
  0
LINE
  5
25D0
  8
0
 10
470.4977807941523906
 20
-2.1471299713759602
 30
0.0
 11
470.4708696572866984
 21
-2.140563162116059
 31
0.0
  0
ARC
  5
25D1
  8
0
 10
470.6286085978986762
 20
-2.1331683751827479
 30
0.0
 40
0.0088293432808433
 50
295.0091302502531221
 51
348.6391631247652185
  0
ARC
  5
25D2
  8
0
 10
470.6360774299495233
 20
-2.1331747307530788
 30
0.0
 40
0.0088250222107733
 50
191.2964158546309079
 51
244.9534300597256049
  0
LINE
  5
25D3
  8
0
 10
470.6274233756524268
 20
-2.126263264138732
 30
0.0
 11
470.6274233756524268
 21
-2.1349034184757012
 31
0.0
  0
LINE
  5
25D4
  8
0
 10
470.6372673177889965
 20
-2.126229205676494
 30
0.0
 11
470.6372649394634777
 21
-2.134907643269663
 31
0.0
  0
ARC
  5
25D5
  8
0
 10
470.5747824443673153
 20
-2.1331679819618889
 30
0.0
 40
0.0088293432808433
 50
295.0091302502531221
 51
348.6391631247652185
  0
ARC
  5
25D6
  8
0
 10
470.5822512764179919
 20
-2.1331743375322212
 30
0.0
 40
0.0088250222107733
 50
191.2964158546307942
 51
244.9534300597256049
  0
LINE
  5
25D7
  8
0
 10
470.5735972221208954
 20
-2.1263280114097611
 30
0.0
 11
470.5735972221208954
 21
-2.1349030252548431
 31
0.0
  0
LINE
  5
25D8
  8
0
 10
470.58344115524568
 20
-2.1262616960754168
 30
0.0
 11
470.5834387859320032
 21
-2.134907250048804
 31
0.0
  0
ARC
  5
25D9
  8
0
 10
470.5209568538672897
 20
-2.1331679819618929
 30
0.0
 40
0.0088293432808433
 50
295.0091302503470274
 51
348.6391631247652185
  0
ARC
  5
25DA
  8
0
 10
470.5284256859180232
 20
-2.1331743375322239
 30
0.0
 40
0.0088250222107733
 50
191.2964158546307942
 51
244.9534300597256049
  0
LINE
  5
25DB
  8
0
 10
470.5197716316209267
 20
-2.126435549613233
 30
0.0
 11
470.5197716316209267
 21
-2.1349030252548462
 31
0.0
  0
LINE
  5
25DC
  8
0
 10
470.5296155506514992
 20
-2.126313125386126
 30
0.0
 11
470.5296131954319776
 21
-2.134907250048804
 31
0.0
  0
LINE
  5
25DD
  8
0
 10
470.6592577040368042
 20
-2.1602606537732809
 30
0.0
 11
470.6457970986572832
 21
-2.1635472621315368
 31
0.0
  0
LINE
  5
25DE
  8
0
 10
470.6457970986572832
 20
-2.1635472621315368
 30
0.0
 11
470.6323400037783244
 21
-2.1668307821005608
 31
0.0
  0
LINE
  5
25DF
  8
0
 10
470.6323400037783244
 20
-2.1668307821005608
 30
0.0
 11
470.6054174900572775
 21
-2.1604446916815361
 31
0.0
  0
LINE
  5
25E0
  8
0
 10
470.6054174900572775
 20
-2.1604446916815361
 30
0.0
 11
470.5784790481143887
 21
-2.1668388548901341
 31
0.0
  0
LINE
  5
25E1
  8
0
 10
470.5784790481143887
 20
-2.1668388548901341
 30
0.0
 11
470.5515852507572845
 21
-2.1607260933815371
 31
0.0
  0
LINE
  5
25E2
  8
0
 10
470.5515852507572845
 20
-2.1607260933815371
 30
0.0
 11
470.5246890444071823
 21
-2.1668306697815392
 31
0.0
  0
LINE
  5
25E3
  8
0
 10
470.5246890444071823
 20
-2.1668306697815392
 30
0.0
 11
470.4986591806160732
 21
-2.1615691170149058
 31
0.0
  0
LINE
  5
25E4
  8
0
 10
470.6592577040368042
 20
-2.1865316166168571
 30
0.0
 11
470.6323372310744162
 21
-2.1805701953404082
 31
0.0
  0
LINE
  5
25E5
  8
0
 10
470.6323372310744162
 20
-2.1805701953404082
 30
0.0
 11
470.6054278825072856
 21
-2.1865305555815371
 31
0.0
  0
LINE
  5
25E6
  8
0
 10
470.6054278825072856
 20
-2.1865305555815371
 30
0.0
 11
470.5785110775428848
 21
-2.1805698021195492
 31
0.0
  0
LINE
  5
25E7
  8
0
 10
470.5785110775428848
 20
-2.1805698021195492
 30
0.0
 11
470.550725394686026
 21
-2.1867259187821122
 31
0.0
  0
ARC
  5
25E8
  8
0
 10
470.6286045142535954
 20
-2.172568687488325
 30
0.0
 40
0.0088293432808433
 50
295.0091302502531221
 51
348.6391631247652185
  0
ARC
  5
25E9
  8
0
 10
470.6360733463043857
 20
-2.1725750430586568
 30
0.0
 40
0.0088250222107733
 50
191.2964158546309079
 51
244.9534300597256049
  0
LINE
  5
25EA
  8
0
 10
470.6274192920072892
 20
-2.1656635764443091
 30
0.0
 11
470.6274192920072892
 21
-2.1743037307812791
 31
0.0
  0
LINE
  5
25EB
  8
0
 10
470.6372632341436884
 20
-2.1656295179820719
 30
0.0
 11
470.637260855818397
 21
-2.1743079555752369
 31
0.0
  0
ARC
  5
25EC
  8
0
 10
470.5747783607221209
 20
-2.1725682942674669
 30
0.0
 40
0.0088293432808433
 50
295.0091302502531221
 51
348.6391631247652185
  0
ARC
  5
25ED
  8
0
 10
470.5822471927729111
 20
-2.1725746498377978
 30
0.0
 40
0.0088250222107733
 50
191.2964158546307942
 51
244.9534300597256049
  0
LINE
  5
25EE
  8
0
 10
470.5735931384758146
 20
-2.1657283237153382
 30
0.0
 11
470.5735931384757009
 21
-2.1743033375604202
 31
0.0
  0
LINE
  5
25EF
  8
0
 10
470.5834370716004855
 20
-2.1656620083809912
 30
0.0
 11
470.5834347022868087
 21
-2.1743075623543779
 31
0.0
  0
ARC
  5
25F0
  8
0
 10
470.5209527702220953
 20
-2.17256829426747
 30
0.0
 40
0.0088293432808433
 50
297.5863064057909924
 51
348.6391631247652185
  0
ARC
  5
25F1
  8
0
 10
470.5284216022728856
 20
-2.1725746498377978
 30
0.0
 40
0.0088250222107733
 50
191.2964158546307942
 51
237.4528550961591122
  0
LINE
  5
25F2
  8
0
 10
470.5197675479757891
 20
-2.1658358619188069
 30
0.0
 11
470.5197675479757891
 21
-2.1743033375604242
 31
0.0
  0
LINE
  5
25F3
  8
0
 10
470.5296114670063048
 20
-2.1657134376917031
 30
0.0
 11
470.5296091117868968
 21
-2.1743075623543819
 31
0.0
  0
LINE
  5
25F4
  8
0
 10
470.4977658189866929
 20
-2.120819966216057
 30
0.0
 11
470.4707573022167821
 21
-2.1268502612501079
 31
0.0
  0
LINE
  5
25F5
  8
0
 10
470.4707573022167821
 20
-2.1268502612501079
 30
0.0
 11
470.4439515252649926
 21
-2.1208638139203511
 31
0.0
  0
LINE
  5
25F6
  8
0
 10
470.4439515252649926
 20
-2.1208638139203511
 30
0.0
 11
470.4242811447434747
 21
-2.1256625346526761
 31
0.0
  0
LINE
  5
25F7
  8
0
 10
470.4708696572866984
 20
-2.140563162116059
 30
0.0
 11
470.4476516746847778
 21
-2.145654461548208
 31
0.0
  0
LINE
  5
25F8
  8
0
 10
470.6592577040368042
 20
-2.1071498203180878
 30
0.0
 11
470.6322925796255277
 21
-2.1011785111731309
 31
0.0
  0
LINE
  5
25F9
  8
0
 10
470.6322925796255277
 20
-2.1011785111731309
 30
0.0
 11
470.6053832310585108
 21
-2.1071388714142598
 31
0.0
  0
LINE
  5
25FA
  8
0
 10
470.6053832310585108
 20
-2.1071388714142598
 30
0.0
 11
470.5784664260939962
 21
-2.1011781179522719
 31
0.0
  0
LINE
  5
25FB
  8
0
 10
470.5784664260939962
 20
-2.1011781179522719
 30
0.0
 11
470.5514359981017947
 21
-2.1071669025006652
 31
0.0
  0
LINE
  5
25FC
  8
0
 10
470.5514359981017947
 20
-2.1071669025006652
 30
0.0
 11
470.5246408355940275
 21
-2.1011781179522759
 31
0.0
  0
LINE
  5
25FD
  8
0
 10
470.5246408355940275
 20
-2.1011781179522759
 30
0.0
 11
470.4977320590584782
 21
-2.1071385995142609
 31
0.0
  0
LINE
  5
25FE
  8
0
 10
470.4977320590584782
 20
-2.1071385995142609
 30
0.0
 11
470.4708209221926722
 21
-2.1005717902543561
 31
0.0
  0
LINE
  5
25FF
  8
0
 10
470.4708209221926722
 20
-2.1005717902543561
 30
0.0
 11
470.4431677683039084
 21
-2.1066356455472568
 31
0.0
  0
LINE
  5
2600
  8
0
 10
470.4986591806160732
 20
-2.1615691170149058
 30
0.0
 11
470.4806617497025059
 21
-2.1650209036226959
 31
0.0
  0
LINE
  5
2601
  8
0
 10
470.4431677683039084
 20
-2.1066356455472568
 30
0.0
 11
470.4216771416615188
 21
-2.1001768216736489
 31
0.0
  0
ARC
  5
2602
  8
0
 10
470.6285598628044795
 20
-2.093177003320899
 30
0.0
 40
0.0088293432808433
 50
295.0091302502531221
 51
348.6391631247652185
  0
ARC
  5
2603
  8
0
 10
470.6360286948553266
 20
-2.0931833588912312
 30
0.0
 40
0.0088250222107733
 50
191.2964158546307942
 51
244.9534300597256049
  0
LINE
  5
2604
  8
0
 10
470.6273746405581733
 20
-2.0868164441627419
 30
0.0
 11
470.6273746405581733
 21
-2.0949120466138562
 31
0.0
  0
LINE
  5
2605
  8
0
 10
470.637218693627176
 20
-2.0858330445241751
 30
0.0
 11
470.6372162043692811
 21
-2.0949162714078109
 31
0.0
  0
ARC
  5
2606
  8
0
 10
470.5747337092730049
 20
-2.0931766101000409
 30
0.0
 40
0.0088293432808433
 50
295.0091302502531221
 51
348.6391631247652185
  0
ARC
  5
2607
  8
0
 10
470.5822025413237952
 20
-2.0931829656703722
 30
0.0
 40
0.0088250222107733
 50
191.2964158546307942
 51
244.9534300597256049
  0
LINE
  5
2608
  8
0
 10
470.5735484870266987
 20
-2.0868174764915111
 30
0.0
 11
470.5735484870266987
 21
-2.0949116533929981
 31
0.0
  0
LINE
  5
2609
  8
0
 10
470.5833922464435091
 20
-2.0869041790768099
 30
0.0
 11
470.5833900508378065
 21
-2.0949158781869519
 31
0.0
  0
ARC
  5
260A
  8
0
 10
470.5209081187729794
 20
-2.093176610100044
 30
0.0
 40
0.0088293432808433
 50
295.0091302502531221
 51
348.6391631247652185
  0
ARC
  5
260B
  8
0
 10
470.5283769508238265
 20
-2.0931829656703722
 30
0.0
 40
0.0088250222107733
 50
191.2964158546307942
 51
244.9534300597256049
  0
LINE
  5
260C
  8
0
 10
470.5197228965266731
 20
-2.0863682915842179
 30
0.0
 11
470.5197228965266731
 21
-2.0949116533929981
 31
0.0
  0
LINE
  5
260D
  8
0
 10
470.5295668089045762
 20
-2.0863460287259552
 30
0.0
 11
470.5295644603377809
 21
-2.0949158781869559
 31
0.0
  0
ARC
  5
260E
  8
0
 10
470.4670882053716809
 20
-2.0925702824021282
 30
0.0
 40
0.0088293432808433
 50
295.0091302502531221
 51
348.6391631247652185
  0
ARC
  5
260F
  8
0
 10
470.4745570374225281
 20
-2.092576637972456
 30
0.0
 40
0.0088250222107733
 50
191.2964158546307942
 51
244.9534300597256049
  0
LINE
  5
2610
  8
0
 10
470.4659029831253747
 20
-2.086369874971914
 30
0.0
 11
470.4659029831253747
 21
-2.094305325695081
 31
0.0
  0
LINE
  5
2611
  8
0
 10
470.4757467296012123
 20
-2.0863450726727519
 30
0.0
 11
470.4757445469364825
 21
-2.0943095504890401
 31
0.0
  0
ARC
  5
2612
  8
0
 10
470.4402188084437739
 20
-2.1128623060681191
 30
0.0
 40
0.0088293432808433
 50
295.0091302502531221
 51
348.6391631247652185
  0
ARC
  5
2613
  8
0
 10
470.4476876404946779
 20
-2.1128686616384509
 30
0.0
 40
0.0088250222107733
 50
191.2964158546307942
 51
244.9534300597256049
  0
LINE
  5
2614
  8
0
 10
470.4390335861975245
 20
-2.1053931525045471
 30
0.0
 11
470.4390335861975245
 21
-2.1145973493610728
 31
0.0
  0
LINE
  5
2615
  8
0
 10
470.448877676204404
 20
-2.1053835621363239
 30
0.0
 11
470.4488751500085755
 21
-2.114601574155031
 31
0.0
  0
ARC
  5
2616
  8
0
 10
470.4940477414323823
 20
-2.112861816373683
 30
0.0
 40
0.0088293432808433
 50
295.0091302502531221
 51
348.6391631247652185
  0
ARC
  5
2617
  8
0
 10
470.5015165734831726
 20
-2.1128681719440152
 30
0.0
 40
0.0088250222107733
 50
191.2964158546307942
 51
244.9534300597256049
  0
LINE
  5
2618
  8
0
 10
470.492862519186076
 20
-2.1059503427830388
 30
0.0
 11
470.492862519186076
 21
-2.1145968596666371
 31
0.0
  0
LINE
  5
2619
  8
0
 10
470.5027064300550137
 20
-2.1060367416662191
 30
0.0
 11
470.502704082997127
 21
-2.1146010844605949
 31
0.0
  0
ARC
  5
261A
  8
0
 10
470.5478566175813739
 20
-2.1133242732237321
 30
0.0
 40
0.0088293432808433
 50
295.0091302502531221
 51
348.6391631247652185
  0
ARC
  5
261B
  8
0
 10
470.5553254496321074
 20
-2.113330628794059
 30
0.0
 40
0.0088250222107733
 50
191.2964158546307942
 51
244.9534300597256049
  0
LINE
  5
261C
  8
0
 10
470.5466713953351245
 20
-2.10610200209485
 30
0.0
 11
470.5466713953351245
 21
-2.1150593165166849
 31
0.0
  0
LINE
  5
261D
  8
0
 10
470.5565154316313965
 20
-2.1060415176919132
 30
0.0
 11
470.5565129591461755
 21
-2.1150635413106431
 31
0.0
  0
ARC
  5
261E
  8
0
 10
470.6016888568814238
 20
-2.113042871523731
 30
0.0
 40
0.0088293432808433
 50
295.0091302502531221
 51
348.6391631247652185
  0
ARC
  5
261F
  8
0
 10
470.6091576889321004
 20
-2.1130492270940588
 30
0.0
 40
0.0088250222107733
 50
191.2964158546307942
 51
244.9534300597256049
  0
LINE
  5
2620
  8
0
 10
470.6005036346351176
 20
-2.106058279891144
 30
0.0
 11
470.6005036346351176
 21
-2.1147779148166839
 31
0.0
  0
LINE
  5
2621
  8
0
 10
470.6103475944274805
 20
-2.1060392760831581
 30
0.0
 11
470.6103451984462254
 21
-2.1147821396106421
 31
0.0
  0
ARC
  5
2622
  8
0
 10
470.6016847732361725
 20
-2.152443183829305
 30
0.0
 40
0.0088293432808433
 50
295.0091302502531221
 51
348.6391631247652185
  0
ARC
  5
2623
  8
0
 10
470.6091536052870197
 20
-2.1524495393996359
 30
0.0
 40
0.0088250222107733
 50
191.2964158546307942
 51
244.9534300597256049
  0
LINE
  5
2624
  8
0
 10
470.6004995509899231
 20
-2.1460379549900699
 30
0.0
 11
470.6004995509899231
 21
-2.1541782271222578
 31
0.0
  0
LINE
  5
2625
  8
0
 10
470.6103433455862728
 20
-2.1460423837674512
 30
0.0
 11
470.6103411148009741
 21
-2.15418245191622
 31
0.0
  0
ARC
  5
2626
  8
0
 10
470.5478525339361795
 20
-2.152724585529306
 30
0.0
 40
0.0088293432808433
 50
295.0091302502531221
 51
348.6391631247652185
  0
ARC
  5
2627
  8
0
 10
470.5553213659870266
 20
-2.1527309410996369
 30
0.0
 40
0.0088250222107733
 50
191.2964158546307942
 51
244.9534300597256049
  0
LINE
  5
2628
  8
0
 10
470.5466673116898733
 20
-2.1460815688387882
 30
0.0
 11
470.5466673116898733
 21
-2.1544596288222588
 31
0.0
  0
LINE
  5
2629
  8
0
 10
470.5565111827892224
 20
-2.1460446285234052
 30
0.0
 11
470.556508875500981
 21
-2.1544638536162211
 31
0.0
  0
ARC
  5
262A
  8
0
 10
470.494926463795025
 20
-2.1535676091626779
 30
0.0
 40
0.0088293432808433
 50
295.0091302502531221
 51
348.6391631247652185
  0
ARC
  5
262B
  8
0
 10
470.5023952958458153
 20
-2.1535739647330061
 30
0.0
 40
0.0088250222107733
 50
191.2964158546307942
 51
244.9534300597256049
  0
LINE
  5
262C
  8
0
 10
470.4937412415487188
 20
-2.1461442467082739
 30
0.0
 11
470.4937412415487188
 21
-2.1553026524556311
 31
0.0
  0
LINE
  5
262D
  8
0
 10
470.5035853986029792
 20
-2.145844211030937
 30
0.0
 11
470.5035828053598266
 21
-2.1553068772495889
 31
0.0
  0
ARC
  5
262E
  8
0
 10
470.4671369404657071
 20
-2.132561654263827
 30
0.0
 40
0.0088293432808433
 50
295.0091302502531221
 51
348.6391631247652185
  0
ARC
  5
262F
  8
0
 10
470.4746057725164974
 20
-2.1325680098341548
 30
0.0
 40
0.0088250222107733
 50
191.2964158546307942
 51
244.9534300597256049
  0
LINE
  5
2630
  8
0
 10
470.4659517182194008
 20
-2.1257790947932689
 30
0.0
 11
470.4659517182194008
 21
-2.1342966975567812
 31
0.0
  0
LINE
  5
2631
  8
0
 10
470.4757956296268731
 20
-2.1257346136620181
 30
0.0
 11
470.4757932820305086
 21
-2.134300922350739
 31
0.0
  0
ARC
  5
2632
  8
0
 10
470.5478569453155728
 20
-2.0339185054638271
 30
0.0
 40
0.0088293432808433
 50
295.0091302502531221
 51
348.6391631247652185
  0
ARC
  5
2633
  8
0
 10
470.5553257773664768
 20
-2.033924861034154
 30
0.0
 40
0.0088250222107733
 50
199.0263972744662908
 51
244.9534300597256049
  0
LINE
  5
2634
  8
0
 10
470.556513379896785
 20
-2.035318359734525
 30
0.0
 11
470.5565132868803744
 21
-2.0356577735507382
 31
0.0
  0
ARC
  5
2635
  8
0
 10
470.6016891846156227
 20
-2.0336371037638261
 30
0.0
 40
0.0088293432808433
 50
295.0091302502531221
 51
348.6391631247652185
  0
ARC
  5
2636
  8
0
 10
470.6091580166665267
 20
-2.0336434593341539
 30
0.0
 40
0.0088250222107733
 50
191.2964158546307942
 51
244.9534300597256049
  0
LINE
  5
2637
  8
0
 10
470.6005039623693165
 20
-2.030332259679557
 30
0.0
 11
470.6005039623693165
 21
-2.0353721470567789
 31
0.0
  0
LINE
  5
2638
  8
0
 10
470.6103471007344865
 20
-2.0296308717625449
 30
0.0
 11
470.6103455261804243
 21
-2.0353763718507381
 31
0.0
  0
ARC
  5
2639
  8
0
 10
470.9020031346660744
 20
-2.1778924412010339
 30
0.0
 40
0.101923419476241
 50
9.0600385651933752
 51
62.2796206212886503
  0
ARC
  5
263A
  8
0
 10
470.8599006648544787
 20
-2.1314485668428769
 30
0.0
 40
0.1459540452793256
 50
298.2636846560582171
 51
347.9805317391864037
  0
ARC
  5
263B
  8
0
 10
470.6669731352776012
 20
-2.677174729453589
 30
0.0
 40
0.6488529030794012
 50
75.0305417637056848
 51
90.6813132270707882
  0
ARC
  5
263C
  8
0
 10
470.746357929586793
 20
-2.3802736765159618
 30
0.0
 40
0.3415221678721921
 50
57.5943979686244418
 51
75.0305417637056848
  0
ARC
  5
263D
  8
0
 10
470.8866290828436831
 20
-2.1592894681873771
 30
0.0
 40
0.079777985956711
 50
13.3300280419536801
 51
57.5943979686245413
  0
ARC
  5
263E
  8
0
 10
470.8775996317547765
 20
-2.1314316439834822
 30
0.0
 40
0.0871733514412886
 50
300.0568261428289247
 51
353.7672288112356114
  0
ARC
  5
263F
  8
0
 10
470.6805189142128825
 20
-1.778834826668525
 30
0.0
 40
0.4911026611514185
 50
267.5187296674292838
 51
299.3542261567286005
  0
ARC
  5
2640
  8
0
 10
470.8386175941051874
 20
-2.112565862740488
 30
0.0
 40
0.059524238948506
 50
357.0457653781111276
 51
58.5182639350667415
  0
ARC
  5
2641
  8
0
 10
470.8084660624282947
 20
-2.0877307016802749
 30
0.0
 40
0.0938410153180182
 50
290.2994044305983721
 51
342.7019327227250756
  0
ARC
  5
2642
  8
0
 10
470.6709453720617944
 20
-1.783742823464997
 30
0.0
 40
0.4273061688840129
 50
268.4326517490429183
 51
293.4544818850133083
  0
ARC
  5
2643
  8
0
 10
470.667208279326303
 20
-1.7234938420218811
 30
0.0
 40
0.4740259931336716
 50
269.038964579584615
 51
288.5827264703219157
  0
ARC
  5
2644
  8
0
 10
470.7560700474173245
 20
-1.987804810689926
 30
0.0
 40
0.1951771057654075
 50
288.5827264703219726
 51
315.1119820244720131
  0
ARC
  5
2645
  8
0
 10
470.6694115161935201
 20
-1.742664438597969
 30
0.0
 40
0.4745833231876321
 50
268.7740509452746096
 51
291.9246862011543158
  0
ARC
  5
2646
  8
0
 10
470.7879804057649835
 20
-2.0372470004629188
 30
0.0
 40
0.1570341658447844
 50
291.9246862011543158
 51
319.4712630951297001
  0
ARC
  5
2647
  8
0
 10
470.8607525522181163
 20
-2.0994634358091062
 30
0.0
 40
0.061291437000501
 50
319.471263095130098
 51
12.1249031854069997
  0
ARC
  5
2648
  8
0
 10
470.6593109915733066
 20
-1.521598654550171
 30
0.0
 40
0.7437979610618909
 50
269.995895187795611
 51
274.2391191399152035
  0
ARC
  5
2649
  8
0
 10
470.6594612155867026
 20
-1.579161143015273
 30
0.0
 40
0.6679884417007828
 50
269.982544079586205
 51
274.2524701989451046
  0
LINE
  5
264A
  8
0
 10
470.7089935502867206
 20
-2.2155942359515102
 30
0.0
 11
470.7089935502867206
 21
-2.2446882667051389
 31
0.0
  0
LINE
  5
264B
  8
0
 10
470.7142918706634873
 20
-2.2633617636998551
 30
0.0
 11
470.7142918706634873
 21
-2.215120875140506
 31
0.0
  0
LINE
  5
264C
  8
0
 10
470.7142918706634873
 20
-2.2633617636998551
 30
0.0
 11
470.7097376791111856
 21
-2.2524463352791741
 31
0.0
  0
ARC
  5
264D
  8
0
 10
470.7452852521587943
 20
-2.2451220056402188
 30
0.0
 40
0.0362942936869155
 50
179.3152642071763125
 51
191.6424654469657867
  0
ARC
  5
264E
  8
0
 10
470.9011706237253065
 20
-2.1954486328069081
 30
0.0
 40
0.0072940724436498
 50
179.3370197795514116
 51
250.3227359364331903
  0
ARC
  5
264F
  8
0
 10
470.8330030671601207
 20
-2.2253990765048388
 30
0.0
 40
0.0094641757284472
 50
179.1506093043387864
 51
230.059890451758406
  0
LINE
  5
2650
  8
0
 10
470.8235399313867902
 20
-2.2252587784160549
 30
0.0
 11
470.8235399313867902
 21
-2.1949295808160718
 31
0.0
  0
LINE
  5
2651
  8
0
 10
470.8938770395866982
 20
-2.165203834416054
 30
0.0
 11
470.8938770395866982
 21
-2.195364233608831
 31
0.0
  0
LINE
  5
2652
  8
0
 10
470.8269271938867178
 20
-2.2326554107160561
 30
0.0
 11
470.839746875404785
 21
-2.2434080503531031
 31
0.0
  0
LINE
  5
2653
  8
0
 10
470.898714551686794
 20
-2.2023167623160549
 30
0.0
 11
470.9138257991579053
 21
-2.2109803128503058
 31
0.0
  0
LINE
  5
2654
  8
0
 10
470.9237083640867922
 20
-2.1740315346160548
 30
0.0
 11
470.9237083640867922
 21
-2.2054125739874162
 31
0.0
  0
LINE
  5
2655
  8
0
 10
470.9237083640867922
 20
-2.1740315346160548
 30
0.0
 11
470.8938770395866982
 21
-2.165203834416054
 31
0.0
  0
ARC
  5
2656
  8
0
 10
470.684943659094472
 20
-1.7217204902317631
 30
0.0
 40
0.493087994281872
 50
277.153056069922286
 51
286.3245639430357983
  0
ARC
  5
2657
  8
0
 10
470.7222655951200068
 20
-1.8790521953451309
 30
0.0
 40
0.3607039444610188
 50
286.3060816376532784
 51
298.4180950441789832
  0
ARC
  5
2658
  8
0
 10
470.8935870898442886
 20
-2.1269256803275378
 30
0.0
 40
0.0520944118688059
 50
336.4441685568609159
 51
22.5766504193056186
  0
ARC
  5
2659
  8
0
 10
470.9475060905227224
 20
-2.1466596514875391
 30
0.0
 40
0.0062603292137752
 50
189.9821122930698891
 51
266.6429516709264931
  0
ARC
  5
265A
  8
0
 10
470.8419891716928873
 20
-2.0668916340159522
 30
0.0
 40
0.1111649206452821
 50
297.8244944261863907
 51
333.3263643212641796
  0
ARC
  5
265B
  8
0
 10
470.9465112653779784
 20
-2.1047570598878802
 30
0.0
 40
0.0052843270601199
 50
204.2166509204193119
 51
276.8278159584398281
  0
LINE
  5
265C
  8
0
 10
470.9416893404784901
 20
-2.1069256495072959
 30
0.0
 11
470.9419673766543042
 21
-2.1018246939214111
 31
0.0
  0
LINE
  5
265D
  8
0
 10
470.9413405306867162
 20
-2.1477448214160542
 30
0.0
 11
470.9413237041868001
 21
-2.1167944419160558
 31
0.0
  0
LINE
  5
265E
  8
0
 10
470.9471394979868251
 20
-2.1529092380160568
 30
0.0
 11
470.9618615175501191
 21
-2.1537728123440441
 31
0.0
  0
LINE
  5
265F
  8
0
 10
470.9465112653779784
 20
-2.110041386948001
 30
0.0
 11
470.9497917591299938
 21
-2.1105554619119178
 31
0.0
  0
LINE
  5
2660
  8
0
 10
470.6592577040368042
 20
-2.0414556508121531
 30
0.0
 11
470.6727138980367044
 21
-2.0447411820660539
 31
0.0
  0
LINE
  5
2661
  8
0
 10
470.6727138980367044
 20
-2.0447411820660539
 30
0.0
 11
470.68617099291572
 21
-2.0480247020350779
 31
0.0
  0
LINE
  5
2662
  8
0
 10
470.68617099291572
 20
-2.0480247020350779
 30
0.0
 11
470.7130935066367101
 21
-2.0416386116160581
 31
0.0
  0
LINE
  5
2663
  8
0
 10
470.7130935066367101
 20
-2.0416386116160581
 30
0.0
 11
470.7400319485794853
 21
-2.0480327748246552
 31
0.0
  0
LINE
  5
2664
  8
0
 10
470.7400319485794853
 20
-2.0480327748246552
 30
0.0
 11
470.7669257459367032
 21
-2.0419200133160582
 31
0.0
  0
LINE
  5
2665
  8
0
 10
470.7669257459367032
 20
-2.0419200133160582
 30
0.0
 11
470.7938219522866916
 21
-2.0480245897160572
 31
0.0
  0
LINE
  5
2666
  8
0
 10
470.7938219522866916
 20
-2.0480245897160572
 30
0.0
 11
470.8111015149369791
 21
-2.0445317811712931
 31
0.0
  0
LINE
  5
2667
  8
0
 10
470.6592577040368042
 20
-2.0677245596706402
 30
0.0
 11
470.6861737656196283
 21
-2.0617641152749249
 31
0.0
  0
LINE
  5
2668
  8
0
 10
470.6861737656196283
 20
-2.0617641152749249
 30
0.0
 11
470.713083114186702
 21
-2.0677244755160582
 31
0.0
  0
LINE
  5
2669
  8
0
 10
470.713083114186702
 20
-2.0677244755160582
 30
0.0
 11
470.7399999191512165
 21
-2.0617637220540672
 31
0.0
  0
LINE
  5
266A
  8
0
 10
470.7399999191512165
 20
-2.0617637220540672
 30
0.0
 11
470.767030347143475
 21
-2.06775250660246
 31
0.0
  0
LINE
  5
266B
  8
0
 10
470.767030347143475
 20
-2.06775250660246
 30
0.0
 11
470.7938255096511853
 21
-2.0617637220540699
 31
0.0
  0
LINE
  5
266C
  8
0
 10
470.7938255096511853
 20
-2.0617637220540699
 30
0.0
 11
470.8207342861866778
 21
-2.0677242036160588
 31
0.0
  0
LINE
  5
266D
  8
0
 10
470.8207342861866778
 20
-2.0677242036160588
 30
0.0
 11
470.8476511578152213
 21
-2.0617637360974181
 31
0.0
  0
LINE
  5
266E
  8
0
 10
470.8476511578152213
 20
-2.0617637360974181
 30
0.0
 11
470.8788176226969995
 21
-2.0686671984827711
 31
0.0
  0
LINE
  5
266F
  8
0
 10
470.6592577040368042
 20
-2.0808574060263778
 30
0.0
 11
470.6885031275867277
 21
-2.087460000816058
 31
0.0
  0
LINE
  5
2670
  8
0
 10
470.6885031275867277
 20
-2.087460000816058
 30
0.0
 11
470.7130830752720954
 21
-2.0814627497508869
 31
0.0
  0
LINE
  5
2671
  8
0
 10
470.7130830752720954
 20
-2.0814627497508869
 30
0.0
 11
470.7398389889468149
 21
-2.0880684594993708
 31
0.0
  0
LINE
  5
2672
  8
0
 10
470.7398389889468149
 20
-2.0880684594993708
 30
0.0
 11
470.7669129062638831
 21
-2.0814636508046709
 31
0.0
  0
LINE
  5
2673
  8
0
 10
470.7669129062638831
 20
-2.0814636508046709
 30
0.0
 11
470.7939423631037812
 21
-2.0874524810115922
 31
0.0
  0
LINE
  5
2674
  8
0
 10
470.7939423631037812
 20
-2.0874524810115922
 30
0.0
 11
470.8207342564523969
 21
-2.0814634916333712
 31
0.0
  0
LINE
  5
2675
  8
0
 10
470.8207342564523969
 20
-2.0814634916333712
 30
0.0
 11
470.8477684851463891
 21
-2.087452746903522
 31
0.0
  0
LINE
  5
2676
  8
0
 10
470.8477684851463891
 20
-2.087452746903522
 30
0.0
 11
470.8745600662867901
 21
-2.0814634381160562
 31
0.0
  0
LINE
  5
2677
  8
0
 10
470.8745600662867901
 20
-2.0814634381160562
 30
0.0
 11
470.8917074224817156
 21
-2.085647371970182
 31
0.0
  0
ARC
  5
2678
  8
0
 10
470.6899064824403922
 20
-2.0537626074228461
 30
0.0
 40
0.0088293432808433
 50
191.3608368752346109
 51
244.9908697497467926
  0
ARC
  5
2679
  8
0
 10
470.6824376503896019
 20
-2.0537689629931739
 30
0.0
 40
0.0088250222107733
 50
295.0465699402744235
 51
348.7035841453690068
  0
LINE
  5
267A
  8
0
 10
470.6910917046866984
 20
-2.0468574963788271
 30
0.0
 11
470.6910917046866984
 21
-2.0554976507157998
 31
0.0
  0
LINE
  5
267B
  8
0
 10
470.6812477625501856
 20
-2.046823437916593
 30
0.0
 11
470.6812501408757043
 21
-2.055501875509758
 31
0.0
  0
ARC
  5
267C
  8
0
 10
470.7437326359719805
 20
-2.053762214201988
 30
0.0
 40
0.0088293432808433
 50
191.3608368752346109
 51
244.9908697497467926
  0
ARC
  5
267D
  8
0
 10
470.7362638039211902
 20
-2.0537685697723158
 30
0.0
 40
0.0088250222107733
 50
295.0465699402744235
 51
348.7035841453690068
  0
LINE
  5
267E
  8
0
 10
470.7449178582182867
 20
-2.0469222436498589
 30
0.0
 11
470.7449178582182867
 21
-2.0554972574949408
 31
0.0
  0
LINE
  5
267F
  8
0
 10
470.7350739250935021
 20
-2.0468559283155119
 30
0.0
 11
470.7350762944071789
 21
-2.0555014822888991
 31
0.0
  0
ARC
  5
2680
  8
0
 10
470.797558226472006
 20
-2.053762214201988
 30
0.0
 40
0.0088293432808433
 50
191.3608368752346109
 51
244.990869749653001
  0
ARC
  5
2681
  8
0
 10
470.790089394421102
 20
-2.0537685697723189
 30
0.0
 40
0.0088250222107733
 50
295.0465699402744235
 51
348.7035841453690068
  0
LINE
  5
2682
  8
0
 10
470.7987434487183123
 20
-2.0470297818533281
 30
0.0
 11
470.7987434487183123
 21
-2.0554972574949408
 31
0.0
  0
LINE
  5
2683
  8
0
 10
470.7888995296876828
 20
-2.0469073576262242
 30
0.0
 11
470.7889018849072045
 21
-2.0555014822889031
 31
0.0
  0
ARC
  5
2684
  8
0
 10
470.8513838746359852
 20
-2.0537622282453318
 30
0.0
 40
0.0088293432808433
 50
191.3608368752346109
 51
244.9908697497467926
  0
ARC
  5
2685
  8
0
 10
470.8439150425851949
 20
-2.0537685838156641
 30
0.0
 40
0.0088250222107733
 50
295.0465699402744235
 51
347.5265243367040853
  0
LINE
  5
2686
  8
0
 10
470.8427267461112251
 20
-2.0526299029602408
 30
0.0
 11
470.8427275330711836
 21
-2.0555014963322469
 31
0.0
  0
ARC
  5
2687
  8
0
 10
470.7168157920929161
 20
-2.0734612418988041
 30
0.0
 40
0.0088293432808433
 50
191.3608368752346109
 51
244.9908697497467926
  0
ARC
  5
2688
  8
0
 10
470.7093469600421258
 20
-2.0734675974691319
 30
0.0
 40
0.0088250222107733
 50
295.0465699402744235
 51
348.7035841453690068
  0
LINE
  5
2689
  8
0
 10
470.7180010143392224
 20
-2.0666354015937141
 30
0.0
 11
470.7180010143392224
 21
-2.0751962851917578
 31
0.0
  0
LINE
  5
268A
  8
0
 10
470.7081571027051154
 20
-2.0666333750418531
 30
0.0
 11
470.7081594505281146
 21
-2.075200509985716
 31
0.0
  0
ARC
  5
268B
  8
0
 10
470.7706456230847039
 20
-2.073462142952589
 30
0.0
 40
0.0088293432808433
 50
191.3608368752346109
 51
244.9908697497467926
  0
ARC
  5
268C
  8
0
 10
470.7631767910339136
 20
-2.0734684985229168
 30
0.0
 40
0.0088250222107733
 50
295.0465699402744235
 51
348.7035841453690068
  0
LINE
  5
268D
  8
0
 10
470.7718308453310101
 20
-2.0666795834820308
 30
0.0
 11
470.7718308453310101
 21
-2.0751971862455418
 31
0.0
  0
LINE
  5
268E
  8
0
 10
470.7619869339234242
 20
-2.0666351023507801
 30
0.0
 11
470.7619892815199023
 21
-2.0752014110395001
 31
0.0
  0
ARC
  5
268F
  8
0
 10
470.8244669732732177
 20
-2.0734619837812889
 30
0.0
 40
0.0088293432808433
 50
191.3608368752346109
 51
244.9908697497467926
  0
ARC
  5
2690
  8
0
 10
470.8169981412224274
 20
-2.0734683393516171
 30
0.0
 40
0.0088250222107733
 50
295.0465699402744235
 51
348.7035841453690068
  0
LINE
  5
2691
  8
0
 10
470.825652195519524
 20
-2.066635182601952
 30
0.0
 11
470.825652195519524
 21
-2.0751970270742421
 31
0.0
  0
LINE
  5
2692
  8
0
 10
470.8158082835956861
 20
-2.0666330597069549
 30
0.0
 11
470.8158106317084162
 21
-2.0752012518681999
 31
0.0
  0
ARC
  5
2693
  8
0
 10
470.8782927831074971
 20
-2.0734619302639739
 30
0.0
 40
0.0088293432808433
 50
191.3608368752346109
 51
244.9908697497467926
  0
ARC
  5
2694
  8
0
 10
470.8708239510567068
 20
-2.0734682858343021
 30
0.0
 40
0.0088250222107733
 50
295.0465699402744235
 51
348.7035841453690068
  0
LINE
  5
2695
  8
0
 10
470.8794780053538034
 20
-2.0692812024669598
 30
0.0
 11
470.8794780053538034
 21
-2.0751969735569271
 31
0.0
  0
LINE
  5
2696
  8
0
 10
470.8696340934338878
 20
-2.0666330201095171
 30
0.0
 11
470.8696364415426956
 21
-2.0752011983508849
 31
0.0
  0
LINE
  5
2697
  8
0
 10
470.6592577040368042
 20
-2.1208613385508239
 30
0.0
 11
470.6727142257710739
 21
-2.1241469498259589
 31
0.0
  0
LINE
  5
2698
  8
0
 10
470.6727142257710739
 20
-2.1241469498259589
 30
0.0
 11
470.6861713206499758
 21
-2.1274304697949828
 31
0.0
  0
LINE
  5
2699
  8
0
 10
470.6861713206499758
 20
-2.1274304697949828
 30
0.0
 11
470.7130938343710227
 21
-2.121044379375959
 31
0.0
  0
LINE
  5
269A
  8
0
 10
470.7130938343710227
 20
-2.121044379375959
 30
0.0
 11
470.7400322763139116
 21
-2.1274385425845561
 31
0.0
  0
LINE
  5
269B
  8
0
 10
470.7400322763139116
 20
-2.1274385425845561
 30
0.0
 11
470.7669260736710157
 21
-2.12132578107596
 31
0.0
  0
LINE
  5
269C
  8
0
 10
470.7669260736710157
 20
-2.12132578107596
 30
0.0
 11
470.7938222800210042
 21
-2.1274303574759621
 31
0.0
  0
LINE
  5
269D
  8
0
 10
470.7938222800210042
 20
-2.1274303574759621
 30
0.0
 11
470.8207349498200074
 21
-2.1208633242259149
 31
0.0
  0
LINE
  5
269E
  8
0
 10
470.6592577040368042
 20
-2.14713040000587
 30
0.0
 11
470.6861740933539977
 21
-2.1411698830348298
 31
0.0
  0
LINE
  5
269F
  8
0
 10
470.6861740933539977
 20
-2.1411698830348298
 30
0.0
 11
470.7130834419210146
 21
-2.14713024327596
 31
0.0
  0
LINE
  5
26A0
  8
0
 10
470.7130834419210146
 20
-2.14713024327596
 30
0.0
 11
470.7400002468854723
 21
-2.1411694898139721
 31
0.0
  0
LINE
  5
26A1
  8
0
 10
470.7400002468854723
 20
-2.1411694898139721
 30
0.0
 11
470.7670306748776738
 21
-2.1471582743623641
 31
0.0
  0
LINE
  5
26A2
  8
0
 10
470.7670306748776738
 20
-2.1471582743623641
 30
0.0
 11
470.7938258373854978
 21
-2.1411694898139748
 31
0.0
  0
LINE
  5
26A3
  8
0
 10
470.7938258373854978
 20
-2.1411694898139748
 30
0.0
 11
470.8207346139209903
 21
-2.1471299713759602
 31
0.0
  0
LINE
  5
26A4
  8
0
 10
470.8207346139209903
 20
-2.1471299713759602
 30
0.0
 11
470.8476457507867963
 21
-2.140563162116059
 31
0.0
  0
ARC
  5
26A5
  8
0
 10
470.6899068101747048
 20
-2.1331683751827479
 30
0.0
 40
0.0088293432808433
 50
191.3608368752346109
 51
244.9908697497467926
  0
ARC
  5
26A6
  8
0
 10
470.6824379781239145
 20
-2.1331747307530788
 30
0.0
 40
0.0088250222107733
 50
295.0465699402744235
 51
348.7035841453690068
  0
LINE
  5
26A7
  8
0
 10
470.6910920324211247
 20
-2.126263264138732
 30
0.0
 11
470.6910920324211247
 21
-2.1349034184757012
 31
0.0
  0
LINE
  5
26A8
  8
0
 10
470.6812480902844982
 20
-2.126229205676494
 30
0.0
 11
470.6812504686099032
 21
-2.134907643269663
 31
0.0
  0
ARC
  5
26A9
  8
0
 10
470.743732963706293
 20
-2.1331679819618889
 30
0.0
 40
0.0088293432808433
 50
191.3608368752346109
 51
244.9908697497467926
  0
ARC
  5
26AA
  8
0
 10
470.7362641316553891
 20
-2.1331743375322212
 30
0.0
 40
0.0088250222107733
 50
295.0465699402744235
 51
348.7035841453690068
  0
LINE
  5
26AB
  8
0
 10
470.7449181859525993
 20
-2.1263280114097611
 30
0.0
 11
470.7449181859525993
 21
-2.1349030252548431
 31
0.0
  0
LINE
  5
26AC
  8
0
 10
470.735074252827701
 20
-2.1262616960754168
 30
0.0
 11
470.7350766221414915
 21
-2.134907250048804
 31
0.0
  0
ARC
  5
26AD
  8
0
 10
470.7975585542063186
 20
-2.1331679819618929
 30
0.0
 40
0.0088293432808433
 50
191.3608368752346109
 51
244.990869749653001
  0
ARC
  5
26AE
  8
0
 10
470.7900897221555283
 20
-2.1331743375322239
 30
0.0
 40
0.0088250222107733
 50
295.0465699402744235
 51
348.7035841453690068
  0
LINE
  5
26AF
  8
0
 10
470.7987437764526248
 20
-2.126435549613233
 30
0.0
 11
470.7987437764526248
 21
-2.1349030252548462
 31
0.0
  0
LINE
  5
26B0
  8
0
 10
470.7888998574219954
 20
-2.126313125386126
 30
0.0
 11
470.7889022126415171
 21
-2.134907250048804
 31
0.0
  0
LINE
  5
26B1
  8
0
 10
470.6592577040368042
 20
-2.1602606537732809
 30
0.0
 11
470.6727183094162115
 21
-2.1635472621315368
 31
0.0
  0
LINE
  5
26B2
  8
0
 10
470.6727183094162115
 20
-2.1635472621315368
 30
0.0
 11
470.6861754042952271
 21
-2.1668307821005608
 31
0.0
  0
LINE
  5
26B3
  8
0
 10
470.6861754042952271
 20
-2.1668307821005608
 30
0.0
 11
470.7130979180162171
 21
-2.1604446916815361
 31
0.0
  0
LINE
  5
26B4
  8
0
 10
470.7130979180162171
 20
-2.1604446916815361
 30
0.0
 11
470.740036359959106
 21
-2.1668388548901341
 31
0.0
  0
LINE
  5
26B5
  8
0
 10
470.740036359959106
 20
-2.1668388548901341
 30
0.0
 11
470.7669301573162102
 21
-2.1607260933815371
 31
0.0
  0
LINE
  5
26B6
  8
0
 10
470.7669301573162102
 20
-2.1607260933815371
 30
0.0
 11
470.7938263636661986
 21
-2.1668306697815392
 31
0.0
  0
LINE
  5
26B7
  8
0
 10
470.7938263636661986
 20
-2.1668306697815392
 30
0.0
 11
470.8198562274573078
 21
-2.1615691170149058
 31
0.0
  0
LINE
  5
26B8
  8
0
 10
470.6592577040368042
 20
-2.1865316166168571
 30
0.0
 11
470.6861781769990785
 21
-2.1805701953404082
 31
0.0
  0
LINE
  5
26B9
  8
0
 10
470.6861781769990785
 20
-2.1805701953404082
 30
0.0
 11
470.713087525566209
 21
-2.1865305555815371
 31
0.0
  0
LINE
  5
26BA
  8
0
 10
470.713087525566209
 20
-2.1865305555815371
 30
0.0
 11
470.7400043305306099
 21
-2.1805698021195492
 31
0.0
  0
LINE
  5
26BB
  8
0
 10
470.7400043305306099
 20
-2.1805698021195492
 30
0.0
 11
470.7677900133875255
 21
-2.1867259187821122
 31
0.0
  0
ARC
  5
26BC
  8
0
 10
470.6899108938198992
 20
-2.172568687488325
 30
0.0
 40
0.0088293432808433
 50
191.3608368752346109
 51
244.9908697497467926
  0
ARC
  5
26BD
  8
0
 10
470.6824420617691089
 20
-2.1725750430586568
 30
0.0
 40
0.0088250222107733
 50
295.0465699402744235
 51
348.7035841453690068
  0
LINE
  5
26BE
  8
0
 10
470.6910961160662055
 20
-2.1656635764443091
 30
0.0
 11
470.6910961160662055
 21
-2.1743037307812791
 31
0.0
  0
LINE
  5
26BF
  8
0
 10
470.6812521739296926
 20
-2.1656295179820719
 30
0.0
 11
470.6812545522550977
 21
-2.1743079555752369
 31
0.0
  0
ARC
  5
26C0
  8
0
 10
470.7437370473513738
 20
-2.1725682942674669
 30
0.0
 40
0.0088293432808433
 50
191.3608368752346109
 51
244.9908697497467926
  0
ARC
  5
26C1
  8
0
 10
470.7362682153005835
 20
-2.1725746498377978
 30
0.0
 40
0.0088250222107733
 50
295.0465699402744235
 51
348.7035841453690068
  0
LINE
  5
26C2
  8
0
 10
470.74492226959768
 20
-2.1657283237153382
 30
0.0
 11
470.74492226959768
 21
-2.1743033375604202
 31
0.0
  0
LINE
  5
26C3
  8
0
 10
470.7350783364730091
 20
-2.1656620083809912
 30
0.0
 11
470.7350807057865723
 21
-2.1743075623543779
 31
0.0
  0
ARC
  5
26C4
  8
0
 10
470.7975626378513994
 20
-2.17256829426747
 30
0.0
 40
0.0088293432808433
 50
191.3608368752346109
 51
242.413693594208894
  0
ARC
  5
26C5
  8
0
 10
470.7900938058006091
 20
-2.1725746498377978
 30
0.0
 40
0.0088250222107733
 50
302.5471449038410015
 51
348.7035841453690068
  0
LINE
  5
26C6
  8
0
 10
470.7987478600977056
 20
-2.1658358619188069
 30
0.0
 11
470.7987478600977056
 21
-2.1743033375604242
 31
0.0
  0
LINE
  5
26C7
  8
0
 10
470.7889039410670762
 20
-2.1657134376917031
 30
0.0
 11
470.7889062962865978
 21
-2.1743075623543819
 31
0.0
  0
LINE
  5
26C8
  8
0
 10
470.820749589086688
 20
-2.120819966216057
 30
0.0
 11
470.8477581058567125
 21
-2.1268502612501079
 31
0.0
  0
LINE
  5
26C9
  8
0
 10
470.8477581058567125
 20
-2.1268502612501079
 30
0.0
 11
470.8745638828085021
 21
-2.1208638139203511
 31
0.0
  0
LINE
  5
26CA
  8
0
 10
470.8745638828085021
 20
-2.1208638139203511
 30
0.0
 11
470.89423426333002
 21
-2.1256625346526761
 31
0.0
  0
LINE
  5
26CB
  8
0
 10
470.8476457507867963
 20
-2.140563162116059
 30
0.0
 11
470.8708637333887168
 21
-2.145654461548208
 31
0.0
  0
LINE
  5
26CC
  8
0
 10
470.6592577040368042
 20
-2.1071498203180878
 30
0.0
 11
470.6862228284479102
 21
-2.1011785111731309
 31
0.0
  0
LINE
  5
26CD
  8
0
 10
470.6862228284479102
 20
-2.1011785111731309
 30
0.0
 11
470.7131321770149839
 21
-2.1071388714142598
 31
0.0
  0
LINE
  5
26CE
  8
0
 10
470.7131321770149839
 20
-2.1071388714142598
 30
0.0
 11
470.7400489819793847
 21
-2.1011781179522719
 31
0.0
  0
LINE
  5
26CF
  8
0
 10
470.7400489819793847
 20
-2.1011781179522719
 30
0.0
 11
470.7670794099717
 21
-2.1071669025006652
 31
0.0
  0
LINE
  5
26D0
  8
0
 10
470.7670794099717
 20
-2.1071669025006652
 30
0.0
 11
470.793874572479524
 21
-2.1011781179522759
 31
0.0
  0
LINE
  5
26D1
  8
0
 10
470.793874572479524
 20
-2.1011781179522759
 30
0.0
 11
470.8207833490150165
 21
-2.1071385995142609
 31
0.0
  0
LINE
  5
26D2
  8
0
 10
470.8207833490150165
 20
-2.1071385995142609
 30
0.0
 11
470.8476944858808224
 21
-2.1005717902543561
 31
0.0
  0
LINE
  5
26D3
  8
0
 10
470.8476944858808224
 20
-2.1005717902543561
 30
0.0
 11
470.8753476397694726
 21
-2.1066356455472568
 31
0.0
  0
LINE
  5
26D4
  8
0
 10
470.8198562274573078
 20
-2.1615691170149058
 30
0.0
 11
470.8378536583708751
 21
-2.1650209036226959
 31
0.0
  0
LINE
  5
26D5
  8
0
 10
470.8753476397694726
 20
-2.1066356455472568
 30
0.0
 11
470.896838266411919
 21
-2.1001768216736489
 31
0.0
  0
ARC
  5
26D6
  8
0
 10
470.6899555452690151
 20
-2.093177003320899
 30
0.0
 40
0.0088293432808433
 50
191.3608368752346109
 51
244.9908697497467926
  0
ARC
  5
26D7
  8
0
 10
470.6824867132182248
 20
-2.0931833588912312
 30
0.0
 40
0.0088250222107733
 50
295.0465699402744235
 51
348.7035841453690068
  0
LINE
  5
26D8
  8
0
 10
470.6911407675153214
 20
-2.0868164441627419
 30
0.0
 11
470.6911407675153214
 21
-2.0949120466138562
 31
0.0
  0
LINE
  5
26D9
  8
0
 10
470.6812967144463187
 20
-2.0858330445241751
 30
0.0
 11
470.6812992037042136
 21
-2.0949162714078109
 31
0.0
  0
ARC
  5
26DA
  8
0
 10
470.7437816988004897
 20
-2.0931766101000409
 30
0.0
 40
0.0088293432808433
 50
191.3608368752346109
 51
244.9908697497467926
  0
ARC
  5
26DB
  8
0
 10
470.7363128667496994
 20
-2.0931829656703722
 30
0.0
 40
0.0088250222107733
 50
295.0465699402744235
 51
348.7035841453690068
  0
LINE
  5
26DC
  8
0
 10
470.744966921046796
 20
-2.0868174764915111
 30
0.0
 11
470.744966921046796
 21
-2.0949116533929981
 31
0.0
  0
LINE
  5
26DD
  8
0
 10
470.7351231616298719
 20
-2.0869041790768099
 30
0.0
 11
470.7351253572356882
 21
-2.0949158781869519
 31
0.0
  0
ARC
  5
26DE
  8
0
 10
470.7976072893004016
 20
-2.093176610100044
 30
0.0
 40
0.0088293432808433
 50
191.3608368752346109
 51
244.9908697497467926
  0
ARC
  5
26DF
  8
0
 10
470.790138457249725
 20
-2.0931829656703722
 30
0.0
 40
0.0088250222107733
 50
295.0465699402744235
 51
348.7035841453690068
  0
LINE
  5
26E0
  8
0
 10
470.7987925115467078
 20
-2.0863682915842179
 30
0.0
 11
470.7987925115467078
 21
-2.0949116533929981
 31
0.0
  0
LINE
  5
26E1
  8
0
 10
470.7889485991689185
 20
-2.0863460287259552
 30
0.0
 11
470.7889509477357137
 21
-2.0949158781869559
 31
0.0
  0
ARC
  5
26E2
  8
0
 10
470.8514272027017
 20
-2.0925702824021282
 30
0.0
 40
0.0088293432808433
 50
191.3608368752346109
 51
244.9908697497467926
  0
ARC
  5
26E3
  8
0
 10
470.8439583706510234
 20
-2.092576637972456
 30
0.0
 40
0.0088250222107733
 50
295.0465699402744235
 51
348.7035841453690068
  0
LINE
  5
26E4
  8
0
 10
470.8526124249480063
 20
-2.086369874971914
 30
0.0
 11
470.8526124249480063
 21
-2.094305325695081
 31
0.0
  0
LINE
  5
26E5
  8
0
 10
470.8427686784722255
 20
-2.0863450726727519
 30
0.0
 11
470.8427708611370122
 21
-2.0943095504890401
 31
0.0
  0
ARC
  5
26E6
  8
0
 10
470.878296599629607
 20
-2.1128623060681191
 30
0.0
 40
0.0088293432808433
 50
191.3608368752346109
 51
244.9908697497467926
  0
ARC
  5
26E7
  8
0
 10
470.8708277675788167
 20
-2.1128686616384509
 30
0.0
 40
0.0088250222107733
 50
295.0465699402744235
 51
348.7035841453690068
  0
LINE
  5
26E8
  8
0
 10
470.8794818218759133
 20
-2.1053931525045471
 30
0.0
 11
470.8794818218759133
 21
-2.1145973493610728
 31
0.0
  0
LINE
  5
26E9
  8
0
 10
470.869637731868977
 20
-2.1053835621363239
 30
0.0
 11
470.8696402580648055
 21
-2.114601574155031
 31
0.0
  0
ARC
  5
26EA
  8
0
 10
470.8244676666411124
 20
-2.112861816373683
 30
0.0
 40
0.0088293432808433
 50
191.3608368752346109
 51
244.9908697497467926
  0
ARC
  5
26EB
  8
0
 10
470.8169988345903221
 20
-2.1128681719440152
 30
0.0
 40
0.0088250222107733
 50
295.0465699402744235
 51
348.7035841453690068
  0
LINE
  5
26EC
  8
0
 10
470.8256528888874186
 20
-2.1059503427830388
 30
0.0
 11
470.8256528888874186
 21
-2.1145968596666371
 31
0.0
  0
LINE
  5
26ED
  8
0
 10
470.8158089780185946
 20
-2.1060367416662191
 30
0.0
 11
470.8158113250763108
 21
-2.1146010844605949
 31
0.0
  0
ARC
  5
26EE
  8
0
 10
470.7706587904921207
 20
-2.1133242732237321
 30
0.0
 40
0.0088293432808433
 50
191.3608368752346109
 51
244.9908697497467926
  0
ARC
  5
26EF
  8
0
 10
470.7631899584412736
 20
-2.113330628794059
 30
0.0
 40
0.0088250222107733
 50
295.0465699402744235
 51
348.7035841453690068
  0
LINE
  5
26F0
  8
0
 10
470.771844012738427
 20
-2.10610200209485
 30
0.0
 11
470.771844012738427
 21
-2.1150593165166849
 31
0.0
  0
LINE
  5
26F1
  8
0
 10
470.7619999764420982
 20
-2.1060415176919132
 30
0.0
 11
470.7620024489273192
 21
-2.1150635413106431
 31
0.0
  0
ARC
  5
26F2
  8
0
 10
470.7168265511921277
 20
-2.113042871523731
 30
0.0
 40
0.0088293432808433
 50
191.3608368752346109
 51
244.9908697497467926
  0
ARC
  5
26F3
  8
0
 10
470.7093577191412805
 20
-2.1130492270940588
 30
0.0
 40
0.0088250222107733
 50
295.0465699402744235
 51
348.7035841453690068
  0
LINE
  5
26F4
  8
0
 10
470.7180117734383771
 20
-2.106058279891144
 30
0.0
 11
470.7180117734383771
 21
-2.1147779148166839
 31
0.0
  0
LINE
  5
26F5
  8
0
 10
470.7081678136460141
 20
-2.1060392760831581
 30
0.0
 11
470.7081702096273261
 21
-2.1147821396106421
 31
0.0
  0
ARC
  5
26F6
  8
0
 10
470.7168306348373221
 20
-2.152443183829305
 30
0.0
 40
0.0088293432808433
 50
191.3608368752346109
 51
244.9908697497467926
  0
ARC
  5
26F7
  8
0
 10
470.709361802786475
 20
-2.1524495393996359
 30
0.0
 40
0.0088250222107733
 50
295.0465699402744235
 51
348.7035841453690068
  0
LINE
  5
26F8
  8
0
 10
470.7180158570836284
 20
-2.1460379549900699
 30
0.0
 11
470.7180158570836284
 21
-2.1541782271222578
 31
0.0
  0
LINE
  5
26F9
  8
0
 10
470.7081720624872219
 20
-2.1460423837674512
 30
0.0
 11
470.7081742932725206
 21
-2.15418245191622
 31
0.0
  0
ARC
  5
26FA
  8
0
 10
470.7706628741373152
 20
-2.152724585529306
 30
0.0
 40
0.0088293432808433
 50
191.3608368752346109
 51
244.9908697497467926
  0
ARC
  5
26FB
  8
0
 10
470.7631940420865249
 20
-2.1527309410996369
 30
0.0
 40
0.0088250222107733
 50
295.0465699402744235
 51
348.7035841453690068
  0
LINE
  5
26FC
  8
0
 10
470.7718480963836214
 20
-2.1460815688387882
 30
0.0
 11
470.7718480963836214
 21
-2.1544596288222588
 31
0.0
  0
LINE
  5
26FD
  8
0
 10
470.7620042252842154
 20
-2.1460446285234052
 30
0.0
 11
470.7620065325725136
 21
-2.1544638536162211
 31
0.0
  0
ARC
  5
26FE
  8
0
 10
470.8235889442784128
 20
-2.1535676091626779
 30
0.0
 40
0.0088293432808433
 50
191.3608368752346109
 51
244.9908697497467926
  0
ARC
  5
26FF
  8
0
 10
470.8161201122276225
 20
-2.1535739647330061
 30
0.0
 40
0.0088250222107733
 50
295.0465699402744235
 51
348.7035841453690068
  0
LINE
  5
2700
  8
0
 10
470.824774166524719
 20
-2.1461442467082739
 30
0.0
 11
470.824774166524719
 21
-2.1553026524556311
 31
0.0
  0
LINE
  5
2701
  8
0
 10
470.8149300094704017
 20
-2.145844211030937
 30
0.0
 11
470.8149326027136112
 21
-2.1553068772495889
 31
0.0
  0
ARC
  5
2702
  8
0
 10
470.8513784676077876
 20
-2.132561654263827
 30
0.0
 40
0.0088293432808433
 50
191.3608368752346109
 51
244.9908697497467926
  0
ARC
  5
2703
  8
0
 10
470.8439096355569973
 20
-2.1325680098341548
 30
0.0
 40
0.0088250222107733
 50
295.0465699402744235
 51
348.7035841453690068
  0
LINE
  5
2704
  8
0
 10
470.8525636898540938
 20
-2.1257790947932689
 30
0.0
 11
470.8525636898540938
 21
-2.1342966975567812
 31
0.0
  0
LINE
  5
2705
  8
0
 10
470.8427197784465079
 20
-2.1257346136620181
 30
0.0
 11
470.842722126042986
 21
-2.134300922350739
 31
0.0
  0
ARC
  5
2706
  8
0
 10
470.7706584627579218
 20
-2.0339185054638271
 30
0.0
 40
0.0088293432808433
 50
191.3608368752346109
 51
244.9908697497467926
  0
ARC
  5
2707
  8
0
 10
470.7631896307070178
 20
-2.033924861034154
 30
0.0
 40
0.0088250222107733
 50
295.0465699402744235
 51
340.9736027255335102
  0
LINE
  5
2708
  8
0
 10
470.762002028176596
 20
-2.035318359734525
 30
0.0
 11
470.7620021211930066
 21
-2.0356577735507382
 31
0.0
  0
ARC
  5
2709
  8
0
 10
470.7168262234578151
 20
-2.0336371037638261
 30
0.0
 40
0.0088293432808433
 50
191.3608368752346109
 51
244.9908697497467926
  0
ARC
  5
270A
  8
0
 10
470.7093573914070248
 20
-2.0336434593341539
 30
0.0
 40
0.0088250222107733
 50
295.0465699402744235
 51
348.7035841453690068
  0
LINE
  5
270B
  8
0
 10
470.7180114457041782
 20
-2.030332259679557
 30
0.0
 11
470.7180114457041782
 21
-2.0353721470567789
 31
0.0
  0
LINE
  5
270C
  8
0
 10
470.7081683073390082
 20
-2.0296308717625449
 30
0.0
 11
470.7081698818931272
 21
-2.0353763718507381
 31
0.0
  0
ARC
  5
270D
  8
0
 10
471.0092340565593076
 20
-1.9408429542999741
 30
0.0
 40
0.2362226391641987
 50
355.2345941378122802
 51
4.7654058621870359
  0
ARC
  5
270E
  8
0
 10
470.6269446193629165
 20
-1.940759721962219
 30
0.0
 40
0.553440767217878
 50
177.9950217720503929
 51
182.0049782279519945
  0
LINE
  5
270F
  8
0
 10
470.2843755080801884
 20
-1.207820724907207
 30
0.0
 11
470.2843755080801884
 21
-1.6756604960656489
 31
0.0
  0
LINE
  5
2710
  8
0
 10
471.0340187755227248
 20
-1.211041135515962
 30
0.0
 11
471.0340187755227248
 21
-1.675596927348983
 31
0.0
  0
ARC
  5
2711
  8
0
 10
470.5165915903543237
 20
-0.0989319218543621
 30
0.0
 40
0.2960120185342386
 50
128.0952558737706966
 51
213.4657743503501024
  0
ARC
  5
2712
  8
0
 10
470.694460367632189
 20
-3.3664511279151621
 30
0.0
 40
1.3469339586958591
 50
91.4976188898640146
 51
96.1839608932944969
  0
ARC
  5
2713
  8
0
 10
470.7116627084050151
 20
-2.4987224181863601
 30
0.0
 40
0.4748600259628016
 50
59.955294858437739
 51
83.046848850037108
  0
ARC
  5
2714
  8
0
 10
470.6611294050018159
 20
-2.8142152759136598
 30
0.0
 40
0.7942402156114183
 50
82.183397256581145
 51
90.1350229602607982
  0
ARC
  5
2715
  8
0
 10
470.6592577040366905
 20
-1.197935092369071
 30
0.0
 40
0.4479058259849911
 50
326.792866180829094
 51
213.1788319683572013
  0
ARC
  5
2716
  8
0
 10
470.6592577040366905
 20
-1.197935092369071
 30
0.0
 40
0.4897637084530109
 50
319.9236764238107185
 51
220.0543089615368899
  0
ARC
  5
2717
  8
0
 10
470.6592577040366905
 20
-1.197935092369071
 30
0.0
 40
0.5149949249560298
 50
316.6938026152182033
 51
223.2865469729609913
  0
ENDSEC
  0
EOF
