  0
SECTION
  2
HEADER
  9
$ACADVER
  1
AC1009
  9
$INSBASE
 10
463.8156642638292055
 20
68.3550470105752623
 30
0.0
  9
$EXTMIN
 10
457.7434630071090282
 20
68.3528628947535708
 30
-0.000000000000013
  9
$EXTMAX
 10
465.1964868270007969
 20
73.0331918625858236
 30
0.0000000000000023
  9
$LIMMIN
 10
0.0
 20
0.0
  9
$LIMMAX
 10
11.6929133858000007
 20
8.2677165353999982
  9
$ORTHOMODE
 70
     0
  9
$REGENMODE
 70
     1
  9
$FILLMODE
 70
     1
  9
$QTEXTMODE
 70
     0
  9
$MIRRTEXT
 70
     0
  9
$DRAGMODE
 70
     2
  9
$LTSCALE
 40
0.6431102362
  9
$OSMODE
 70
  2047
  9
$ATTMODE
 70
     1
  9
$TEXTSIZE
 40
0.2
  9
$TRACEWID
 40
0.05
  9
$TEXTSTYLE
  7
STANDARD
  9
$CLAYER
  8
0
  9
$CELTYPE
  6
BYLAYER
  9
$CECOLOR
 62
   256
  9
$DIMSCALE
 40
1.0
  9
$DIMASZ
 40
0.1875
  9
$DIMEXO
 40
0.0625
  9
$DIMDLI
 40
0.4443307087
  9
$DIMRND
 40
0.0
  9
$DIMDLE
 40
0.0
  9
$DIMEXE
 40
0.125
  9
$DIMTP
 40
0.01
  9
$DIMTM
 40
0.01
  9
$DIMTXT
 40
1.0
  9
$DIMCEN
 40
0.1052362205
  9
$DIMTSZ
 40
0.0
  9
$DIMTOL
 70
     1
  9
$DIMLIM
 70
     0
  9
$DIMTIH
 70
     0
  9
$DIMTOH
 70
     1
  9
$DIMSE1
 70
     0
  9
$DIMSE2
 70
     0
  9
$DIMTAD
 70
     0
  9
$DIMZIN
 70
     0
  9
$DIMBLK
  1

  9
$DIMASO
 70
     1
  9
$DIMSHO
 70
     1
  9
$DIMPOST
  1
\X
  9
$DIMAPOST
  1

  9
$DIMALT
 70
     1
  9
$DIMALTD
 70
     2
  9
$DIMALTF
 40
25.3999999999999986
  9
$DIMLFAC
 40
1.0
  9
$DIMTOFL
 70
     0
  9
$DIMTVP
 40
0.0
  9
$DIMTIX
 70
     0
  9
$DIMSOXD
 70
     0
  9
$DIMSAH
 70
     0
  9
$DIMBLK1
  1

  9
$DIMBLK2
  1

  9
$DIMSTYLE
  2
STANDARD
  9
$DIMCLRD
 70
     0
  9
$DIMCLRE
 70
     0
  9
$DIMCLRT
 70
     0
  9
$DIMTFAC
 40
1.0
  9
$DIMGAP
 40
0.09
  9
$LUNITS
 70
     2
  9
$LUPREC
 70
     4
  9
$SKETCHINC
 40
0.1
  9
$FILLETRAD
 40
0.0
  9
$AUNITS
 70
     0
  9
$AUPREC
 70
     0
  9
$MENU
  1
.
  9
$ELEVATION
 40
0.0
  9
$PELEVATION
 40
0.0
  9
$THICKNESS
 40
0.0
  9
$LIMCHECK
 70
     0
  9
$BLIPMODE
 70
     0
  9
$CHAMFERA
 40
0.0
  9
$CHAMFERB
 40
0.0
  9
$SKPOLY
 70
     0
  9
$TDCREATE
 40
2458172.5207638889551163
  9
$TDUPDATE
 40
2459045.4739120369777083
  9
$TDINDWG
 40
0.2422657176
  9
$TDUSRTIMER
 40
0.2422657176
  9
$USRTIMER
 70
     1
  9
$ANGBASE
 50
0.0
  9
$ANGDIR
 70
     0
  9
$PDMODE
 70
     0
  9
$PDSIZE
 40
0.3125
  9
$PLINEWID
 40
0.0
  9
$COORDS
 70
     1
  9
$SPLFRAME
 70
     0
  9
$SPLINETYPE
 70
     6
  9
$SPLINESEGS
 70
     8
  9
$ATTDIA
 70
     1
  9
$ATTREQ
 70
     1
  9
$HANDLING
 70
     1
  9
$HANDSEED
  5
85D1
  9
$SURFTAB1
 70
     6
  9
$SURFTAB2
 70
     6
  9
$SURFTYPE
 70
     6
  9
$SURFU
 70
     6
  9
$SURFV
 70
     6
  9
$UCSNAME
  2

  9
$UCSORG
 10
0.0
 20
0.0
 30
0.0
  9
$UCSXDIR
 10
1.0
 20
0.0
 30
0.0
  9
$UCSYDIR
 10
0.0
 20
1.0
 30
0.0
  9
$PUCSNAME
  2

  9
$PUCSORG
 10
0.0
 20
0.0
 30
0.0
  9
$PUCSXDIR
 10
1.0
 20
0.0
 30
0.0
  9
$PUCSYDIR
 10
0.0
 20
1.0
 30
0.0
  9
$USERI1
 70
     0
  9
$USERI2
 70
     0
  9
$USERI3
 70
     0
  9
$USERI4
 70
     0
  9
$USERI5
 70
     0
  9
$USERR1
 40
0.0
  9
$USERR2
 40
0.0
  9
$USERR3
 40
0.0
  9
$USERR4
 40
0.0
  9
$USERR5
 40
0.0
  9
$WORLDVIEW
 70
     1
  9
$SHADEDGE
 70
     3
  9
$SHADEDIF
 70
    70
  9
$TILEMODE
 70
     1
  9
$MAXACTVP
 70
    64
  9
$PLIMCHECK
 70
     0
  9
$PEXTMIN
 10
1.0000000000000000E+20
 20
1.0000000000000000E+20
 30
1.0000000000000000E+20
  9
$PEXTMAX
 10
-1.0000000000000000E+20
 20
-1.0000000000000000E+20
 30
-1.0000000000000000E+20
  9
$PLIMMIN
 10
0.0
 20
0.0
  9
$PLIMMAX
 10
12.0
 20
9.0
  9
$UNITMODE
 70
     0
  9
$VISRETAIN
 70
     1
  9
$PLINEGEN
 70
     0
  9
$PSLTSCALE
 70
     1
  0
ENDSEC
  0
SECTION
  2
TABLES
  0
TABLE
  2
VPORT
 70
     1
  0
VPORT
  2
*ACTIVE
 70
     0
 10
0.0
 20
0.0
 11
1.0
 21
1.0
 12
31.8406858090012292
 22
0.9904858664510101
 13
0.0
 23
0.0
 14
1.0
 24
1.0
 15
0.0
 25
0.0
 16
0.0
 26
0.0
 36
14.6338572656650907
 17
429.6292891080536833
 27
69.7025415122186871
 37
0.0
 40
4.7291671831487632
 41
3.3048780487804872
 42
50.0
 43
0.0
 44
0.0
 50
0.0
 51
0.0
 71
     0
 72
   100
 73
     1
 74
     1
 75
     0
 76
     0
 77
     0
 78
     0
  0
ENDTAB
  0
TABLE
  2
LTYPE
 70
     2
  0
LTYPE
  2
CONTINUOUS
 70
     0
  3
Solid line
 72
    65
 73
     0
 40
0.0
  0
LTYPE
  2
PHANTOM2
 70
     0
  3
___ _ _ ___ _ _ ___ _ _ ___ _ _
 72
    65
 73
     6
 40
1.25
 49
0.625
 49
-0.125
 49
0.125
 49
-0.125
 49
0.125
 49
-0.125
  0
ENDTAB
  0
TABLE
  2
LAYER
 70
     2
  0
LAYER
  2
0
 70
     0
 62
   255
  6
CONTINUOUS
  0
LAYER
  2
DEFPOINTS
 70
     0
 62
     7
  6
CONTINUOUS
  0
ENDTAB
  0
TABLE
  2
STYLE
 70
     1
  0
STYLE
  2
STANDARD
 70
     0
 40
0.0
 41
0.8
 50
0.0
 71
     0
 42
0.2
  3
txt
  4

  0
ENDTAB
  0
TABLE
  2
VIEW
 70
     0
  0
ENDTAB
  0
TABLE
  2
UCS
 70
     0
  0
ENDTAB
  0
TABLE
  2
APPID
 70
    10
  0
APPID
  2
ACAD
 70
     0
  0
APPID
  2
ACAD_MLEADERVER
 70
     0
  0
APPID
  2
ACAD_EXEMPT_FROM_CAD_STANDARDS
 70
     0
  0
APPID
  2
ACAD_DSTYLE_DIMJAG
 70
     0
  0
APPID
  2
ACAD_DSTYLE_DIMTALN
 70
     0
  0
APPID
  2
ACAD_NAV_VCDISPLAY
 70
     0
  0
APPID
  2
ACAECLAYERSTANDARD
 70
     0
  0
APPID
  2
ACCMTRANSPARENCY
 70
     0
  0
APPID
  2
DCO15
 70
     0
  0
APPID
  2
ACDBATTR
 70
     0
  0
ENDTAB
  0
TABLE
  2
DIMSTYLE
 70
     1
  0
DIMSTYLE
  2
STANDARD
 70
     0
  3

  4

  5

  6

  7

 40
1.0
 41
0.1875
 42
0.0625
 43
0.38
 44
0.125
 45
0.0
 46
0.0
 47
0.01
 48
0.01
140
0.15625
141
0.09
142
0.0
143
25.3999999999999986
144
1.0
145
0.0
146
1.0
147
0.09
 71
     1
 72
     0
 73
     1
 74
     1
 75
     0
 76
     0
 77
     0
 78
     4
170
     0
171
     2
172
     0
173
     0
174
     0
175
     0
176
     0
177
     0
178
     0
  0
ENDTAB
  0
ENDSEC
  0
SECTION
  2
BLOCKS
  0
BLOCK
  8
0
  2
$MODEL_SPACE
 70
     0
 10
0.0
 20
0.0
 30
0.0
  3
$MODEL_SPACE
  1

  0
ENDBLK
  5
21
  8
0
  0
BLOCK
 67
     1
  8
0
  2
$PAPER_SPACE
 70
     0
 10
0.0
 20
0.0
 30
0.0
  3
$PAPER_SPACE
  1

  0
ENDBLK
  5
1D
 67
     1
  8
0
  0
ENDSEC
  0
SECTION
  2
ENTITIES
  0
ATTDEF
  5
829
  8
DEFPOINTS
 10
463.8128033896927036
 20
68.3596637396495765
 30
0.0
 40
0.001
  1
K-72759W
  3

  2
MODELNUMBER
 70
     0
1001
ACDBATTR
1070
     0
1070
     1
  0
ATTDEF
  5
82A
  8
DEFPOINTS
 10
463.8128033896927036
 20
68.3579970729829114
 30
0.0
 40
0.001
  1
ARTIFACTS
  3

  2
TRADENAME
 70
     0
1001
ACDBATTR
1070
     0
1070
     1
  0
ATTDEF
  5
82B
  8
DEFPOINTS
 10
463.8128033896927036
 20
68.3563304063162462
 30
0.0
 40
0.001
  1
BATHROOM SINK FAUCET
  3

  2
PRODUCT
 70
     0
1001
ACDBATTR
1070
     0
1070
     1
  0
LINE
  5
8310
  8
0
 10
458.9079805731357169
 20
71.3564488186752612
 30
0.0
 11
457.7952914646314184
 21
71.5652080387010301
 31
0.0
  0
ARC
  5
8311
  8
0
 10
457.8077370708332978
 20
71.6243906013458655
 30
0.0
 40
0.0604770108058119
 50
119.2806077775938007
 51
258.1242100129275059
  0
LINE
  5
8312
  8
0
 10
457.7781585350356863
 20
71.6771407582752715
 30
0.0
 11
457.8917503307357038
 21
71.7527074062752632
 31
0.0
  0
ARC
  5
8313
  8
0
 10
456.1380387088465227
 20
73.5067099520485243
 30
0.0
 40
2.4803284829490941
 50
314.9952479849054043
 51
323.439676752498201
  0
ARC
  5
8314
  8
0
 10
459.5978804402058131
 20
70.7745793007786261
 30
0.0
 40
1.9307941306818921
 50
126.1898817849442054
 51
139.4716655861763002
  0
ARC
  5
8315
  8
0
 10
459.323601440643472
 20
71.1280105878560391
 30
0.0
 40
1.483654731620311
 50
84.8778514153844696
 51
125.7004807738713055
  0
ARC
  5
8316
  8
0
 10
459.2222572640781095
 20
69.6205041778288063
 30
0.0
 40
2.9943781238960958
 50
72.1957403493008627
 51
85.5217331760416357
  0
ARC
  5
8317
  8
0
 10
458.032422803949828
 20
65.6056309584314334
 30
0.0
 40
7.1814019517545944
 50
62.9138678876520387
 51
72.9518133739081804
  0
ARC
  5
8318
  8
0
 10
381.1948872308298064
 20
-86.0025753330251206
 30
0.0
 40
177.1491619292889084
 50
62.6846543372673466
 51
63.1148651946653203
  0
ARC
  5
8319
  8
0
 10
463.3474645373564158
 20
73.0897721571817129
 30
0.0
 40
1.9023326042587829
 50
243.0880724630216889
 51
254.3439422678276003
  0
ARC
  5
831A
  8
0
 10
462.9604484594152041
 20
71.5596424716815989
 30
0.0
 40
0.3270198286067018
 50
247.2710619283870983
 51
301.9688155272800145
  0
ARC
  5
831B
  8
0
 10
463.0152539867542032
 20
71.4062982276262801
 30
0.0
 40
0.1714621930817601
 50
313.643359588043495
 51
358.2870774940864749
  0
ARC
  5
831C
  8
0
 10
462.1072502711004972
 20
71.4955343962232064
 30
0.0
 40
1.0835060334301161
 50
355.0038383870863186
 51
0.1587089277163638
  0
ARC
  5
831D
  8
0
 10
463.2401719064155259
 20
71.4989766689798216
 30
0.0
 40
0.0494217260349953
 50
89.3097200856346234
 51
180.5112361979815887
  0
LINE
  5
831E
  8
0
 10
463.2407673080286941
 20
71.5483948083752637
 30
0.0
 11
464.3905708130004086
 21
71.5483948083752637
 31
0.0
  0
ARC
  5
831F
  8
0
 10
464.3909283977773725
 20
71.4983956992132761
 30
0.0
 40
0.0500003878368907
 50
354.3458426406319859
 51
90.4097622854064156
  0
LINE
  5
8320
  8
0
 10
464.4409288154355977
 20
71.4985366890752658
 30
0.0
 11
464.4405857690356925
 21
71.498535696975253
 31
0.0
  0
LINE
  5
8321
  8
0
 10
464.4406855196115771
 20
71.4934694825479653
 30
0.0
 11
464.4510286704356758
 21
70.9681530176752631
 31
0.0
  0
ARC
  5
8322
  8
0
 10
470.8202181916748827
 20
71.0287841832647899
 30
0.0
 40
6.3694781023019607
 50
180.5454076934368004
 51
197.9586173176064108
  0
LINE
  5
8323
  8
0
 10
464.7610645015355999
 20
69.0648830006752803
 30
0.0
 11
464.8782423045846031
 21
68.8199223500046884
 31
0.0
  0
ARC
  5
8324
  8
0
 10
464.9013512105854034
 20
68.8307469825014522
 30
0.0
 40
0.0255185071123649
 50
205.0992475313134094
 51
266.1472910178483744
  0
ARC
  5
8325
  8
0
 10
464.8865917063545226
 20
68.729374548171819
 30
0.0
 40
0.0770242766909907
 50
313.4368004148404907
 51
80.2493607930314283
  0
ARC
  5
8326
  8
0
 10
464.9529767393760267
 20
68.6500859274384538
 30
0.0
 40
0.0269426475965117
 50
119.8904356732529948
 51
259.7727319316470016
  0
ARC
  5
8327
  8
0
 10
464.8639490210977101
 20
68.3338298962202231
 30
0.0
 40
0.3017402279079663
 50
4.0321276031739357
 51
73.7879125693724944
  0
ARC
  5
8328
  8
0
 10
462.76114743989109
 20
68.338857612273685
 30
0.0
 40
0.2952055439339849
 50
105.3212748525206024
 51
176.8562589564263021
  0
ARC
  5
8329
  8
0
 10
462.6790401262811088
 20
68.6500145158787234
 30
0.0
 40
0.0267598503996406
 50
278.8236689886297768
 51
61.4009510316757883
  0
ARC
  5
832A
  8
0
 10
462.7447473742321904
 20
68.7293732302542537
 30
0.0
 40
0.0770257726800377
 50
99.7513263782257837
 51
226.561902635704314
  0
ARC
  5
832B
  8
0
 10
462.7282150684018802
 20
68.8337274713518923
 30
0.0
 40
0.0286541990723867
 50
276.9883229815097252
 51
331.2010129082505046
  0
LINE
  5
832C
  8
0
 10
462.7533251784963113
 20
68.8199236495793656
 30
0.0
 11
462.7725750495357033
 21
68.8545080102752678
 31
0.0
  0
ARC
  5
832D
  8
0
 10
461.7013491052373979
 20
69.5162029894441389
 30
0.0
 40
1.259112889773994
 50
328.2964245130639824
 51
353.3672799885403037
  0
ARC
  5
832E
  8
0
 10
462.0631378036308092
 20
69.4101164154632784
 30
0.0
 40
0.8897673063053572
 50
357.4654885392816936
 51
49.0134142154984715
  0
ARC
  5
832F
  8
0
 10
459.0370534519244075
 20
66.3146445019185649
 30
0.0
 40
5.2173674006528081
 50
46.2227916761354365
 51
59.9531914677466915
  0
ARC
  5
8330
  8
0
 10
456.7971637625191192
 20
63.9766180570910521
 30
0.0
 40
8.3979421951944371
 50
54.7046065624054023
 51
67.5767193142810925
  0
ARC
  5
8331
  8
0
 10
459.5458812918661238
 20
70.7413771168644701
 30
0.0
 40
1.0968831225929281
 50
65.5129725442195507
 51
100.8745189723961033
  0
ARC
  5
8332
  8
0
 10
459.4413972292203994
 20
71.3650504447243179
 30
0.0
 40
0.4649412093418137
 50
102.7299330881587025
 51
175.0089098799680016
  0
ARC
  5
8333
  8
0
 10
458.9175661878410892
 20
71.4175368137033217
 30
0.0
 40
0.0618354845200512
 50
261.0821583360582281
 51
348.7758895335917941
  0
ARC
  5
8334
  8
0
 10
463.5342531507120043
 20
73.0051606455873241
 30
0.0
 40
0.0243753084087794
 50
92.5366464346769533
 51
171.2139374238921903
  0
ARC
  5
8335
  8
0
 10
463.4090653364099808
 20
73.0418556269825103
 30
0.0
 40
0.1063393214139027
 50
282.4775643949109849
 51
341.9370435594445894
  0
LINE
  5
8336
  8
0
 10
463.4320407235114203
 20
72.938027967535163
 30
0.0
 11
463.4107836709357002
 21
72.9328148531752731
 31
0.0
  0
ARC
  5
8337
  8
0
 10
463.4121423411515934
 20
72.9064840963821439
 30
0.0
 40
0.0263657872640583
 50
92.9538493571085382
 51
186.9759285417910064
  0
LINE
  5
8338
  8
0
 10
463.3859717328356851
 20
72.9032819098752611
 30
0.0
 11
463.3859335646357067
 21
72.87698159857527
 31
0.0
  0
ARC
  5
8339
  8
0
 10
463.3600465736224123
 20
72.8735839200568876
 30
0.0
 40
0.0261090122953432
 50
274.0115255891248012
 51
7.4773541272876312
  0
ARC
  5
833A
  8
0
 10
463.4065151703584888
 20
72.6957363098289733
 30
0.0
 40
0.1582306370517447
 50
106.3875503524602948
 51
182.3853197101497869
  0
ARC
  5
833B
  8
0
 10
463.4086786422482191
 20
72.6737792579733508
 30
0.0
 40
0.1609925232002805
 50
174.5210594968434918
 51
252.9958282177310878
  0
ARC
  5
833C
  8
0
 10
463.3607068484824936
 20
72.4943099918022256
 30
0.0
 40
0.0255303281130711
 50
351.1548875690759246
 51
88.0001573004378912
  0
LINE
  5
833D
  8
0
 10
463.385933560235685
 20
72.4903843494752635
 30
0.0
 11
463.3859721435975985
 21
72.4549268223679945
 31
0.0
  0
ARC
  5
833E
  8
0
 10
463.4114707336170795
 20
72.4509845675195976
 30
0.0
 40
0.0258015399963916
 50
171.2112696961144991
 51
269.3358201549510795
  0
ARC
  5
833F
  8
0
 10
463.3833602361772819
 20
72.2411580960505688
 30
0.0
 40
0.1861163290422712
 50
6.442718933941368
 51
81.4060898713730268
  0
ARC
  5
8340
  8
0
 10
463.3891005876217832
 20
72.2510439562221336
 30
0.0
 40
0.1795377503887969
 50
279.3728804643304215
 51
3.5120556581032569
  0
LINE
  5
8341
  8
0
 10
463.4183399215356189
 20
72.073903150175255
 30
0.0
 11
463.3712025963355927
 21
72.0667910031752683
 31
0.0
  0
ARC
  5
8342
  8
0
 10
463.3698916875874829
 20
72.0402312368394746
 30
0.0
 40
0.0265920978780972
 50
87.1743487871493414
 51
187.2476002375661039
  0
ARC
  5
8343
  8
0
 10
463.4905101106703
 20
72.0356911272085227
 30
0.0
 40
0.1470028351688432
 50
179.5380053623746051
 51
260.2349594566193218
  0
ARC
  5
8344
  8
0
 10
463.4643715563875048
 20
71.864523988092941
 30
0.0
 40
0.0263217714859725
 50
352.9092754154701197
 51
87.3746541039879929
  0
ARC
  5
8345
  8
0
 10
463.5165559309161836
 20
71.8554813064379516
 30
0.0
 40
0.0267000419944201
 50
167.4680091929733976
 51
259.8049647023738089
  0
LINE
  5
8346
  8
0
 10
463.511830037935681
 20
71.8292028327752661
 30
0.0
 11
463.5204920174356857
 21
71.8287040977752724
 31
0.0
  0
LINE
  5
8347
  8
0
 10
463.5204920174356857
 20
71.8287040977752724
 30
0.0
 11
463.4656689584356855
 21
71.82870409787526
 31
0.0
  0
ARC
  5
8348
  8
0
 10
463.4722480999055279
 20
71.3715195418958217
 30
0.0
 40
0.4572318255800982
 50
90.8238802888565857
 51
115.1936526598616979
  0
ARC
  5
8349
  8
0
 10
463.2912830687992027
 20
71.763409937446184
 30
0.0
 40
0.0257706760022745
 50
122.0330403387964964
 51
186.3189190801780057
  0
LINE
  5
834A
  8
0
 10
463.2656689582357217
 20
71.7605735521287471
 30
0.0
 11
463.2656689582357217
 21
71.5758519261567443
 31
0.0
  0
ARC
  5
834B
  8
0
 10
463.2913022106774861
 20
71.5730043277380048
 30
0.0
 40
0.0257909373153305
 50
173.6610021892716986
 51
252.5908422388029919
  0
ARC
  5
834C
  8
0
 10
464.0970848427919009
 20
73.0051606702112963
 30
0.0
 40
0.0243753084087794
 50
8.7860675895969162
 51
87.4620461205507951
  0
ARC
  5
834D
  8
0
 10
464.2222726538831807
 20
73.0418556625604509
 30
0.0
 40
0.1063393214139027
 50
198.0629614539296881
 51
254.9188479451406124
  0
LINE
  5
834E
  8
0
 10
464.1946045561417122
 20
72.9391788509322225
 30
0.0
 11
464.2208112245285179
 21
72.9328148531752731
 31
0.0
  0
ARC
  5
834F
  8
0
 10
464.2191714873310957
 20
72.9064769368518739
 30
0.0
 40
0.0263889100633959
 50
353.0459568568151099
 51
86.4374965231578756
  0
LINE
  5
8350
  8
0
 10
464.2453662695825756
 20
72.9032819474739
 30
0.0
 11
464.2454044400839734
 21
72.8769816361772484
 31
0.0
  0
ARC
  5
8351
  8
0
 10
464.2712914313945021
 20
72.873583959923991
 30
0.0
 40
0.0261090122953479
 50
172.5226508861136949
 51
265.9884794242234989
  0
ARC
  5
8352
  8
0
 10
464.2248228502201073
 20
72.6957363456300527
 30
0.0
 40
0.1582306370517447
 50
357.6146853032470858
 51
73.6124546609371606
  0
ARC
  5
8353
  8
0
 10
464.2226593802517982
 20
72.6737792935851274
 30
0.0
 40
0.1609925232002805
 50
287.0041767956674903
 51
5.478945516553674
  0
ARC
  5
8354
  8
0
 10
464.2706311897210867
 20
72.4943100316115476
 30
0.0
 40
0.0255303281130711
 50
91.9998477129568215
 51
188.8451174443210903
  0
LINE
  5
8355
  8
0
 10
464.2454044783112863
 20
72.490384387077242
 30
0.0
 11
464.2453658980518867
 21
72.4549268599666334
 31
0.0
  0
ARC
  5
8356
  8
0
 10
464.2198673083773883
 20
72.4509846028870612
 30
0.0
 40
0.0258015399963916
 50
270.6641848584463901
 51
8.7887353173437646
  0
ARC
  5
8357
  8
0
 10
464.2479778241770987
 20
72.2411581338777182
 30
0.0
 40
0.1861163290422713
 50
98.5939151420233628
 51
173.5572860794555936
  0
ARC
  5
8358
  8
0
 10
464.242237471867611
 20
72.2510439935470146
 30
0.0
 40
0.179537750388797
 50
176.4879493552938925
 51
260.6271245490685828
  0
LINE
  5
8359
  8
0
 10
464.2129981534536114
 20
72.0739031849416705
 30
0.0
 11
464.2601354792757888
 21
72.0667910420662139
 31
0.0
  0
ARC
  5
835A
  8
0
 10
464.2614463903479987
 20
72.040231275845116
 30
0.0
 40
0.0265920978780997
 50
352.7524047758315078
 51
92.8256562262387916
  0
ARC
  5
835B
  8
0
 10
464.1408280148928043
 20
72.0356910732743358
 30
0.0
 40
0.1470027459661456
 50
279.7650328612569979
 51
0.4619091488409348
  0
ARC
  5
835C
  8
0
 10
464.1669665369224731
 20
71.8645240188315739
 30
0.0
 40
0.0263217714859725
 50
92.6253509094102583
 51
187.0907295979266109
  0
ARC
  5
835D
  8
0
 10
464.1147821631849979
 20
71.8554813326104522
 30
0.0
 40
0.0267000419944328
 50
280.1950403110171237
 51
12.5319958203868396
  0
LINE
  5
835E
  8
0
 10
464.1108460790085815
 20
71.8287041236033446
 30
0.0
 11
464.1525154913028928
 21
71.8287041273254374
 31
0.0
  0
ARC
  5
835F
  8
0
 10
464.1590900365425227
 20
71.3715195719452566
 30
0.0
 40
0.4572318255800984
 50
64.8063523535346064
 51
90.8238855110314773
  0
ARC
  5
8360
  8
0
 10
464.340055033358226
 20
71.7634099833301207
 30
0.0
 40
0.0257706760022745
 50
353.6810859334206043
 51
57.9669646745858387
  0
LINE
  5
8361
  8
0
 10
464.3656691441699991
 20
71.7605736002540056
 30
0.0
 11
464.3656691603330842
 21
71.5758519742818464
 31
0.0
  0
ARC
  5
8362
  8
0
 10
464.3400359081405782
 20
71.5730043736202504
 30
0.0
 40
0.0257909373153305
 50
287.4091627745943924
 51
6.3390028239749361
  0
LINE
  5
8363
  8
0
 10
463.5204920158349751
 20
71.8287040978674298
 30
0.0
 11
464.1108437313566242
 21
71.8287040977831026
 31
0.0
  0
LINE
  5
8364
  8
0
 10
464.1108437313566242
 20
71.8287040977831026
 30
0.0
 11
464.1195080584648736
 21
71.8292028593612599
 31
0.0
  0
LINE
  5
8365
  8
0
 10
463.4107836709357002
 20
72.9328148531752731
 30
0.0
 11
464.2208112245285179
 21
72.9328148531752731
 31
0.0
  0
LINE
  5
8366
  8
0
 10
458.8679705166383087
 20
71.2114061921752608
 30
0.0
 11
457.9703357690149801
 21
71.3798175914867699
 31
0.0
  0
LINE
  5
8367
  8
0
 10
458.9209472906383098
 20
71.3370537751752636
 30
0.0
 11
458.8850594343383023
 21
71.2216932022752616
 31
0.0
  0
LINE
  5
8368
  8
0
 10
457.9665058030411728
 20
71.5161230758169637
 30
0.0
 11
457.9581377853382946
 21
71.3955993176752628
 31
0.0
  0
ARC
  5
8369
  8
0
 10
457.9731017611384232
 20
71.3945603621752696
 30
0.0
 40
0.0149999999999966
 50
176.0283023147503911
 51
259.373877502707785
  0
ARC
  5
836A
  8
0
 10
458.8707365087349785
 20
71.2261489628938307
 30
0.0
 40
0.0150000000176275
 50
259.3738775283194968
 51
342.7194524031698961
  0
ARC
  5
836B
  8
0
 10
458.906624365038283
 20
71.3415095357752591
 30
0.0
 40
0.0149999999999982
 50
342.7194524566979226
 51
78.8498854122793915
  0
ARC
  5
836C
  8
0
 10
457.9814697788414151
 20
71.5150841203702896
 30
0.0
 40
0.0150000000056683
 50
84.7840389710957254
 51
176.0283026776774022
  0
ARC
  5
836D
  8
0
 10
464.2023171017239065
 20
71.222069900914704
 30
0.0
 40
0.5573818463254786
 50
72.9581422397002513
 51
106.7128822545022047
  0
ARC
  5
836E
  8
0
 10
463.8155546106416978
 20
70.6769389482930848
 30
0.0
 40
1.102479701950257
 50
78.1458315219383195
 51
101.8606679051826944
  0
ARC
  5
836F
  8
0
 10
463.4291356064169918
 20
71.223376486650622
 30
0.0
 40
0.5559718696949633
 50
73.2936171726204861
 51
107.0987599253926987
  0
ARC
  5
8370
  8
0
 10
464.2023171017239065
 20
72.1137196570241912
 30
0.0
 40
0.5573818463254786
 50
253.2871177454977953
 51
287.0418577602998198
  0
ARC
  5
8371
  8
0
 10
463.8155546106416978
 20
72.6588506096458104
 30
0.0
 40
1.102479701950257
 50
258.1393320948141081
 51
281.8541684780616947
  0
ARC
  5
8372
  8
0
 10
463.4291356064169918
 20
72.1124130712882732
 30
0.0
 40
0.5559718696949633
 50
252.9012400746073013
 51
286.7063828273796275
  0
LINE
  5
8373
  8
0
 10
463.5889592946347761
 20
71.5799085092641008
 30
0.0
 11
463.5889592946347761
 21
71.7558810486748087
 31
0.0
  0
LINE
  5
8374
  8
0
 10
464.0420275338802867
 20
71.5798828120484671
 30
0.0
 11
464.042027533880173
 21
71.7559067458904565
 31
0.0
  0
LINE
  5
8375
  8
0
 10
464.1627683539963982
 20
71.8905088396752632
 30
0.0
 11
463.4685695490510966
 21
71.8905088396752632
 31
0.0
  0
LINE
  5
8376
  8
0
 10
463.3656429006338726
 20
72.0664817126252615
 30
0.0
 11
464.2656954182850768
 21
72.0664817126252615
 31
0.0
  0
LINE
  5
8377
  8
0
 10
464.2181914668008744
 20
72.42487547342526
 30
0.0
 11
463.4131463602410008
 21
72.42487547342526
 31
0.0
  0
LINE
  5
8378
  8
0
 10
464.2672544198354103
 20
72.5196160601166042
 30
0.0
 11
463.3640833200176985
 21
72.5196160601166042
 31
0.0
  0
LINE
  5
8379
  8
0
 10
464.2706042370350019
 20
72.8471992094716683
 30
0.0
 11
463.360733901987885
 21
72.8471992094716683
 31
0.0
  0
LINE
  5
837A
  8
0
 10
462.4663861524871891
 20
68.3550470105752623
 30
0.0
 11
465.1649423751712789
 21
68.3550470105752623
 31
0.0
  0
LINE
  5
837B
  8
0
 10
462.6916774575914246
 20
68.6735471287901191
 30
0.0
 11
464.939658065236074
 21
68.6735471287901191
 31
0.0
  0
LINE
  5
837C
  8
0
 10
462.732028158192179
 20
68.8053255921392406
 30
0.0
 11
464.9000002028246854
 21
68.8053255921392406
 31
0.0
  0
LINE
  5
837D
  8
0
 10
464.0981642099047235
 20
73.0295120690752668
 30
0.0
 11
463.5331743392794124
 21
73.0295120690752668
 31
0.0
  0
ENDSEC
  0
EOF
