  0
SECTION
  2
HEADER
  9
$ACADVER
  1
AC1009
  9
$INSBASE
 10
462.7881444876542218
 20
71.2506916634877143
 30
0.0
  9
$EXTMIN
 10
461.4196172841295152
 20
65.1811888444100589
 30
-0.000000000000013
  9
$EXTMAX
 10
464.1464318760553169
 20
72.6035002613865146
 30
0.0000000000000023
  9
$LIMMIN
 10
0.0
 20
0.0
  9
$LIMMAX
 10
11.6929133858000007
 20
8.2677165353999982
  9
$ORTHOMODE
 70
     0
  9
$REGENMODE
 70
     1
  9
$FILLMODE
 70
     1
  9
$QTEXTMODE
 70
     0
  9
$MIRRTEXT
 70
     0
  9
$DRAGMODE
 70
     2
  9
$LTSCALE
 40
0.6431102362
  9
$OSMODE
 70
  2047
  9
$ATTMODE
 70
     1
  9
$TEXTSIZE
 40
0.2
  9
$TRACEWID
 40
0.05
  9
$TEXTSTYLE
  7
STANDARD
  9
$CLAYER
  8
0
  9
$CELTYPE
  6
BYLAYER
  9
$CECOLOR
 62
   256
  9
$DIMSCALE
 40
1.0
  9
$DIMASZ
 40
0.1875
  9
$DIMEXO
 40
0.0625
  9
$DIMDLI
 40
0.4443307087
  9
$DIMRND
 40
0.0
  9
$DIMDLE
 40
0.0
  9
$DIMEXE
 40
0.125
  9
$DIMTP
 40
0.01
  9
$DIMTM
 40
0.01
  9
$DIMTXT
 40
1.0
  9
$DIMCEN
 40
0.1052362205
  9
$DIMTSZ
 40
0.0
  9
$DIMTOL
 70
     1
  9
$DIMLIM
 70
     0
  9
$DIMTIH
 70
     0
  9
$DIMTOH
 70
     1
  9
$DIMSE1
 70
     0
  9
$DIMSE2
 70
     0
  9
$DIMTAD
 70
     0
  9
$DIMZIN
 70
     0
  9
$DIMBLK
  1

  9
$DIMASO
 70
     1
  9
$DIMSHO
 70
     1
  9
$DIMPOST
  1
\X
  9
$DIMAPOST
  1

  9
$DIMALT
 70
     1
  9
$DIMALTD
 70
     2
  9
$DIMALTF
 40
25.3999999999999986
  9
$DIMLFAC
 40
1.0
  9
$DIMTOFL
 70
     0
  9
$DIMTVP
 40
0.0
  9
$DIMTIX
 70
     0
  9
$DIMSOXD
 70
     0
  9
$DIMSAH
 70
     0
  9
$DIMBLK1
  1

  9
$DIMBLK2
  1

  9
$DIMSTYLE
  2
STANDARD
  9
$DIMCLRD
 70
     0
  9
$DIMCLRE
 70
     0
  9
$DIMCLRT
 70
     0
  9
$DIMTFAC
 40
1.0
  9
$DIMGAP
 40
0.09
  9
$LUNITS
 70
     2
  9
$LUPREC
 70
     4
  9
$SKETCHINC
 40
0.1
  9
$FILLETRAD
 40
0.0
  9
$AUNITS
 70
     0
  9
$AUPREC
 70
     0
  9
$MENU
  1
.
  9
$ELEVATION
 40
0.0
  9
$PELEVATION
 40
0.0
  9
$THICKNESS
 40
0.0
  9
$LIMCHECK
 70
     0
  9
$BLIPMODE
 70
     0
  9
$CHAMFERA
 40
0.0
  9
$CHAMFERB
 40
0.0
  9
$SKPOLY
 70
     0
  9
$TDCREATE
 40
2458172.5207638889551163
  9
$TDUPDATE
 40
2459045.4734490741975605
  9
$TDINDWG
 40
0.253110625
  9
$TDUSRTIMER
 40
0.253110625
  9
$USRTIMER
 70
     1
  9
$ANGBASE
 50
0.0
  9
$ANGDIR
 70
     0
  9
$PDMODE
 70
     0
  9
$PDSIZE
 40
0.3125
  9
$PLINEWID
 40
0.0
  9
$COORDS
 70
     1
  9
$SPLFRAME
 70
     0
  9
$SPLINETYPE
 70
     6
  9
$SPLINESEGS
 70
     8
  9
$ATTDIA
 70
     1
  9
$ATTREQ
 70
     1
  9
$HANDLING
 70
     1
  9
$HANDSEED
  5
8512
  9
$SURFTAB1
 70
     6
  9
$SURFTAB2
 70
     6
  9
$SURFTYPE
 70
     6
  9
$SURFU
 70
     6
  9
$SURFV
 70
     6
  9
$UCSNAME
  2

  9
$UCSORG
 10
0.0
 20
0.0
 30
0.0
  9
$UCSXDIR
 10
1.0
 20
0.0
 30
0.0
  9
$UCSYDIR
 10
0.0
 20
1.0
 30
0.0
  9
$PUCSNAME
  2

  9
$PUCSORG
 10
0.0
 20
0.0
 30
0.0
  9
$PUCSXDIR
 10
1.0
 20
0.0
 30
0.0
  9
$PUCSYDIR
 10
0.0
 20
1.0
 30
0.0
  9
$USERI1
 70
     0
  9
$USERI2
 70
     0
  9
$USERI3
 70
     0
  9
$USERI4
 70
     0
  9
$USERI5
 70
     0
  9
$USERR1
 40
0.0
  9
$USERR2
 40
0.0
  9
$USERR3
 40
0.0
  9
$USERR4
 40
0.0
  9
$USERR5
 40
0.0
  9
$WORLDVIEW
 70
     1
  9
$SHADEDGE
 70
     3
  9
$SHADEDIF
 70
    70
  9
$TILEMODE
 70
     1
  9
$MAXACTVP
 70
    64
  9
$PLIMCHECK
 70
     0
  9
$PEXTMIN
 10
1.0000000000000000E+20
 20
1.0000000000000000E+20
 30
1.0000000000000000E+20
  9
$PEXTMAX
 10
-1.0000000000000000E+20
 20
-1.0000000000000000E+20
 30
-1.0000000000000000E+20
  9
$PLIMMIN
 10
0.0
 20
0.0
  9
$PLIMMAX
 10
12.0
 20
9.0
  9
$UNITMODE
 70
     0
  9
$VISRETAIN
 70
     1
  9
$PLINEGEN
 70
     0
  9
$PSLTSCALE
 70
     1
  0
ENDSEC
  0
SECTION
  2
TABLES
  0
TABLE
  2
VPORT
 70
     1
  0
VPORT
  2
*ACTIVE
 70
     0
 10
0.0
 20
0.0
 11
1.0
 21
1.0
 12
33.1537354720387611
 22
-0.8101969593203932
 13
0.0
 23
0.0
 14
1.0
 24
1.0
 15
0.0
 25
0.0
 16
0.0
 26
0.0
 36
14.6338572656650907
 17
429.6292891080536833
 27
69.7025415122186871
 37
0.0
 40
7.4933383204882063
 41
3.0463258785942489
 42
50.0
 43
0.0
 44
0.0
 50
0.0
 51
0.0
 71
     0
 72
   100
 73
     1
 74
     1
 75
     0
 76
     0
 77
     0
 78
     0
  0
ENDTAB
  0
TABLE
  2
LTYPE
 70
     2
  0
LTYPE
  2
CONTINUOUS
 70
     0
  3
Solid line
 72
    65
 73
     0
 40
0.0
  0
LTYPE
  2
PHANTOM2
 70
     0
  3
___ _ _ ___ _ _ ___ _ _ ___ _ _
 72
    65
 73
     6
 40
1.25
 49
0.625
 49
-0.125
 49
0.125
 49
-0.125
 49
0.125
 49
-0.125
  0
ENDTAB
  0
TABLE
  2
LAYER
 70
     2
  0
LAYER
  2
0
 70
     0
 62
   255
  6
CONTINUOUS
  0
LAYER
  2
DEFPOINTS
 70
     0
 62
     7
  6
CONTINUOUS
  0
ENDTAB
  0
TABLE
  2
STYLE
 70
     1
  0
STYLE
  2
STANDARD
 70
     0
 40
0.0
 41
0.8
 50
0.0
 71
     0
 42
0.2
  3
txt
  4

  0
ENDTAB
  0
TABLE
  2
VIEW
 70
     0
  0
ENDTAB
  0
TABLE
  2
UCS
 70
     0
  0
ENDTAB
  0
TABLE
  2
APPID
 70
    11
  0
APPID
  2
ACAD
 70
     0
  0
APPID
  2
ACAD_MLEADERVER
 70
     0
  0
APPID
  2
ACAD_EXEMPT_FROM_CAD_STANDARDS
 70
     0
  0
APPID
  2
ACAD_DSTYLE_DIMJAG
 70
     0
  0
APPID
  2
ACAD_DSTYLE_DIMTALN
 70
     0
  0
APPID
  2
ACAD_NAV_VCDISPLAY
 70
     0
  0
APPID
  2
ACAECLAYERSTANDARD
 70
     0
  0
APPID
  2
ACCMTRANSPARENCY
 70
     0
  0
APPID
  2
DCO15
 70
     0
  0
APPID
  2
ACDBATTR
 70
     0
  0
APPID
  2
ACDBDYNAMICBLOCKTRUENAME2
 70
     0
  0
ENDTAB
  0
TABLE
  2
DIMSTYLE
 70
     1
  0
DIMSTYLE
  2
STANDARD
 70
     0
  3

  4

  5

  6

  7

 40
1.0
 41
0.1875
 42
0.0625
 43
0.38
 44
0.125
 45
0.0
 46
0.0
 47
0.01
 48
0.01
140
0.15625
141
0.09
142
0.0
143
25.3999999999999986
144
1.0
145
0.0
146
1.0
147
0.09
 71
     1
 72
     0
 73
     1
 74
     1
 75
     0
 76
     0
 77
     0
 78
     4
170
     0
171
     2
172
     0
173
     0
174
     0
175
     0
176
     0
177
     0
178
     0
  0
ENDTAB
  0
ENDSEC
  0
SECTION
  2
BLOCKS
  0
BLOCK
  8
0
  2
$MODEL_SPACE
 70
     0
 10
0.0
 20
0.0
 30
0.0
  3
$MODEL_SPACE
  1

  0
ENDBLK
  5
21
  8
0
  0
BLOCK
 67
     1
  8
0
  2
$PAPER_SPACE
 70
     0
 10
0.0
 20
0.0
 30
0.0
  3
$PAPER_SPACE
  1

  0
ENDBLK
  5
1D
 67
     1
  8
0
  0
BLOCK
  8
0
  2
*U0
 70
     1
 10
0.0
 20
0.0
 30
0.0
  3
*U0
  1

  0
LINE
  5
8362
  8
0
 10
-0.0767201014025005
 20
-0.0318252222438549
 30
0.0
 11
-0.0218989597098158
 21
0.0228883763973435
 31
0.0
  0
ARC
  5
8363
  8
0
 10
-0.0029688022021048
 20
0.0073077311470264
 30
0.0
 40
0.0245174910968267
 50
84.7645651858436651
 51
140.5435885058720089
  0
LINE
  5
8364
  8
0
 10
-0.0007297182098114
 20
0.0316567496973406
 30
0.0
 11
0.0767201014024863
 21
0.0317321803324973
 31
0.0
  0
ENDBLK
  5
8365
  8
0
  0
BLOCK
  8
0
  2
*U1
 70
     1
 10
0.0
 20
0.0
 30
0.0
  3
*U1
  1

  0
INSERT
  5
8368
  8
0
  6
BYBLOCK
 62
     0
  2
*U0
 10
85.6416634483015855
 20
15.1770837282696398
 30
0.0
  0
INSERT
  5
8369
  8
0
  6
BYBLOCK
 62
     0
  2
*U0
 10
85.3380585165153605
 20
14.8734967503859696
 30
0.0
 41
0.9999999999999998
 42
0.9999999999999998
 43
0.9999999999999998
 50
45.0
  0
INSERT
  5
836A
  8
0
  6
BYBLOCK
 62
     0
  2
*U0
 10
85.3380458211891124
 20
14.4441472335767909
 30
0.0
 50
90.0
  0
INSERT
  5
836B
  8
0
  6
BYBLOCK
 62
     0
  2
*U0
 10
85.6416327990727808
 20
14.1405423017905694
 30
0.0
 50
135.0
  0
INSERT
  5
836C
  8
0
  6
BYBLOCK
 62
     0
  2
*U0
 10
86.0709823158819631
 20
14.1405296064643196
 30
0.0
 41
0.9999999999999998
 42
0.9999999999999998
 43
0.9999999999999998
 50
180.0
  0
INSERT
  5
836D
  8
0
  6
BYBLOCK
 62
     0
  2
*U0
 10
86.3745872476681882
 20
14.4441165843479808
 30
0.0
 41
0.9999999999999998
 42
0.9999999999999998
 43
0.9999999999999998
 50
225.0
  0
INSERT
  5
836E
  8
0
  6
BYBLOCK
 62
     0
  2
*U0
 10
86.3745999429944362
 20
14.8734661011571703
 30
0.0
 41
0.9999999999999996
 42
0.9999999999999996
 43
0.9999999999999996
 50
270.0
  0
INSERT
  5
836F
  8
0
  6
BYBLOCK
 62
     0
  2
*U0
 10
86.0710129651107678
 20
15.17707103294339
 30
0.0
 41
0.9999999999999998
 42
0.9999999999999998
 43
0.9999999999999998
 50
315.0
  0
ENDBLK
  5
8370
  8
0
  0
ENDSEC
  0
SECTION
  2
ENTITIES
  0
ATTDEF
  5
829
  8
DEFPOINTS
 10
462.7857077085826063
 20
71.2553079336029214
 30
0.0
 40
0.001
  1
K-72759W
  3

  2
MODELNUMBER
 70
     0
1001
ACDBATTR
1070
     0
1070
     1
  0
ATTDEF
  5
82A
  8
DEFPOINTS
 10
462.7857077085826063
 20
71.2536412669362562
 30
0.0
 40
0.001
  1
ARTIFACTS
  3

  2
TRADENAME
 70
     0
1001
ACDBATTR
1070
     0
1070
     1
  0
ATTDEF
  5
82B
  8
DEFPOINTS
 10
462.7857077085826063
 20
71.2519746002695911
 30
0.0
 40
0.001
  1
BATHROOM SINK FAUCET
  3

  2
PRODUCT
 70
     0
1001
ACDBATTR
1070
     0
1070
     1
  0
ARC
  5
8342
  8
0
 10
462.5800006096075094
 20
65.7683650945298837
 30
0.0
 40
0.5353839461447194
 50
145.0240003130143975
 51
237.4727991823534126
  0
ARC
  5
8343
  8
0
 10
462.8256567329437985
 20
66.3013046380804241
 30
0.0
 40
1.119635642646299
 50
241.541446716847986
 51
268.0800042805369117
  0
ARC
  5
8344
  8
0
 10
462.786268391122519
 20
66.1191279340135907
 30
0.0
 40
0.9368322359893092
 50
270.1147403781976095
 51
309.0320135143714992
  0
ARC
  5
8345
  8
0
 10
463.0085076405881068
 20
65.7674422920799628
 30
0.0
 40
0.5259613443853678
 50
314.3602511051199144
 51
35.8198018688672377
  0
LINE
  5
8346
  8
0
 10
463.4349895002612811
 20
66.0752548310665446
 30
0.0
 11
463.3469622161612733
 21
67.5070624876666017
 31
0.0
  0
ARC
  5
8347
  8
0
 10
479.8114880130435722
 20
69.0730388466308938
 30
0.0
 40
16.5388298157105993
 50
176.4047205159154998
 51
185.4331803749859091
  0
ARC
  5
8348
  8
0
 10
465.9309318544763983
 20
69.9809957873481352
 30
0.0
 40
2.6288985828080391
 50
172.8610515479350056
 51
177.1837705555761886
  0
ARC
  5
8349
  8
0
 10
459.8019549394048227
 20
70.0037661260445248
 30
0.0
 40
2.471422469464446
 50
2.467307849083638
 51
7.0536537241042394
  0
ARC
  5
834A
  8
0
 10
444.6869403771478915
 20
69.0903253153713024
 30
0.0
 40
17.613694899393721
 50
354.842828766718128
 51
3.319285179174952
  0
ARC
  5
834B
  8
0
 10
608.8418853025173121
 20
57.7752712721735122
 30
0.0
 40
146.9351841758434887
 50
176.2024134836092912
 51
176.7617839236700945
  0
CIRCLE
  5
834C
  8
0
 10
462.7881444911567996
 20
71.2506916634877143
 30
0.0
 40
0.2347511481542879
  0
ARC
  5
834D
  8
0
 10
462.7881444876542218
 20
71.2506916634877143
 30
0.0
 40
1.0838207225796981
 50
299.534625393847989
 51
240.5137899329286881
  0
CIRCLE
  5
834E
  8
0
 10
462.7881444876542218
 20
71.2506916634877143
 30
0.0
 40
0.567042701093698
  0
ARC
  5
834F
  8
0
 10
462.7881444876542218
 20
71.2506916634877143
 30
0.0
 40
1.349287913070188
 50
292.2363933482615721
 51
247.7403330034794067
  0
CIRCLE
  5
8351
  8
0
 10
462.7881444876542218
 20
71.2506916634877143
 30
0.0
 40
0.3054871642526464
  0
CIRCLE
  5
8352
  8
0
 10
462.7881444876542218
 20
71.2506916634877143
 30
0.0
 40
0.4299681659503563
  0
ARC
  5
8353
  8
0
 10
462.7881444876542218
 20
71.2506916634877143
 30
0.0
 40
1.147921901531098
 50
297.2571193308788224
 51
242.7761828578034908
  0
INSERT
  5
8354
  8
0
  2
*U1
 10
376.9318216055623907
 20
56.5918849961207329
 30
0.0
  0
CIRCLE
  5
8355
  8
0
 10
462.7881444876542218
 20
71.2506916634877143
 30
0.0
 40
0.6252566684433138
  0
ENDSEC
  0
EOF
