  0
SECTION
  2
HEADER
  9
$ACADVER
  1
AC1009
  9
$INSBASE
 10
481.8135516530318228
 20
68.89431552282214
 30
0.0
  9
$EXTMIN
 10
475.7201664240549235
 20
68.8847810721401146
 30
-0.0015258207003583
  9
$EXTMAX
 10
483.1795461278667858
 20
73.5688076331342558
 30
0.0000000349246037
  9
$LIMMIN
 10
0.0
 20
0.0
  9
$LIMMAX
 10
11.6929133858000007
 20
8.2677165353999982
  9
$ORTHOMODE
 70
     0
  9
$REGENMODE
 70
     1
  9
$FILLMODE
 70
     1
  9
$QTEXTMODE
 70
     0
  9
$MIRRTEXT
 70
     0
  9
$DRAGMODE
 70
     2
  9
$LTSCALE
 40
0.6431102362
  9
$OSMODE
 70
  4095
  9
$ATTMODE
 70
     1
  9
$TEXTSIZE
 40
0.2
  9
$TRACEWID
 40
0.05
  9
$TEXTSTYLE
  7
STANDARD
  9
$CLAYER
  8
0
  9
$CELTYPE
  6
BYLAYER
  9
$CECOLOR
 62
   256
  9
$DIMSCALE
 40
1.0
  9
$DIMASZ
 40
0.1875
  9
$DIMEXO
 40
0.0625
  9
$DIMDLI
 40
0.4443307087
  9
$DIMRND
 40
0.0
  9
$DIMDLE
 40
0.0
  9
$DIMEXE
 40
0.125
  9
$DIMTP
 40
0.01
  9
$DIMTM
 40
0.01
  9
$DIMTXT
 40
1.0
  9
$DIMCEN
 40
0.1052362205
  9
$DIMTSZ
 40
0.0
  9
$DIMTOL
 70
     1
  9
$DIMLIM
 70
     0
  9
$DIMTIH
 70
     0
  9
$DIMTOH
 70
     1
  9
$DIMSE1
 70
     0
  9
$DIMSE2
 70
     0
  9
$DIMTAD
 70
     0
  9
$DIMZIN
 70
     0
  9
$DIMBLK
  1

  9
$DIMASO
 70
     1
  9
$DIMSHO
 70
     1
  9
$DIMPOST
  1
\X
  9
$DIMAPOST
  1

  9
$DIMALT
 70
     1
  9
$DIMALTD
 70
     2
  9
$DIMALTF
 40
25.3999999999999986
  9
$DIMLFAC
 40
1.0
  9
$DIMTOFL
 70
     0
  9
$DIMTVP
 40
0.0
  9
$DIMTIX
 70
     0
  9
$DIMSOXD
 70
     0
  9
$DIMSAH
 70
     0
  9
$DIMBLK1
  1

  9
$DIMBLK2
  1

  9
$DIMSTYLE
  2
STANDARD
  9
$DIMCLRD
 70
     0
  9
$DIMCLRE
 70
     0
  9
$DIMCLRT
 70
     0
  9
$DIMTFAC
 40
1.0
  9
$DIMGAP
 40
0.09
  9
$LUNITS
 70
     2
  9
$LUPREC
 70
     4
  9
$SKETCHINC
 40
0.1
  9
$FILLETRAD
 40
0.0
  9
$AUNITS
 70
     0
  9
$AUPREC
 70
     0
  9
$MENU
  1
.
  9
$ELEVATION
 40
0.0
  9
$PELEVATION
 40
0.0
  9
$THICKNESS
 40
0.0
  9
$LIMCHECK
 70
     0
  9
$BLIPMODE
 70
     0
  9
$CHAMFERA
 40
0.0
  9
$CHAMFERB
 40
0.0
  9
$SKPOLY
 70
     0
  9
$TDCREATE
 40
2458172.5207638889551163
  9
$TDUPDATE
 40
2460012.6029050932265818
  9
$TDINDWG
 40
0.2609578472
  9
$TDUSRTIMER
 40
0.2609578472
  9
$USRTIMER
 70
     1
  9
$ANGBASE
 50
0.0
  9
$ANGDIR
 70
     0
  9
$PDMODE
 70
     0
  9
$PDSIZE
 40
0.3125
  9
$PLINEWID
 40
0.0
  9
$COORDS
 70
     1
  9
$SPLFRAME
 70
     0
  9
$SPLINETYPE
 70
     6
  9
$SPLINESEGS
 70
     8
  9
$ATTDIA
 70
     1
  9
$ATTREQ
 70
     1
  9
$HANDLING
 70
     1
  9
$HANDSEED
  5
8ADE
  9
$SURFTAB1
 70
     6
  9
$SURFTAB2
 70
     6
  9
$SURFTYPE
 70
     6
  9
$SURFU
 70
     6
  9
$SURFV
 70
     6
  9
$UCSNAME
  2

  9
$UCSORG
 10
0.0
 20
0.0
 30
0.0
  9
$UCSXDIR
 10
1.0
 20
0.0
 30
0.0
  9
$UCSYDIR
 10
0.0
 20
1.0
 30
0.0
  9
$PUCSNAME
  2

  9
$PUCSORG
 10
0.0
 20
0.0
 30
0.0
  9
$PUCSXDIR
 10
1.0
 20
0.0
 30
0.0
  9
$PUCSYDIR
 10
0.0
 20
1.0
 30
0.0
  9
$USERI1
 70
     0
  9
$USERI2
 70
     0
  9
$USERI3
 70
     0
  9
$USERI4
 70
     0
  9
$USERI5
 70
     0
  9
$USERR1
 40
0.0
  9
$USERR2
 40
0.0
  9
$USERR3
 40
0.0
  9
$USERR4
 40
0.0
  9
$USERR5
 40
0.0
  9
$WORLDVIEW
 70
     1
  9
$SHADEDGE
 70
     3
  9
$SHADEDIF
 70
    70
  9
$TILEMODE
 70
     1
  9
$MAXACTVP
 70
    64
  9
$PLIMCHECK
 70
     0
  9
$PEXTMIN
 10
1.0000000000000000E+20
 20
1.0000000000000000E+20
 30
1.0000000000000000E+20
  9
$PEXTMAX
 10
-1.0000000000000000E+20
 20
-1.0000000000000000E+20
 30
-1.0000000000000000E+20
  9
$PLIMMIN
 10
0.0
 20
0.0
  9
$PLIMMAX
 10
12.0
 20
9.0
  9
$UNITMODE
 70
     0
  9
$VISRETAIN
 70
     1
  9
$PLINEGEN
 70
     0
  9
$PSLTSCALE
 70
     1
  0
ENDSEC
  0
SECTION
  2
TABLES
  0
TABLE
  2
VPORT
 70
     1
  0
VPORT
  2
*ACTIVE
 70
     0
 10
0.0
 20
0.0
 11
1.0
 21
1.0
 12
49.8205671679071429
 22
1.5242528404185121
 13
0.0
 23
0.0
 14
1.0
 24
1.0
 15
0.0
 25
0.0
 16
0.0
 26
0.0
 36
14.6338572656650907
 17
429.6292891080536833
 27
69.7025415122186871
 37
0.0
 40
4.7200114001311002
 41
1.593589743589743
 42
50.0
 43
0.0
 44
0.0
 50
0.0
 51
0.0
 71
     0
 72
   100
 73
     1
 74
     1
 75
     0
 76
     0
 77
     0
 78
     0
  0
ENDTAB
  0
TABLE
  2
LTYPE
 70
     2
  0
LTYPE
  2
CONTINUOUS
 70
     0
  3
Solid line
 72
    65
 73
     0
 40
0.0
  0
LTYPE
  2
PHANTOM2
 70
     0
  3
___ _ _ ___ _ _ ___ _ _ ___ _ _
 72
    65
 73
     6
 40
1.25
 49
0.625
 49
-0.125
 49
0.125
 49
-0.125
 49
0.125
 49
-0.125
  0
ENDTAB
  0
TABLE
  2
LAYER
 70
     2
  0
LAYER
  2
0
 70
     0
 62
   255
  6
CONTINUOUS
  0
LAYER
  2
DEFPOINTS
 70
     0
 62
     7
  6
CONTINUOUS
  0
ENDTAB
  0
TABLE
  2
STYLE
 70
     1
  0
STYLE
  2
STANDARD
 70
     0
 40
0.0
 41
0.8
 50
0.0
 71
     0
 42
0.2
  3
txt
  4

  0
ENDTAB
  0
TABLE
  2
VIEW
 70
     0
  0
ENDTAB
  0
TABLE
  2
UCS
 70
     0
  0
ENDTAB
  0
TABLE
  2
APPID
 70
    10
  0
APPID
  2
ACAD
 70
     0
  0
APPID
  2
ACAD_MLEADERVER
 70
     0
  0
APPID
  2
ACAD_EXEMPT_FROM_CAD_STANDARDS
 70
     0
  0
APPID
  2
ACAD_DSTYLE_DIMJAG
 70
     0
  0
APPID
  2
ACAD_DSTYLE_DIMTALN
 70
     0
  0
APPID
  2
ACAD_NAV_VCDISPLAY
 70
     0
  0
APPID
  2
ACAECLAYERSTANDARD
 70
     0
  0
APPID
  2
ACCMTRANSPARENCY
 70
     0
  0
APPID
  2
DCO15
 70
     0
  0
APPID
  2
ACDBATTR
 70
     0
  0
ENDTAB
  0
TABLE
  2
DIMSTYLE
 70
     1
  0
DIMSTYLE
  2
STANDARD
 70
     0
  3

  4

  5

  6

  7

 40
1.0
 41
0.1875
 42
0.0625
 43
0.38
 44
0.125
 45
0.0
 46
0.0
 47
0.01
 48
0.01
140
0.15625
141
0.09
142
0.0
143
25.3999999999999986
144
1.0
145
0.0
146
1.0
147
0.09
 71
     1
 72
     0
 73
     1
 74
     1
 75
     0
 76
     0
 77
     0
 78
     4
170
     0
171
     2
172
     0
173
     0
174
     0
175
     0
176
     0
177
     0
178
     0
  0
ENDTAB
  0
ENDSEC
  0
SECTION
  2
BLOCKS
  0
BLOCK
  8
0
  2
$MODEL_SPACE
 70
     0
 10
0.0
 20
0.0
 30
0.0
  3
$MODEL_SPACE
  1

  0
ENDBLK
  5
21
  8
0
  0
BLOCK
 67
     1
  8
0
  2
$PAPER_SPACE
 70
     0
 10
0.0
 20
0.0
 30
0.0
  3
$PAPER_SPACE
  1

  0
ENDBLK
  5
1D
 67
     1
  8
0
  0
ENDSEC
  0
SECTION
  2
ENTITIES
  0
ATTDEF
  5
829
  8
DEFPOINTS
 10
481.8085815742886098
 20
68.8916661192900506
 30
0.0
 40
0.001
  1
K-72759T-E2
  3

  2
MODELNUMBER
 70
     0
1001
ACDBATTR
1070
     0
1070
     1
  0
ATTDEF
  5
82A
  8
DEFPOINTS
 10
481.8085815742886098
 20
68.8899994526233854
 30
0.0
 40
0.001
  1
ARTIFACTS
  3

  2
TRADENAME
 70
     0
1001
ACDBATTR
1070
     0
1070
     1
  0
ATTDEF
  5
82B
  8
DEFPOINTS
 10
481.8085815742886098
 20
68.8883327859567203
 30
0.0
 40
0.001
  1
BATHROOM SINK FAUCET
  3

  2
PRODUCT
 70
     0
1001
ACDBATTR
1070
     0
1070
     1
  0
LINE
  5
89AD
  8
0
 10
476.9058679623382773
 20
71.8957173309221389
 30
0.0
 11
475.7931788538339219
 21
72.1044765509479078
 31
0.0
  0
ARC
  5
89AE
  8
0
 10
475.805624460035915
 20
72.1636591135927432
 30
0.0
 40
0.0604770108058119
 50
119.2806077775935023
 51
258.1242100129275059
  0
LINE
  5
89AF
  8
0
 10
475.7760459242381899
 20
72.2164092705221492
 30
0.0
 11
475.8896377199382073
 21
72.2919759185221409
 31
0.0
  0
ARC
  5
89B0
  8
0
 10
474.1359260980490262
 20
74.045978464295402
 30
0.0
 40
2.4803284829490941
 50
314.9952479849054043
 51
323.439676752498201
  0
ARC
  5
89B1
  8
0
 10
477.5957678294083735
 20
71.3138478130255038
 30
0.0
 40
1.9307941306818921
 50
126.189881784943907
 51
139.4716655861763002
  0
ARC
  5
89B2
  8
0
 10
477.3214888298459755
 20
71.6672791001029168
 30
0.0
 40
1.483654731620311
 50
84.8778514153844696
 51
125.700480773871007
  0
ARC
  5
89B3
  8
0
 10
477.2201446532807267
 20
70.159772690075684
 30
0.0
 40
2.9943781238960958
 50
72.1957403493008627
 51
85.5217331760416357
  0
ARC
  5
89B4
  8
0
 10
476.0303101931523884
 20
66.1448994706783111
 30
0.0
 40
7.1814019517545944
 50
62.9138678876520387
 51
72.9518133739080525
  0
ARC
  5
89B5
  8
0
 10
399.1927746200324236
 20
-85.4633068207782145
 30
0.0
 40
177.1491619292889084
 50
62.6846543372673466
 51
63.1148651946653203
  0
ARC
  5
89B6
  8
0
 10
481.3453519265589193
 20
73.6290406694285906
 30
0.0
 40
1.9023326042587829
 50
243.0880724630216889
 51
254.3439422678276003
  0
ARC
  5
89B7
  8
0
 10
480.9583358486178781
 20
72.0989109839284765
 30
0.0
 40
0.3270198286067018
 50
247.2710619283870983
 51
301.9688155272800145
  0
ARC
  5
89B8
  8
0
 10
481.0131413759568204
 20
71.9455667398731578
 30
0.0
 40
0.1714621930817601
 50
313.643359588043495
 51
358.2870774940864749
  0
ARC
  5
89B9
  8
0
 10
480.1051376603031144
 20
72.034802908470084
 30
0.0
 40
1.0835060334301161
 50
355.0038383870859207
 51
0.1587089277163638
  0
ARC
  5
89BA
  8
0
 10
481.2380592956180863
 20
72.0382451812266993
 30
0.0
 40
0.0494217260349953
 50
89.3097200856346234
 51
180.5112361979815887
  0
LINE
  5
89BB
  8
0
 10
481.2386546972311976
 20
72.0876633206221413
 30
0.0
 11
482.3884582022030258
 21
72.0876633206221413
 31
0.0
  0
ARC
  5
89BC
  8
0
 10
482.3888157869799898
 20
72.0376642114601538
 30
0.0
 40
0.0500003878368907
 50
354.3458426406319859
 51
90.4097622854064156
  0
LINE
  5
89BD
  8
0
 10
482.4388162046382718
 20
72.0378052013221435
 30
0.0
 11
482.4384731582383097
 21
72.0378042092221449
 31
0.0
  0
LINE
  5
89BE
  8
0
 10
482.4385729088141943
 20
72.032737994794843
 30
0.0
 11
482.4489160596382931
 21
71.5074215299221407
 31
0.0
  0
ARC
  5
89BF
  8
0
 10
488.8181055808773863
 20
71.5680526955116676
 30
0.0
 40
6.3694781023019607
 50
180.5454076934368004
 51
197.9586173176060129
  0
LINE
  5
89C0
  8
0
 10
482.758951890738274
 20
69.604151512922158
 30
0.0
 11
482.8761296937872203
 21
69.359190862251566
 31
0.0
  0
ARC
  5
89C1
  8
0
 10
482.8992385997880206
 20
69.3700154947483298
 30
0.0
 40
0.0255185071123649
 50
205.0992475313134094
 51
266.1472910178483744
  0
ARC
  5
89C2
  8
0
 10
482.8844790955570829
 20
69.2686430604186967
 30
0.0
 40
0.0770242766909907
 50
313.4368004148404907
 51
80.2493607930315136
  0
ARC
  5
89C3
  8
0
 10
482.9508641285784734
 20
69.1893544396853315
 30
0.0
 40
0.0269426475965117
 50
119.8904356732527958
 51
259.7727319316470016
  0
ARC
  5
89C4
  8
0
 10
482.8618364103003842
 20
68.8730984084671007
 30
0.0
 40
0.3017402279079663
 50
4.0321276031739357
 51
73.7879125693724944
  0
ARC
  5
89C5
  8
0
 10
480.7590348290935935
 20
68.8781261245205627
 30
0.0
 40
0.2952055439339849
 50
105.3212748525237998
 51
176.8562589564263021
  0
ARC
  5
89C6
  8
0
 10
480.676927515483726
 20
69.189283028125601
 30
0.0
 40
0.0267598503996406
 50
278.8236689886297768
 51
61.4009510316757883
  0
ARC
  5
89C7
  8
0
 10
480.7426347634348076
 20
69.2686417425011314
 30
0.0
 40
0.0770257726800377
 50
99.7513263782256985
 51
226.561902635704314
  0
ARC
  5
89C8
  8
0
 10
480.7261024576043837
 20
69.37299598359877
 30
0.0
 40
0.0286541990723867
 50
276.9883229815097252
 51
331.2010129082505046
  0
LINE
  5
89C9
  8
0
 10
480.7512125676988148
 20
69.3591921618262433
 30
0.0
 11
480.7704624387382069
 21
69.3937765225221455
 31
0.0
  0
ARC
  5
89CA
  8
0
 10
479.6992364944400151
 20
70.0554715016910166
 30
0.0
 40
1.259112889773994
 50
328.2964245130639824
 51
353.3672799885399058
  0
ARC
  5
89CB
  8
0
 10
480.0610251928334264
 20
69.949384927710156
 30
0.0
 40
0.8897673063053572
 50
357.4654885392812957
 51
49.0134142154984715
  0
ARC
  5
89CC
  8
0
 10
477.034940841126911
 20
66.8539130141654425
 30
0.0
 40
5.2173674006528081
 50
46.2227916761354365
 51
59.9531914677468976
  0
ARC
  5
89CD
  8
0
 10
474.7950511517216796
 20
64.5158865693379369
 30
0.0
 40
8.3979421951944371
 50
54.7046065624054023
 51
67.5767193142810925
  0
ARC
  5
89CE
  8
0
 10
477.5437686810686841
 20
71.2806456291113335
 30
0.0
 40
1.0968831225929281
 50
65.5129725442197213
 51
100.8745189723961033
  0
ARC
  5
89CF
  8
0
 10
477.4392846184229029
 20
71.9043189569711956
 30
0.0
 40
0.4649412093418137
 50
102.7299330881587025
 51
175.0089098799680016
  0
ARC
  5
89D0
  8
0
 10
476.9154535770437064
 20
71.9568053259501852
 30
0.0
 40
0.0618354845200512
 50
261.0821583360582281
 51
348.7758895335917941
  0
ARC
  5
89D1
  8
0
 10
481.5321405399146215
 20
73.5444291578342018
 30
0.0
 40
0.0243753084087794
 50
92.5366464346769675
 51
171.2139374238921903
  0
ARC
  5
89D2
  8
0
 10
481.4069527256124843
 20
73.5811241392293738
 30
0.0
 40
0.1063393214139027
 50
282.4775643949109849
 51
341.9370435594445894
  0
LINE
  5
89D3
  8
0
 10
481.4299281127139807
 20
73.4772964797820549
 30
0.0
 11
481.4086710601383174
 21
73.4720833654221508
 31
0.0
  0
ARC
  5
89D4
  8
0
 10
481.4100297303542106
 20
73.4457526086290358
 30
0.0
 40
0.0263657872640583
 50
92.9538493571085382
 51
186.9759285417910064
  0
LINE
  5
89D5
  8
0
 10
481.3838591220383023
 20
73.4425504221221388
 30
0.0
 11
481.3838209538382102
 21
73.4162501108221335
 31
0.0
  0
ARC
  5
89D6
  8
0
 10
481.3574871022319144
 20
73.4129796320132328
 30
0.0
 40
0.0265361597083578
 50
272.4496401588252752
 51
7.079482869382689
  0
ARC
  5
89D7
  8
0
 10
481.4044025595609924
 20
73.2350048220758509
 30
0.0
 40
0.1582306370517397
 50
106.8179989712503044
 51
182.3853197101510091
  0
ARC
  5
89D8
  8
0
 10
481.4054450394592095
 20
73.2127653695383742
 30
0.0
 40
0.1599040872801793
 50
174.3819826325791951
 51
254.2239778532101013
  0
ARC
  5
89D9
  8
0
 10
481.3585942376851108
 20
73.033578504049089
 30
0.0
 40
0.0255303281130767
 50
351.1548875690841101
 51
82.4001754756049536
  0
LINE
  5
89DA
  8
0
 10
481.3838209494383023
 20
73.0296528617221412
 30
0.0
 11
481.3838595328002725
 21
72.9941953346148864
 31
0.0
  0
ARC
  5
89DB
  8
0
 10
481.4127344495282159
 20
72.9929938055546614
 30
0.0
 40
0.0288999046370625
 50
177.6172103996165959
 51
266.626311808044818
  0
ARC
  5
89DC
  8
0
 10
481.3812476253798991
 20
72.7804266082974465
 30
0.0
 40
0.1861163290422709
 50
6.442718933941368
 51
80.7907612073342278
  0
ARC
  5
89DD
  8
0
 10
481.3869879768244004
 20
72.7903124684690255
 30
0.0
 40
0.1795377503887969
 50
279.3728804643304215
 51
3.5120556581032569
  0
LINE
  5
89DE
  8
0
 10
481.4162273107381793
 20
72.6131716624221326
 30
0.0
 11
481.3635302898363761
 21
72.6057502248721391
 31
0.0
  0
ARC
  5
89DF
  8
0
 10
481.3677790767901001
 20
72.5794997490863523
 30
0.0
 40
0.0265920978780917
 50
99.1939119976548511
 51
187.2476002375769895
  0
ARC
  5
89E0
  8
0
 10
481.4880494403756188
 20
72.574834932192033
 30
0.0
 40
0.1466558479626469
 50
179.4881896305990949
 51
261.5334222065661152
  0
ARC
  5
89E1
  8
0
 10
481.4622589455900084
 20
72.4037925003398044
 30
0.0
 40
0.0263217714859689
 50
352.9092754154643785
 51
80.8228517597232639
  0
ARC
  5
89E2
  8
0
 10
481.5147677776582213
 20
72.3948102594236218
 30
0.0
 40
0.0270039646718382
 50
167.7425717434088028
 51
263.6377138166694749
  0
ARC
  5
89E3
  8
0
 10
481.4701354891080882
 20
71.9107880541426994
 30
0.0
 40
0.4572318255800982
 50
90.8238802888565857
 51
115.1936526598618968
  0
ARC
  5
89E4
  8
0
 10
481.28917045800182
 20
72.3026784496930617
 30
0.0
 40
0.0257706760022745
 50
122.0330403387964964
 51
186.3189190801780057
  0
LINE
  5
89E5
  8
0
 10
481.263556347438282
 20
72.2998420643756248
 30
0.0
 11
481.263556347438282
 21
72.115120438403622
 31
0.0
  0
ARC
  5
89E6
  8
0
 10
481.2891895998799896
 20
72.1122728399848825
 30
0.0
 40
0.0257909373153305
 50
173.6610021892716986
 51
252.5908422388029919
  0
ARC
  5
89E7
  8
0
 10
482.0949722319945181
 20
73.544429182458174
 30
0.0
 40
0.0243753084087794
 50
8.7860675895965148
 51
87.4620461205507951
  0
ARC
  5
89E8
  8
0
 10
482.2201600430856843
 20
73.5811241748073144
 30
0.0
 40
0.1063393214139027
 50
198.0629614539296881
 51
254.9188479451406124
  0
LINE
  5
89E9
  8
0
 10
482.1924919453443863
 20
73.4784473631791002
 30
0.0
 11
482.2186986137310214
 21
73.4720833654221508
 31
0.0
  0
ARC
  5
89EA
  8
0
 10
482.2170588765337129
 20
73.4457454490987516
 30
0.0
 40
0.0263889100633959
 50
353.0459568568151099
 51
86.4374965231579182
  0
LINE
  5
89EB
  8
0
 10
482.2432536587853065
 20
73.4425504597207777
 30
0.0
 11
482.243291829286477
 21
73.4162501484241261
 31
0.0
  0
ARC
  5
89EC
  8
0
 10
482.269625735358602
 20
73.412979687341732
 30
0.0
 40
0.0265362115740681
 50
172.9205696068353006
 51
267.5505371712907845
  0
ARC
  5
89ED
  8
0
 10
482.2227102394227813
 20
73.2350048578769304
 30
0.0
 40
0.158230637051733
 50
357.6146853032454942
 51
73.1819562233537937
  0
ARC
  5
89EE
  8
0
 10
482.2216678545975128
 20
73.2127653817877047
 30
0.0
 40
0.1599039968973487
 50
285.775891371939224
 51
5.6180340133219717
  0
ARC
  5
89EF
  8
0
 10
482.2685185789237039
 20
73.0335785438584253
 30
0.0
 40
0.0255303281130668
 50
97.600500024002514
 51
188.8451174443250977
  0
LINE
  5
89F0
  8
0
 10
482.2432918675139035
 20
73.0296528993241196
 30
0.0
 11
482.2432532872545039
 21
72.9941953722135111
 31
0.0
  0
ARC
  5
89F1
  8
0
 10
482.2162524995526951
 20
72.9912991090331644
 30
0.0
 40
0.0271556785375595
 50
269.6336268931847258
 51
6.1224720144935594
  0
ARC
  5
89F2
  8
0
 10
482.2458652133796022
 20
72.7804266461245959
 30
0.0
 40
0.1861163290422727
 50
99.2093115556524054
 51
173.5572860794551957
  0
ARC
  5
89F3
  8
0
 10
482.2401248610701145
 20
72.7903125057938922
 30
0.0
 40
0.179537750388797
 50
176.4879493552938925
 51
260.6271245490685828
  0
LINE
  5
89F4
  8
0
 10
482.2108855426561718
 20
72.6131716971885339
 30
0.0
 11
482.263582807487694
 21
72.6057502248721391
 31
0.0
  0
ARC
  5
89F5
  8
0
 10
482.2593337795486832
 20
72.5794997880888673
 30
0.0
 40
0.026592097881484
 50
352.7517199668167791
 51
80.8055620150167755
  0
ARC
  5
89F6
  8
0
 10
482.1390634578693266
 20
72.5748348798557998
 30
0.0
 40
0.146655764278075
 50
278.4664970300767095
 51
0.5117240644417674
  0
ARC
  5
89F7
  8
0
 10
482.1648539261250903
 20
72.4037925310784516
 30
0.0
 40
0.0263217714859705
 50
99.1775677631573842
 51
187.090729597926213
  0
ARC
  5
89F8
  8
0
 10
482.1122444033400143
 20
72.3948290426164363
 30
0.0
 40
0.0270984076539132
 50
277.6625752540210215
 51
12.17347897624742
  0
ARC
  5
89F9
  8
0
 10
482.1569774257450831
 20
71.9107880841921343
 30
0.0
 40
0.4572318255800937
 50
64.8063523535346064
 51
89.1758570054034152
  0
ARC
  5
89FA
  8
0
 10
482.3379424225609
 20
72.3026784955769983
 30
0.0
 40
0.0257706760022745
 50
353.6810859334206043
 51
57.9669646745860518
  0
LINE
  5
89FB
  8
0
 10
482.3635565333725026
 20
72.2998421125008832
 30
0.0
 11
482.3635565495358151
 21
72.1151204865287241
 31
0.0
  0
ARC
  5
89FC
  8
0
 10
482.3379232973430817
 20
72.1122728858671138
 30
0.0
 40
0.0257909373153305
 50
287.4091627745943924
 51
6.3390028239749361
  0
LINE
  5
89FD
  8
0
 10
481.4635609855383223
 20
72.3679726101221235
 30
0.0
 11
482.1635540255426235
 21
72.3679726100221501
 31
0.0
  0
LINE
  5
89FE
  8
0
 10
481.4086710601383174
 20
73.4720833654221508
 30
0.0
 11
482.2186986137310214
 21
73.4720833654221508
 31
0.0
  0
LINE
  5
89FF
  8
0
 10
476.8658579058409259
 20
71.7506747044221385
 30
0.0
 11
475.9682231582175973
 21
71.9190861037336333
 31
0.0
  0
LINE
  5
8A00
  8
0
 10
476.918834679840927
 20
71.8763222874221412
 30
0.0
 11
476.8829468235408058
 21
71.7609617145221392
 31
0.0
  0
LINE
  5
8A01
  8
0
 10
475.9643931922437901
 20
72.0553915880638414
 30
0.0
 11
475.9560251745407982
 21
71.9348678299221405
 31
0.0
  0
ARC
  5
8A02
  8
0
 10
475.9709891503409267
 20
71.9338288744221472
 30
0.0
 40
0.0149999999999966
 50
176.0283023147503911
 51
259.373877502707785
  0
ARC
  5
8A03
  8
0
 10
476.8686238979375958
 20
71.7654174751407083
 30
0.0
 40
0.0150000000176275
 50
259.3738775283194968
 51
342.7194524031698961
  0
ARC
  5
8A04
  8
0
 10
476.9045117542409002
 20
71.8807780480221368
 30
0.0
 40
0.0149999999999982
 50
342.7194524566979226
 51
78.8498854122793205
  0
ARC
  5
8A05
  8
0
 10
475.9793571680439754
 20
72.0543526326171531
 30
0.0
 40
0.0150000000056683
 50
84.784038971095768
 51
176.0283026776774022
  0
ARC
  5
8A06
  8
0
 10
482.2002044909265237
 20
71.7613384131615817
 30
0.0
 40
0.5573818463254786
 50
72.9581422397002513
 51
106.7128822545023041
  0
ARC
  5
8A07
  8
0
 10
481.8134419998442013
 20
71.2162074605399624
 30
0.0
 40
1.102479701950257
 50
78.1458315219383195
 51
101.8606679051826944
  0
ARC
  5
8A08
  8
0
 10
481.4270229956194953
 20
71.7626449988974997
 30
0.0
 40
0.5559718696949633
 50
73.2936171726205856
 51
107.0987599253924998
  0
ARC
  5
8A09
  8
0
 10
482.2002044909265237
 20
72.6529881692710546
 30
0.0
 40
0.5573818463254786
 50
253.2871177454977953
 51
287.0418577602998198
  0
ARC
  5
8A0A
  8
0
 10
481.8134419998442013
 20
73.1981191218926881
 30
0.0
 40
1.102479701950257
 50
258.1393320948141081
 51
281.8541684780616947
  0
ARC
  5
8A0B
  8
0
 10
481.4270229956194953
 20
72.6516815835351508
 30
0.0
 40
0.5559718696949633
 50
252.9012400746073013
 51
286.7063828273796275
  0
LINE
  5
8A0C
  8
0
 10
481.586846683837507
 20
72.1191770215109642
 30
0.0
 11
481.5868466838373934
 21
72.2951495609216863
 31
0.0
  0
LINE
  5
8A0D
  8
0
 10
482.0399149230827902
 20
72.1191513242953448
 30
0.0
 11
482.0399149230826765
 21
72.2951752581373341
 31
0.0
  0
LINE
  5
8A0E
  8
0
 10
482.1606557431990154
 20
72.4297773519221408
 30
0.0
 11
481.4664569382537138
 21
72.4297773519221408
 31
0.0
  0
LINE
  5
8A0F
  8
0
 10
481.3635302898363761
 20
72.6057502248721391
 30
0.0
 11
482.263582807487694
 21
72.6057502248721391
 31
0.0
  0
LINE
  5
8A10
  8
0
 10
482.2160788560034916
 20
72.9641439856721377
 30
0.0
 11
481.411033749443618
 21
72.9641439856721377
 31
0.0
  0
LINE
  5
8A11
  8
0
 10
482.2651418090379138
 20
73.0588845723634819
 30
0.0
 11
481.3619707092203157
 21
73.0588845723634819
 31
0.0
  0
LINE
  5
8A12
  8
0
 10
482.2684916262375054
 20
73.3864677217185459
 30
0.0
 11
481.3586212911903885
 21
73.3864677217185459
 31
0.0
  0
LINE
  5
8A13
  8
0
 10
480.4642735416898063
 20
68.89431552282214
 30
0.0
 11
483.1628297643738961
 21
68.89431552282214
 31
0.0
  0
LINE
  5
8A14
  8
0
 10
480.6895648467939282
 20
69.2128156410369968
 30
0.0
 11
482.9375454544385775
 21
69.2128156410369968
 31
0.0
  0
LINE
  5
8A15
  8
0
 10
480.7299155473946826
 20
69.3445941043861183
 30
0.0
 11
482.8978875920274163
 21
69.3445941043861183
 31
0.0
  0
LINE
  5
8A16
  8
0
 10
482.0960515991072839
 20
73.5687805813221445
 30
0.0
 11
481.5310617284819159
 21
73.5687805813221445
 31
0.0
  0
LINE
  5
8A18
  8
0
 10
482.9460803775382942
 20
69.1628398779221385
 30
0.0
 11
480.6810323176383122
 21
69.1628398779221385
 31
0.0
  0
ENDSEC
  0
EOF
