  0
SECTION
  2
HEADER
  9
$ACADVER
  1
AC1009
  9
$INSBASE
 10
519.1735174091351155
 20
38.8496013670036078
 30
0.0
  9
$EXTMIN
 10
513.4650933633341765
 20
38.8434470331014268
 30
-0.0000000000000058
  9
$EXTMAX
 10
520.7674120627658567
 20
43.5427901349483406
 30
0.0000000000000104
  9
$LIMMIN
 10
0.0
 20
0.0
  9
$LIMMAX
 10
11.6929133858000007
 20
8.2677165353999982
  9
$ORTHOMODE
 70
     0
  9
$REGENMODE
 70
     1
  9
$FILLMODE
 70
     1
  9
$QTEXTMODE
 70
     0
  9
$MIRRTEXT
 70
     0
  9
$DRAGMODE
 70
     2
  9
$LTSCALE
 40
0.6431102362
  9
$OSMODE
 70
  4095
  9
$ATTMODE
 70
     1
  9
$TEXTSIZE
 40
0.2
  9
$TRACEWID
 40
0.05
  9
$TEXTSTYLE
  7
STANDARD
  9
$CLAYER
  8
0
  9
$CELTYPE
  6
BYLAYER
  9
$CECOLOR
 62
   256
  9
$DIMSCALE
 40
1.0
  9
$DIMASZ
 40
0.1875
  9
$DIMEXO
 40
0.0625
  9
$DIMDLI
 40
0.4443307087
  9
$DIMRND
 40
0.0
  9
$DIMDLE
 40
0.0
  9
$DIMEXE
 40
0.125
  9
$DIMTP
 40
0.01
  9
$DIMTM
 40
0.01
  9
$DIMTXT
 40
1.0
  9
$DIMCEN
 40
0.1052362205
  9
$DIMTSZ
 40
0.0
  9
$DIMTOL
 70
     1
  9
$DIMLIM
 70
     0
  9
$DIMTIH
 70
     0
  9
$DIMTOH
 70
     1
  9
$DIMSE1
 70
     0
  9
$DIMSE2
 70
     0
  9
$DIMTAD
 70
     0
  9
$DIMZIN
 70
     0
  9
$DIMBLK
  1

  9
$DIMASO
 70
     1
  9
$DIMSHO
 70
     1
  9
$DIMPOST
  1
\X
  9
$DIMAPOST
  1

  9
$DIMALT
 70
     1
  9
$DIMALTD
 70
     2
  9
$DIMALTF
 40
25.3999999999999986
  9
$DIMLFAC
 40
1.0
  9
$DIMTOFL
 70
     0
  9
$DIMTVP
 40
0.0
  9
$DIMTIX
 70
     0
  9
$DIMSOXD
 70
     0
  9
$DIMSAH
 70
     0
  9
$DIMBLK1
  1

  9
$DIMBLK2
  1

  9
$DIMSTYLE
  2
STANDARD
  9
$DIMCLRD
 70
     0
  9
$DIMCLRE
 70
     0
  9
$DIMCLRT
 70
     0
  9
$DIMTFAC
 40
1.0
  9
$DIMGAP
 40
0.09
  9
$LUNITS
 70
     2
  9
$LUPREC
 70
     4
  9
$SKETCHINC
 40
0.1
  9
$FILLETRAD
 40
0.0
  9
$AUNITS
 70
     0
  9
$AUPREC
 70
     0
  9
$MENU
  1
.
  9
$ELEVATION
 40
0.0
  9
$PELEVATION
 40
0.0
  9
$THICKNESS
 40
0.0
  9
$LIMCHECK
 70
     0
  9
$BLIPMODE
 70
     0
  9
$CHAMFERA
 40
0.0
  9
$CHAMFERB
 40
0.0
  9
$SKPOLY
 70
     0
  9
$TDCREATE
 40
2458172.5207638889551163
  9
$TDUPDATE
 40
2460090.4570486107841134
  9
$TDINDWG
 40
0.1597081481
  9
$TDUSRTIMER
 40
0.1597081481
  9
$USRTIMER
 70
     1
  9
$ANGBASE
 50
0.0
  9
$ANGDIR
 70
     0
  9
$PDMODE
 70
     0
  9
$PDSIZE
 40
0.3125
  9
$PLINEWID
 40
0.0
  9
$COORDS
 70
     1
  9
$SPLFRAME
 70
     0
  9
$SPLINETYPE
 70
     6
  9
$SPLINESEGS
 70
     8
  9
$ATTDIA
 70
     1
  9
$ATTREQ
 70
     1
  9
$HANDLING
 70
     1
  9
$HANDSEED
  5
B6DF
  9
$SURFTAB1
 70
     6
  9
$SURFTAB2
 70
     6
  9
$SURFTYPE
 70
     6
  9
$SURFU
 70
     6
  9
$SURFV
 70
     6
  9
$UCSNAME
  2

  9
$UCSORG
 10
0.0
 20
0.0
 30
0.0
  9
$UCSXDIR
 10
1.0
 20
0.0
 30
0.0
  9
$UCSYDIR
 10
0.0
 20
1.0
 30
0.0
  9
$PUCSNAME
  2

  9
$PUCSORG
 10
0.0
 20
0.0
 30
0.0
  9
$PUCSXDIR
 10
1.0
 20
0.0
 30
0.0
  9
$PUCSYDIR
 10
0.0
 20
1.0
 30
0.0
  9
$USERI1
 70
     0
  9
$USERI2
 70
     0
  9
$USERI3
 70
     0
  9
$USERI4
 70
     0
  9
$USERI5
 70
     0
  9
$USERR1
 40
0.0
  9
$USERR2
 40
0.0
  9
$USERR3
 40
0.0
  9
$USERR4
 40
0.0
  9
$USERR5
 40
0.0
  9
$WORLDVIEW
 70
     1
  9
$SHADEDGE
 70
     3
  9
$SHADEDIF
 70
    70
  9
$TILEMODE
 70
     1
  9
$MAXACTVP
 70
    64
  9
$PLIMCHECK
 70
     0
  9
$PEXTMIN
 10
1.0000000000000000E+20
 20
1.0000000000000000E+20
 30
1.0000000000000000E+20
  9
$PEXTMAX
 10
-1.0000000000000000E+20
 20
-1.0000000000000000E+20
 30
-1.0000000000000000E+20
  9
$PLIMMIN
 10
0.0
 20
0.0
  9
$PLIMMAX
 10
12.0
 20
9.0
  9
$UNITMODE
 70
     0
  9
$VISRETAIN
 70
     1
  9
$PLINEGEN
 70
     0
  9
$PSLTSCALE
 70
     1
  0
ENDSEC
  0
SECTION
  2
TABLES
  0
TABLE
  2
VPORT
 70
     1
  0
VPORT
  2
*ACTIVE
 70
     0
 10
0.0
 20
0.0
 11
1.0
 21
1.0
 12
143.2951162384406985
 22
-0.6933295482385802
 13
0.0
 23
0.0
 14
1.0
 24
1.0
 15
0.0
 25
0.0
 16
0.0
 26
0.0
 36
25.5757211105568096
 17
373.821136474609375
 27
41.8864481322634603
 37
0.0
 40
4.7384499792548
 41
2.6486111111111108
 42
50.0
 43
0.0
 44
0.0
 50
0.0
 51
0.0
 71
     0
 72
   100
 73
     1
 74
     1
 75
     0
 76
     0
 77
     0
 78
     0
  0
ENDTAB
  0
TABLE
  2
LTYPE
 70
     2
  0
LTYPE
  2
CONTINUOUS
 70
     0
  3
Solid line
 72
    65
 73
     0
 40
0.0
  0
LTYPE
  2
PHANTOM2
 70
     0
  3
___ _ _ ___ _ _ ___ _ _ ___ _ _
 72
    65
 73
     6
 40
1.25
 49
0.625
 49
-0.125
 49
0.125
 49
-0.125
 49
0.125
 49
-0.125
  0
ENDTAB
  0
TABLE
  2
LAYER
 70
     2
  0
LAYER
  2
0
 70
     0
 62
   255
  6
CONTINUOUS
  0
LAYER
  2
DEFPOINTS
 70
     0
 62
     7
  6
CONTINUOUS
  0
ENDTAB
  0
TABLE
  2
STYLE
 70
     1
  0
STYLE
  2
STANDARD
 70
     0
 40
0.0
 41
0.8
 50
0.0
 71
     0
 42
0.2
  3
txt
  4

  0
ENDTAB
  0
TABLE
  2
VIEW
 70
     0
  0
ENDTAB
  0
TABLE
  2
UCS
 70
     0
  0
ENDTAB
  0
TABLE
  2
APPID
 70
    10
  0
APPID
  2
ACAD
 70
     0
  0
APPID
  2
ACAD_MLEADERVER
 70
     0
  0
APPID
  2
ACAD_EXEMPT_FROM_CAD_STANDARDS
 70
     0
  0
APPID
  2
ACAD_DSTYLE_DIMJAG
 70
     0
  0
APPID
  2
ACAD_DSTYLE_DIMTALN
 70
     0
  0
APPID
  2
ACAD_NAV_VCDISPLAY
 70
     0
  0
APPID
  2
ACAECLAYERSTANDARD
 70
     0
  0
APPID
  2
ACCMTRANSPARENCY
 70
     0
  0
APPID
  2
DCO15
 70
     0
  0
APPID
  2
ACDBATTR
 70
     0
  0
ENDTAB
  0
TABLE
  2
DIMSTYLE
 70
     1
  0
DIMSTYLE
  2
STANDARD
 70
     0
  3

  4

  5

  6

  7

 40
1.0
 41
0.1875
 42
0.0625
 43
0.38
 44
0.125
 45
0.0
 46
0.0
 47
0.01
 48
0.01
140
0.15625
141
0.09
142
0.0
143
25.3999999999999986
144
1.0
145
0.0
146
1.0
147
0.09
 71
     1
 72
     0
 73
     1
 74
     1
 75
     0
 76
     0
 77
     0
 78
     4
170
     0
171
     2
172
     0
173
     0
174
     0
175
     0
176
     0
177
     0
178
     0
  0
ENDTAB
  0
ENDSEC
  0
SECTION
  2
BLOCKS
  0
BLOCK
  8
0
  2
$MODEL_SPACE
 70
     0
 10
0.0
 20
0.0
 30
0.0
  3
$MODEL_SPACE
  1

  0
ENDBLK
  5
21
  8
0
  0
BLOCK
 67
     1
  8
0
  2
$PAPER_SPACE
 70
     0
 10
0.0
 20
0.0
 30
0.0
  3
$PAPER_SPACE
  1

  0
ENDBLK
  5
1D
 67
     1
  8
0
  0
BLOCK
  8
0
  2
_FILLED
 70
     0
 10
0.0
 20
0.0
 30
0.0
  3
_FILLED
  1

  0
SOLID
  5
B17D
  8
0
  6
BYBLOCK
 62
     0
 10
0.0
 20
0.0
 30
0.0
 11
-1.0
 21
0.1666666667
 31
0.0
 12
-1.0
 22
-0.1666666667
 32
0.0
 13
-1.0
 23
-0.1666666667
 33
0.0
  0
ENDBLK
  5
B17E
  8
0
  6
BYBLOCK
 62
     0
  0
ENDSEC
  0
SECTION
  2
ENTITIES
  0
ATTDEF
  5
829
  8
DEFPOINTS
 10
519.1627440252299266
 20
38.8479714160295231
 30
0.0
 40
0.001
  1
K-72758T-E2
  3

  2
MODELNUMBER
 70
     0
1001
ACDBATTR
1070
     0
1070
     1
  0
ATTDEF
  5
82A
  8
DEFPOINTS
 10
519.1627440252299266
 20
38.8463047493628579
 30
0.0
 40
0.001
  1
ARTIFACTS
  3

  2
TRADENAME
 70
     0
1001
ACDBATTR
1070
     0
1070
     1
  0
ATTDEF
  5
82B
  8
DEFPOINTS
 10
519.1627440252299266
 20
38.8446380826961928
 30
0.0
 40
0.001
  1
BATHROOM SINK SPOUT
  3

  2
PRODUCT
 70
     0
1001
ACDBATTR
1070
     0
1070
     1
  0
LINE
  5
B1E8
  8
0
 10
513.5015468101349825
 20
40.8496550160036023
 30
0.0
 11
513.4794493847350623
 21
40.8166301593035996
 31
0.0
  0
LINE
  5
B1E9
  8
0
 10
514.4745395636350622
 20
40.1986110170036
 30
0.0
 11
514.452442138235142
 21
40.1655861602036026
 31
0.0
  0
LINE
  5
B1EA
  8
0
 10
513.4988603017939113
 20
40.434358992818332
 30
0.0
 11
514.091675596893765
 21
40.0376974154183287
 31
0.0
  0
LINE
  5
B1EB
  8
0
 10
513.4783736110350674
 20
40.7849960586036033
 30
0.0
 11
514.4236107930350954
 21
40.1525237274035973
 31
0.0
  0
LINE
  5
B1EC
  8
0
 10
514.4762848013351686
 20
40.2290148900036115
 30
0.0
 11
513.5289855727351096
 21
40.8628669674035976
 31
0.0
  0
LINE
  5
B1ED
  8
0
 10
514.4726288457762848
 20
40.4468923020888766
 30
0.0
 11
513.7317804840764666
 21
40.9426050176888765
 31
0.0
  0
LINE
  5
B1EE
  8
0
 10
519.6385994340978414
 20
42.5739770073143973
 30
0.0
 11
518.708435384272434
 21
42.5739770073143973
 31
0.0
  0
ARC
  5
B1EF
  8
0
 10
513.5155435449350989
 20
40.4592922918036066
 30
0.0
 40
0.03
 50
150.7834033088001888
 51
236.2129277574991022
  0
ARC
  5
B1F0
  8
0
 10
514.1083588400350664
 20
40.0626307144036033
 30
0.0
 40
0.03
 50
236.2129277574991022
 51
321.6424522066997156
  0
ARC
  5
B1F1
  8
0
 10
514.4275088392349744
 20
40.1822694033036001
 30
0.0
 40
0.03
 50
262.5341710550000016
 51
326.2129277575007222
  0
ARC
  5
B1F2
  8
0
 10
513.5043826837351162
 20
40.7999469161036075
 30
0.0
 40
0.03
 50
146.2129277575006938
 51
209.8916844598005014
  0
ARC
  5
B1F3
  8
0
 10
513.5264801091351501
 20
40.8329717729036119
 30
0.0
 40
0.03
 50
85.2093369122016071
 51
146.2129277575006938
  0
ARC
  5
B1F4
  8
0
 10
514.4496062647350527
 20
40.2152942601035974
 30
0.0
 40
0.03
 50
326.2129277575007222
 51
27.2165186028001713
  0
ARC
  5
B1F5
  8
0
 10
514.4559456026350972
 20
40.421959003103602
 30
0.0
 40
0.03
 50
336.1104471451001814
 51
56.2129277575018378
  0
ARC
  5
B1F6
  8
0
 10
513.7150972409350516
 20
40.917671718703609
 30
0.0
 40
0.03
 50
56.2129277575018378
 51
136.3154083697999113
  0
LINE
  5
B1F7
  8
0
 10
518.8967543172351498
 20
42.7897698013035992
 30
0.0
 11
518.8967543172351498
 21
42.815674817003611
 31
0.0
  0
LINE
  5
B1F8
  8
0
 10
518.91851740913512
 20
42.293991873203602
 30
0.0
 11
518.91851740913512
 21
42.3342916575036128
 31
0.0
  0
LINE
  5
B1F9
  8
0
 10
518.9541659804350502
 20
43.1389523120036102
 30
0.0
 11
518.9541659804350502
 21
43.1656046217036007
 31
0.0
  0
LINE
  5
B1FA
  8
0
 10
517.82339856113515
 20
38.8496013670036078
 30
0.0
 11
520.523636257135081
 21
38.8496013670036078
 31
0.0
  0
LINE
  5
B1FB
  8
0
 10
518.3135174091351018
 20
40.2189916106036023
 30
0.0
 11
520.0335174091351291
 21
40.2189916106036023
 31
0.0
  0
LINE
  5
B1FC
  8
0
 10
520.0335174090984083
 20
40.3439916106036094
 30
0.0
 11
518.3135174091351018
 21
40.3439916106036094
 31
0.0
  0
LINE
  5
B1FD
  8
0
 10
518.8985174091351382
 20
42.1639916106036097
 30
0.0
 11
519.4485174091350927
 21
42.1639916106036097
 31
0.0
  0
LINE
  5
B1FE
  8
0
 10
519.4485174091350927
 20
42.2639916106036111
 30
0.0
 11
518.8985174091351382
 21
42.2639916106036111
 31
0.0
  0
LINE
  5
B1FF
  8
0
 10
519.4585172890350577
 20
42.3643132037036025
 30
0.0
 11
518.8885175292351732
 21
42.3643132037036025
 31
0.0
  0
LINE
  5
B200
  8
0
 10
519.4757712930538673
 20
42.7601105297036028
 30
0.0
 11
518.8712635252350083
 21
42.7601105297036028
 31
0.0
  0
LINE
  5
B201
  8
0
 10
518.9214473493351534
 20
42.8451990971036025
 30
0.0
 11
519.4255874692631778
 21
42.8451990971036025
 31
0.0
  0
LINE
  5
B202
  8
0
 10
519.1735174091351155
 20
43.1130637170036124
 30
0.0
 11
518.9690122963351087
 21
43.1130637170036124
 31
0.0
  0
LINE
  5
B203
  8
0
 10
519.4102389434801808
 20
43.1928012560035981
 30
0.0
 11
518.9367958747899365
 21
43.1928012560035981
 31
0.0
  0
ARC
  5
B204
  8
0
 10
518.3135174091351018
 20
40.2814916106036094
 30
0.0
 40
0.0625
 50
89.9999999998990319
 51
270.0
  0
ARC
  5
B205
  8
0
 10
518.6571900953689465
 20
42.3787666957679292
 30
0.0
 40
0.2018245410471235
 50
3.8351575779603699
 51
75.2909870848618965
  0
ARC
  5
B206
  8
0
 10
518.8957980965351453
 20
42.9879090405036095
 30
0.0
 40
0.1449965934
 50
280.1889865977000227
 51
59.6728044643014925
  0
ARC
  5
B207
  8
0
 10
518.8985174091351382
 20
42.2139916106035997
 30
0.0
 40
0.05
 50
90.0
 51
270.0
  0
ARC
  5
B208
  8
0
 10
519.2077284569216999
 20
42.8058733805669007
 30
0.0
 40
0.7362139568695713
 50
92.663430600244368
 51
105.9651226310815986
  0
ARC
  5
B209
  8
0
 10
519.0800557669203954
 20
43.2784097341473171
 30
0.0
 40
0.2468927145593211
 50
107.6417897058649942
 51
153.6492209349846974
  0
ARC
  5
B20A
  8
0
 10
518.9880020122485575
 20
43.3274031781702078
 30
0.0
 40
0.1426899067047495
 50
154.871286728934308
 51
216.2024282375581947
  0
ARC
  5
B20B
  8
0
 10
519.0050246714488367
 20
43.3452612494302016
 30
0.0
 40
0.1670305908783058
 50
217.6968334479280998
 51
245.8905605661657887
  0
ARC
  5
B20C
  8
0
 10
518.9265688831056877
 20
43.1671240835281367
 30
0.0
 40
0.0276388955141684
 50
356.8485476422031866
 51
68.2830431216462301
  0
ARC
  5
B20D
  8
0
 10
518.9828894409521354
 20
43.1382230852780566
 30
0.0
 40
0.028732715772931
 50
178.5456961061381094
 51
241.1202035296637121
  0
ARC
  5
B20E
  8
0
 10
518.9251999730734042
 20
42.816972223196899
 30
0.0
 40
0.028475227811164
 50
97.5727849069182156
 51
182.6114503237058102
  0
ARC
  5
B20F
  8
0
 10
518.8676373345405182
 20
42.789010798011752
 30
0.0
 40
0.0291268736262125
 50
277.1516740294575243
 51
1.493212385783506
  0
ARC
  5
B210
  8
0
 10
518.8875164027235769
 20
42.3932669275055218
 30
0.0
 40
0.0289710264969904
 50
181.9799936517530909
 51
271.9803145711081243
  0
ARC
  5
B211
  8
0
 10
518.8884533497473512
 20
42.3342491828153982
 30
0.0
 40
0.0300640893920461
 50
0.0809477761948868
 51
89.8776874121230378
  0
ARC
  5
B212
  8
0
 10
518.9507962307466187
 20
42.2962699396783393
 30
0.0
 40
0.0323591086325002
 50
184.0369359883250127
 51
265.9506951090572215
  0
ARC
  5
B213
  8
0
 10
518.8555436964080627
 20
42.0607109524589475
 30
0.0
 40
0.1118643568449453
 50
12.3285194178417594
 51
67.4084527648641938
  0
ARC
  5
B214
  8
0
 10
518.018929623619556
 20
41.8876039656991708
 30
0.0
 40
0.9661937143557139
 50
355.1973643692614928
 51
11.7642048280165703
  0
ARC
  5
B215
  8
0
 10
514.2325404761529626
 20
41.987564384190982
 30
0.0
 40
4.7526328579610011
 50
355.6788026454282772
 51
357.8191757485395215
  0
ARC
  5
B216
  8
0
 10
518.0356492004973461
 20
41.0670601095127807
 30
0.0
 40
0.7746217112286159
 50
291.0212834197947132
 51
315.5012237974277127
  0
LINE
  5
B217
  8
0
 10
519.4502805010350812
 20
42.7897698013035992
 30
0.0
 11
519.4502805010350812
 21
42.815674817003611
 31
0.0
  0
LINE
  5
B218
  8
0
 10
519.4285174091349973
 20
42.293991873203602
 30
0.0
 11
519.4285174091349973
 21
42.3342916575036128
 31
0.0
  0
LINE
  5
B219
  8
0
 10
519.3928688378351808
 20
43.1389523120036102
 30
0.0
 11
519.3928688378351808
 21
43.1656046217036007
 31
0.0
  0
LINE
  5
B21A
  8
0
 10
519.1735174091351155
 20
43.1130637170036124
 30
0.0
 11
519.3780225219351223
 21
43.1130637170036124
 31
0.0
  0
ARC
  5
B21B
  8
0
 10
520.0335174091351291
 20
40.2814916106036094
 30
0.0
 40
0.0625
 50
270.0
 51
90.0000000000976854
  0
ARC
  5
B21C
  8
0
 10
519.6898447228354598
 20
42.3787666957940203
 30
0.0
 40
0.201824540979789
 50
104.7090128715088042
 51
176.1648424281843859
  0
ARC
  5
B21D
  8
0
 10
519.4512367217351994
 20
42.9879090405036095
 30
0.0
 40
0.1449965934
 50
120.3271955356984932
 51
259.8110134022999205
  0
ARC
  5
B21E
  8
0
 10
519.4485174091350927
 20
42.2139916106035997
 30
0.0
 40
0.05
 50
270.0
 51
90.0
  0
ARC
  5
B21F
  8
0
 10
519.9897717698441966
 20
40.1687470625795271
 30
0.0
 40
0.0502449113388725
 50
14.2265494843739599
 51
89.7821119577367455
  0
ARC
  5
B220
  8
0
 10
520.3891924925367221
 20
40.2834403572096065
 30
0.0
 40
0.3653447549852908
 50
196.2681680356230061
 51
234.5199601702051098
  0
ARC
  5
B221
  8
0
 10
523.6221370285752528
 20
44.837312503930967
 30
0.0
 40
5.9501164708147991
 50
234.6211756357691058
 51
237.734670939198395
  0
ARC
  5
B222
  8
0
 10
520.0594879911626549
 20
39.1888952277467197
 30
0.0
 40
0.7279934021170127
 50
30.6441599598276895
 51
57.9576169080080632
  0
ARC
  5
B223
  8
0
 10
520.3534578394338723
 20
39.3816452931006822
 30
0.0
 40
0.3771702940015784
 50
2.8410153048055822
 51
28.213697419010991
  0
ARC
  5
B224
  8
0
 10
520.2437628286911604
 20
39.4216188657873801
 30
0.0
 40
0.4868669710453074
 50
334.5817069231642904
 51
357.4950077816367866
  0
ARC
  5
B225
  8
0
 10
518.9554516877611832
 20
40.2327786385206991
 30
0.0
 40
2.006695364803126
 50
324.4662591031392935
 51
329.44498768069991
  0
ARC
  5
B226
  8
0
 10
520.9249664467761249
 20
38.8478365344233012
 30
0.0
 40
0.4013340700106047
 50
146.9822747298244963
 51
179.7480458504606986
  0
ARC
  5
B227
  8
0
 10
519.139306361348531
 20
42.8058733805669007
 30
0.0
 40
0.7362139568695713
 50
74.0348773689183588
 51
87.336569399755632
  0
ARC
  5
B228
  8
0
 10
519.2669790513498356
 20
43.2784097341473171
 30
0.0
 40
0.2468927145593211
 50
26.3507790650152884
 51
72.3582102941317231
  0
ARC
  5
B229
  8
0
 10
519.359032806021446
 20
43.3274031781702078
 30
0.0
 40
0.1426899067047495
 50
323.7975717624418053
 51
25.1287132710656707
  0
ARC
  5
B22A
  8
0
 10
519.3420101468213943
 20
43.3452612494302016
 30
0.0
 40
0.1670305908783058
 50
294.1094394338309144
 51
322.3031665520708771
  0
ARC
  5
B22B
  8
0
 10
519.4204659351645432
 20
43.1671240835281367
 30
0.0
 40
0.0276388955141684
 50
111.7169568783537983
 51
183.1514523577965861
  0
ARC
  5
B22C
  8
0
 10
519.3641453773182093
 20
43.1382230852780566
 30
0.0
 40
0.028732715772931
 50
298.8797964703363164
 51
1.454303893861856
  0
ARC
  5
B22D
  8
0
 10
519.4218348451969405
 20
42.816972223196899
 30
0.0
 40
0.028475227811164
 50
357.3885496762941898
 51
82.4272150930817986
  0
ARC
  5
B22E
  8
0
 10
519.4793974837298265
 20
42.789010798011752
 30
0.0
 40
0.0291268736262125
 50
178.5067876142163072
 51
262.8483259705424757
  0
ARC
  5
B22F
  8
0
 10
519.4595184155465404
 20
42.3932669275055218
 30
0.0
 40
0.0289710264969904
 50
268.0196854288918757
 51
358.0200063482466817
  0
ARC
  5
B230
  8
0
 10
519.4585814685229934
 20
42.3342491828153982
 30
0.0
 40
0.0300640893920461
 50
90.1223125878802165
 51
179.9190522238052949
  0
ARC
  5
B231
  8
0
 10
519.3962385875236123
 20
42.2962699396783393
 30
0.0
 40
0.0323591086325002
 50
274.0493048909427785
 51
355.9630640116747031
  0
ARC
  5
B232
  8
0
 10
519.4914911218620546
 20
42.0607109524589475
 30
0.0
 40
0.1118643568449453
 50
112.5915472351358062
 51
167.6714805821582104
  0
ARC
  5
B233
  8
0
 10
520.328105194650675
 20
41.8876039656991708
 30
0.0
 40
0.9661937143557139
 50
168.2357951719833977
 51
184.8026356307381945
  0
ARC
  5
B234
  8
0
 10
524.1144943421171547
 20
41.987564384190982
 30
0.0
 40
4.7526328579610011
 50
182.180824251460308
 51
184.3211973545716944
  0
ARC
  5
B235
  8
0
 10
520.3113856177727712
 20
41.0670601095127807
 30
0.0
 40
0.7746217112286159
 50
224.4987762025698999
 51
248.9787165802052016
  0
ARC
  5
B236
  8
0
 10
517.2141431089347634
 20
41.6200532786425583
 30
0.0
 40
1.757545237366207
 50
321.4240109049756029
 51
0.3068126246119209
  0
ARC
  5
B237
  8
0
 10
521.1254632319913753
 20
41.6174759145359232
 30
0.0
 40
1.7501326247428051
 50
179.6075086320466028
 51
218.6616678383653039
  0
ARC
  5
B238
  8
0
 10
517.2595188905246459
 20
38.7425210329895222
 30
0.0
 40
0.5739568632400402
 50
10.7523962970892892
 51
33.4774341769494868
  0
ARC
  5
B239
  8
0
 10
513.0834584215928089
 20
35.6203324120710221
 30
0.0
 40
5.7872639346100501
 50
36.4555722628992598
 51
59.5245209688289165
  0
ARC
  5
B23A
  8
0
 10
515.3403524858080118
 20
39.6745768608848124
 30
0.0
 40
1.153860897267037
 50
53.9995309743888825
 51
137.0202575940103884
  0
ARC
  5
B23B
  8
0
 10
513.2450459262666982
 20
40.6210308152131105
 30
0.0
 40
0.2851778560045812
 50
328.9489606556259105
 51
35.0966795593765397
  0
ARC
  5
B23C
  8
0
 10
514.3610273861481801
 20
39.8743711326506798
 30
0.0
 40
0.2851062062130469
 50
77.3197982765967282
 51
143.4862725822821972
  0
ARC
  5
B23D
  8
0
 10
513.5410407673160762
 20
41.0533519228639818
 30
0.0
 40
0.1908660419943924
 50
266.3787595565361812
 51
322.9648422235189855
  0
ARC
  5
B23E
  8
0
 10
514.6541960664395674
 20
40.3125738250813583
 30
0.0
 40
0.1965566429358615
 50
150.3502445659179045
 51
205.1578647592504012
  0
ARC
  5
B23F
  8
0
 10
514.4738354380548344
 20
40.4813862303500827
 30
0.0
 40
0.0301163148756535
 50
249.2567687374531999
 51
317.936492661760326
  0
ARC
  5
B240
  8
0
 10
513.7677604629235475
 20
40.9514471798177269
 30
0.0
 40
0.0292140517318752
 50
137.5007139406781107
 51
215.6769883204696043
  0
ARC
  5
B241
  8
0
 10
515.2821909669662546
 20
39.6594204045433401
 30
0.0
 40
2.01988252626353
 50
48.118251716178591
 51
139.5016984265168105
  0
ARC
  5
B242
  8
0
 10
525.0815569250130466
 20
50.9827055735072179
 30
0.0
 40
12.9552698027341098
 50
229.2837174014838979
 51
235.4157188959601967
  0
ARC
  5
B243
  8
0
 10
518.6880734977255543
 20
41.8877913228410819
 30
0.0
 40
1.841229917885608
 50
238.5686020809403942
 51
251.6913965999740128
  0
ARC
  5
B244
  8
0
 10
518.1838040677741901
 20
40.2552009483268805
 30
0.0
 40
0.137183950384244
 50
237.2935186915213137
 51
331.6541521727705231
  0
ARC
  5
B245
  8
0
 10
518.3500056973842902
 20
40.1687954757977224
 30
0.0
 40
0.0501962907474492
 50
90.1428179762581152
 51
154.927337681518992
  0
ARC
  5
B246
  8
0
 10
518.9072072757641081
 20
42.5274801414592929
 30
0.0
 40
0.2353908467565974
 50
98.7833217321801129
 51
158.4868723186474142
  0
ARC
  5
B247
  8
0
 10
518.7138372368926866
 20
42.6017650816395985
 30
0.0
 40
0.0283082512076255
 50
154.8375632564689965
 51
258.9992089664855826
  0
ARC
  5
B248
  8
0
 10
519.4398295762252928
 20
42.5274826857119308
 30
0.0
 40
0.2353880218040126
 50
21.5127330539334096
 51
81.2170729200360881
  0
ARC
  5
B249
  8
0
 10
519.6331975814773614
 20
42.6017650816395985
 30
0.0
 40
0.0283082512076255
 50
281.0007910335111774
 51
25.162436743531039
  0
ENDSEC
  0
EOF
