  0
SECTION
  2
HEADER
  9
$ACADVER
  1
AC1009
  9
$INSBASE
 10
4138.6321890272856763
 20
215.9999923647170874
 30
0.0
  9
$EXTMIN
 10
4124.9022168437340952
 20
202.4905638750562957
 30
0.0
  9
$EXTMAX
 10
4138.6321890272856763
 20
252.3479268999932117
 30
0.0
  9
$LIMMIN
 10
0.0
 20
0.0
  9
$LIMMAX
 10
11.6929133858000007
 20
8.2677165353999982
  9
$ORTHOMODE
 70
     0
  9
$REGENMODE
 70
     1
  9
$FILLMODE
 70
     1
  9
$QTEXTMODE
 70
     0
  9
$MIRRTEXT
 70
     0
  9
$DRAGMODE
 70
     2
  9
$LTSCALE
 40
0.6431102362
  9
$OSMODE
 70
  3839
  9
$ATTMODE
 70
     1
  9
$TEXTSIZE
 40
0.2
  9
$TRACEWID
 40
0.05
  9
$TEXTSTYLE
  7
STANDARD
  9
$CLAYER
  8
0
  9
$CELTYPE
  6
BYLAYER
  9
$CECOLOR
 62
   256
  9
$DIMSCALE
 40
1.0
  9
$DIMASZ
 40
0.1875
  9
$DIMEXO
 40
0.0625
  9
$DIMDLI
 40
0.4443307087
  9
$DIMRND
 40
0.0
  9
$DIMDLE
 40
0.0
  9
$DIMEXE
 40
0.125
  9
$DIMTP
 40
0.01
  9
$DIMTM
 40
0.01
  9
$DIMTXT
 40
2.0
  9
$DIMCEN
 40
0.1052362205
  9
$DIMTSZ
 40
0.0
  9
$DIMTOL
 70
     1
  9
$DIMLIM
 70
     0
  9
$DIMTIH
 70
     1
  9
$DIMTOH
 70
     1
  9
$DIMSE1
 70
     0
  9
$DIMSE2
 70
     0
  9
$DIMTAD
 70
     0
  9
$DIMZIN
 70
     0
  9
$DIMBLK
  1

  9
$DIMASO
 70
     1
  9
$DIMSHO
 70
     1
  9
$DIMPOST
  1
\X
  9
$DIMAPOST
  1

  9
$DIMALT
 70
     1
  9
$DIMALTD
 70
     2
  9
$DIMALTF
 40
25.3999999999999986
  9
$DIMLFAC
 40
1.0
  9
$DIMTOFL
 70
     0
  9
$DIMTVP
 40
0.0
  9
$DIMTIX
 70
     0
  9
$DIMSOXD
 70
     0
  9
$DIMSAH
 70
     0
  9
$DIMBLK1
  1

  9
$DIMBLK2
  1

  9
$DIMSTYLE
  2
STANDARD
  9
$DIMCLRD
 70
     0
  9
$DIMCLRE
 70
     0
  9
$DIMCLRT
 70
     0
  9
$DIMTFAC
 40
1.0
  9
$DIMGAP
 40
0.09
  9
$LUNITS
 70
     2
  9
$LUPREC
 70
     4
  9
$SKETCHINC
 40
0.1
  9
$FILLETRAD
 40
0.0
  9
$AUNITS
 70
     0
  9
$AUPREC
 70
     0
  9
$MENU
  1
.
  9
$ELEVATION
 40
0.0
  9
$PELEVATION
 40
0.0
  9
$THICKNESS
 40
0.0
  9
$LIMCHECK
 70
     0
  9
$BLIPMODE
 70
     0
  9
$CHAMFERA
 40
0.0
  9
$CHAMFERB
 40
0.0
  9
$SKPOLY
 70
     0
  9
$TDCREATE
 40
2458060.468368056230247
  9
$TDUPDATE
 40
2459137.843611110933125
  9
$TDINDWG
 40
0.5979237269
  9
$TDUSRTIMER
 40
0.5979237269
  9
$USRTIMER
 70
     1
  9
$ANGBASE
 50
0.0
  9
$ANGDIR
 70
     0
  9
$PDMODE
 70
     0
  9
$PDSIZE
 40
0.3125
  9
$PLINEWID
 40
0.0
  9
$COORDS
 70
     1
  9
$SPLFRAME
 70
     0
  9
$SPLINETYPE
 70
     6
  9
$SPLINESEGS
 70
     8
  9
$ATTDIA
 70
     1
  9
$ATTREQ
 70
     1
  9
$HANDLING
 70
     1
  9
$HANDSEED
  5
F1A9
  9
$SURFTAB1
 70
     6
  9
$SURFTAB2
 70
     6
  9
$SURFTYPE
 70
     6
  9
$SURFU
 70
     6
  9
$SURFV
 70
     6
  9
$UCSNAME
  2

  9
$UCSORG
 10
0.0
 20
0.0
 30
0.0
  9
$UCSXDIR
 10
1.0
 20
0.0
 30
0.0
  9
$UCSYDIR
 10
0.0
 20
1.0
 30
0.0
  9
$PUCSNAME
  2

  9
$PUCSORG
 10
0.0
 20
0.0
 30
0.0
  9
$PUCSXDIR
 10
1.0
 20
0.0
 30
0.0
  9
$PUCSYDIR
 10
0.0
 20
1.0
 30
0.0
  9
$USERI1
 70
     0
  9
$USERI2
 70
     0
  9
$USERI3
 70
     0
  9
$USERI4
 70
     0
  9
$USERI5
 70
     0
  9
$USERR1
 40
0.0
  9
$USERR2
 40
0.0
  9
$USERR3
 40
0.0
  9
$USERR4
 40
0.0
  9
$USERR5
 40
0.0
  9
$WORLDVIEW
 70
     1
  9
$SHADEDGE
 70
     3
  9
$SHADEDIF
 70
    70
  9
$TILEMODE
 70
     1
  9
$MAXACTVP
 70
    64
  9
$PLIMCHECK
 70
     0
  9
$PEXTMIN
 10
1.0000000000000000E+20
 20
1.0000000000000000E+20
 30
1.0000000000000000E+20
  9
$PEXTMAX
 10
-1.0000000000000000E+20
 20
-1.0000000000000000E+20
 30
-1.0000000000000000E+20
  9
$PLIMMIN
 10
0.0
 20
0.0
  9
$PLIMMAX
 10
12.0
 20
9.0
  9
$UNITMODE
 70
     0
  9
$VISRETAIN
 70
     1
  9
$PLINEGEN
 70
     0
  9
$PSLTSCALE
 70
     1
  0
ENDSEC
  0
SECTION
  2
TABLES
  0
TABLE
  2
VPORT
 70
     1
  0
VPORT
  2
*ACTIVE
 70
     0
 10
0.0
 20
0.0
 11
1.0
 21
1.0
 12
0.0
 22
0.0
 13
0.0
 23
0.0
 14
1.0
 24
1.0
 15
0.0
 25
0.0
 16
0.0
 26
0.0
 36
204.4855511849756908
 17
4131.77001953125
 27
227.4189376831054972
 37
0.0
 40
51.7110685075316425
 41
3.1396160558464219
 42
50.0
 43
0.0
 44
0.0
 50
0.0
 51
0.0
 71
     0
 72
   100
 73
     1
 74
     1
 75
     0
 76
     0
 77
     0
 78
     0
  0
ENDTAB
  0
TABLE
  2
LTYPE
 70
     2
  0
LTYPE
  2
CONTINUOUS
 70
     0
  3
Solid line
 72
    65
 73
     0
 40
0.0
  0
LTYPE
  2
PHANTOM2
 70
     0
  3
___ _ _ ___ _ _ ___ _ _ ___ _ _
 72
    65
 73
     6
 40
1.25
 49
0.625
 49
-0.125
 49
0.125
 49
-0.125
 49
0.125
 49
-0.125
  0
ENDTAB
  0
TABLE
  2
LAYER
 70
     2
  0
LAYER
  2
0
 70
     0
 62
   255
  6
CONTINUOUS
  0
LAYER
  2
DEFPOINTS
 70
     0
 62
     7
  6
CONTINUOUS
  0
ENDTAB
  0
TABLE
  2
STYLE
 70
     1
  0
STYLE
  2
STANDARD
 70
     0
 40
0.0
 41
0.8
 50
0.0
 71
     0
 42
0.2
  3
txt
  4

  0
ENDTAB
  0
TABLE
  2
VIEW
 70
     0
  0
ENDTAB
  0
TABLE
  2
UCS
 70
     0
  0
ENDTAB
  0
TABLE
  2
APPID
 70
     9
  0
APPID
  2
ACAD
 70
     0
  0
APPID
  2
ACAD_MLEADERVER
 70
     0
  0
APPID
  2
ACAD_EXEMPT_FROM_CAD_STANDARDS
 70
     0
  0
APPID
  2
ACAD_NAV_VCDISPLAY
 70
     0
  0
APPID
  2
ACAECLAYERSTANDARD
 70
     0
  0
APPID
  2
ACCMTRANSPARENCY
 70
     0
  0
APPID
  2
ACAD_DSTYLE_DIMJAG
 70
     0
  0
APPID
  2
ACAD_DSTYLE_DIMTALN
 70
     0
  0
APPID
  2
ACDBATTR
 70
     0
  0
ENDTAB
  0
TABLE
  2
DIMSTYLE
 70
     1
  0
DIMSTYLE
  2
STANDARD
 70
     0
  3

  4

  5

  6

  7

 40
1.0
 41
0.1875
 42
0.0625
 43
0.38
 44
0.125
 45
0.0
 46
0.0
 47
0.01
 48
0.01
140
0.15625
141
0.09
142
0.0
143
25.3999999999999986
144
1.0
145
0.0
146
1.0
147
0.09
 71
     1
 72
     0
 73
     1
 74
     1
 75
     0
 76
     0
 77
     0
 78
     4
170
     0
171
     2
172
     0
173
     0
174
     0
175
     0
176
     0
177
     0
178
     0
  0
ENDTAB
  0
ENDSEC
  0
SECTION
  2
BLOCKS
  0
BLOCK
  8
0
  2
$MODEL_SPACE
 70
     0
 10
0.0
 20
0.0
 30
0.0
  3
$MODEL_SPACE
  1

  0
ENDBLK
  5
21
  8
0
  0
BLOCK
 67
     1
  8
0
  2
$PAPER_SPACE
 70
     0
 10
0.0
 20
0.0
 30
0.0
  3
$PAPER_SPACE
  1

  0
ENDBLK
  5
1D
 67
     1
  8
0
  0
BLOCK
  8
0
  2
_FILLED
 70
     0
 10
0.0
 20
0.0
 30
0.0
  3
_FILLED
  1

  0
SOLID
  5
6F59
  8
0
  6
BYBLOCK
 62
     0
 10
0.0
 20
0.0
 30
0.0
 11
-1.0
 21
0.1666666667
 31
0.0
 12
-1.0
 22
-0.1666666667
 32
0.0
 13
-1.0
 23
-0.1666666667
 33
0.0
  0
ENDBLK
  5
6F5A
  8
0
  6
BYBLOCK
 62
     0
  0
ENDSEC
  0
SECTION
  2
ENTITIES
  0
ATTDEF
  5
3930
  8
DEFPOINTS
 10
4138.6209633506714454
 20
215.9988261938831045
 30
0.0
 40
0.001
  1
K-72699T-B4
  3

  2
MODELNUMBER
 70
     0
1001
ACDBATTR
1070
     0
1070
     1
  0
ATTDEF
  5
3931
  8
DEFPOINTS
 10
4138.6209633506714454
 20
215.9971595272164109
 30
0.0
 40
0.001
  1
ARCHER
  3

  2
TRADENAME
 70
     0
1001
ACDBATTR
1070
     0
1070
     1
  0
ATTDEF
  5
3932
  8
DEFPOINTS
 10
4138.6209633506714454
 20
215.9954928605496889
 30
0.0
 40
0.001
  1
BATH AND SHOWER FAUCET
  3

  2
PRODUCT
 70
     0
1001
ACDBATTR
1070
     0
1070
     1
  0
LINE
  5
EC7F
  8
0
 10
4130.7010103930178957
 20
248.1787789915524911
 30
0.0
 11
4128.0903495164466221
 21
251.7720643604183977
 31
0.0
  0
LINE
  5
EC80
  8
0
 10
4128.1080269364665583
 20
251.7477333508691117
 30
0.0
 11
4128.1017061878501409
 21
251.7430896503323936
 31
0.0
  0
ARC
  5
EC81
  8
0
 10
4128.1086997234242517
 20
251.7335704360839088
 30
0.0
 40
0.0118120692403003
 50
126.3038214362591987
 51
200.2936818069885021
  0
LINE
  5
EC82
  8
0
 10
4128.0976208625534127
 20
251.7294736298229054
 30
0.0
 11
4128.2004939495536746
 21
251.4626925584948935
 31
0.0
  0
LINE
  5
EC83
  8
0
 10
4128.1775340379726913
 20
251.5222312443513033
 30
0.0
 11
4128.1371854038161473
 21
251.4832667760776985
 31
0.0
  0
ARC
  5
EC84
  8
0
 10
4128.1535955756307885
 20
251.4662736526395008
 30
0.0
 40
0.0236232932339083
 50
134.0001801609489007
 51
215.9656882324848084
  0
LINE
  5
EC85
  8
0
 10
4128.1344756180378681
 20
251.4523996768276106
 30
0.0
 11
4128.2228928005743001
 21
251.3305504820785927
 31
0.0
  0
ARC
  5
EC86
  8
0
 10
4128.2419822214305896
 20
251.3444022995801106
 30
0.0
 40
0.0235855641595388
 50
215.9656882324781861
 51
294.3549279492227129
  0
LINE
  5
EC87
  8
0
 10
4128.2517086228835979
 20
251.3229156536926041
 30
0.0
 11
4128.2717446080969239
 21
251.331863386758414
 31
0.0
  0
ARC
  5
EC88
  8
0
 10
4128.2715936690547096
 20
251.3321932493443001
 30
0.0
 40
0.0003636475115623
 50
294.5833264334199271
 51
331.6718293737820886
  0
ARC
  5
EC89
  8
0
 10
4128.2516982491606541
 20
251.3320703502319873
 30
0.0
 40
0.0202155794830901
 50
359.8592535755527138
 51
18.5426841525782002
  0
ARC
  5
EC8A
  8
0
 10
4127.4872896004926588
 20
251.080903131285595
 30
0.0
 40
0.8248303634521391
 50
18.1980017550223003
 51
28.4362980386050417
  0
ARC
  5
EC8B
  8
0
 10
4128.2122202297287004
 20
251.4733026081329967
 30
0.0
 40
0.0005310589661018
 50
44.0730261193277428
 51
135.2123459216138031
  0
LINE
  5
EC8C
  8
0
 10
4128.211843325202608
 20
251.4736767292424133
 30
0.0
 11
4128.1720826529408441
 21
251.4351888080487072
 31
0.0
  0
ARC
  5
EC8D
  8
0
 10
4128.188690064524053
 20
251.4181292817781923
 30
0.0
 40
0.0238082665483258
 50
134.2306188763799923
 51
212.0418772123775
  0
LINE
  5
EC8E
  8
0
 10
4130.6833326316782404
 20
248.2031104708898113
 30
0.0
 11
4130.6196385840066796
 21
248.157341654511697
 31
0.0
  0
ARC
  5
EC8F
  8
0
 10
4128.1378961629761761
 20
246.3286267607446121
 30
0.0
 40
3.082733139120398
 50
33.6441355473853321
 51
36.3852882403841917
  0
ARC
  5
EC90
  8
0
 10
4130.3495108766583144
 20
247.7837290531674057
 30
0.0
 40
0.43562409008121
 50
24.2539982701297916
 51
35.4782539984618595
  0
ARC
  5
EC91
  8
0
 10
4130.4861972911958219
 20
247.8402486557035047
 30
0.0
 40
0.2878223036051024
 50
357.8877061311753778
 51
25.1732423498992084
  0
ARC
  5
EC92
  8
0
 10
4130.6879138952435824
 20
247.8268049980499939
 30
0.0
 40
0.0859568930145334
 50
292.8026754958896163
 51
1.890095441271687
  0
ARC
  5
EC93
  8
0
 10
4130.5641568685396123
 20
248.1862974612336927
 30
0.0
 40
0.4660003649674967
 50
271.4488189808719198
 51
289.6978907917961124
  0
ARC
  5
EC94
  8
0
 10
4130.5871773303933878
 20
247.9824539894640054
 30
0.0
 40
0.2622488210530172
 50
201.2053323913644078
 51
267.5439572482487733
  0
ARC
  5
EC95
  8
0
 10
4130.9436664501481573
 20
248.0880131878082011
 30
0.0
 40
0.6335183480832867
 50
168.5098457310535878
 51
198.4427165504968968
  0
ARC
  5
EC96
  8
0
 10
4128.5509895850027533
 20
248.4082942221413077
 30
0.0
 40
1.782452954079222
 50
353.7488880219249268
 51
357.4216437514101017
  0
ARC
  5
EC97
  8
0
 10
4153.6559074793249238
 20
248.7261348174056081
 30
0.0
 40
23.3276653097213185
 50
180.7084722619073034
 51
180.9776494460379013
  0
LINE
  5
EC98
  8
0
 10
4128.3130961669248791
 20
251.3315191237358022
 30
0.0
 11
4128.2745749945970601
 21
251.2939868477498067
 31
0.0
  0
ARC
  5
EC99
  8
0
 10
4128.291064300533435
 20
251.277063083367608
 30
0.0
 40
0.0236286057800747
 50
134.2550450346907098
 51
217.280013916328187
  0
LINE
  5
EC9A
  8
0
 10
4128.2722633777111696
 20
251.2627509796731999
 30
0.0
 11
4128.3240740369883497
 21
251.19143961903319
 31
0.0
  0
ARC
  5
EC9B
  8
0
 10
4128.3446861199263367
 20
251.2038621924540962
 30
0.0
 40
0.0240661233578888
 50
211.0766992422628903
 51
293.5976458344470075
  0
LINE
  5
EC9C
  8
0
 10
4128.3543200629983403
 20
251.1818084981063919
 30
0.0
 11
4128.3748252771865737
 21
251.1910436125220087
 31
0.0
  0
ARC
  5
EC9D
  8
0
 10
4128.3701271614127108
 20
251.2026151534811902
 30
0.0
 40
0.012488909159518
 50
292.097450618792891
 51
296.734105119236915
  0
ARC
  5
EC9E
  8
0
 10
4128.3750886052048372
 20
251.1925452404254884
 30
0.0
 40
0.0012673854712654
 50
301.2084974659903196
 51
333.4163547788853066
  0
ARC
  5
EC9F
  8
0
 10
4128.3286311590272817
 20
251.1939634722872938
 30
0.0
 40
0.0476322414240848
 50
357.6111237329503751
 51
20.4019325234535707
  0
ARC
  5
ECA0
  8
0
 10
4127.8292676475975895
 20
251.0330454342181952
 30
0.0
 40
0.5722401838258684
 50
18.0727485060955502
 51
29.6617129736729197
  0
ARC
  5
ECA1
  8
0
 10
4128.2683279959937863
 20
251.2844014779228985
 30
0.0
 40
0.0663324005626309
 50
28.6790451796562493
 51
44.8485780425594527
  0
ARC
  5
ECA2
  8
0
 10
4128.3140320191932915
 20
251.3300528071684141
 30
0.0
 40
0.0017396652781199
 50
40.4487572925935766
 51
122.5164051746323963
  0
LINE
  5
ECA3
  8
0
 10
4128.3532082862939205
 20
251.165421335476708
 30
0.0
 11
4128.3146871139661016
 21
251.1278890594907125
 31
0.0
  0
ARC
  5
ECA4
  8
0
 10
4128.331176419901567
 20
251.1109652951085138
 30
0.0
 40
0.0236286057800747
 50
134.2550450346907098
 51
217.280013916328187
  0
LINE
  5
ECA5
  8
0
 10
4128.3123754970802111
 20
251.0966531914139921
 30
0.0
 11
4128.3641861563555722
 21
251.0253418307740958
 31
0.0
  0
ARC
  5
ECA6
  8
0
 10
4128.3847982392953782
 20
251.037764404195002
 30
0.0
 40
0.0240661233578888
 50
211.0766992422628903
 51
293.5976458344470075
  0
LINE
  5
ECA7
  8
0
 10
4128.3944321823673818
 20
251.0157107098472977
 30
0.0
 11
4128.4149373965574341
 21
251.0249458242629998
 31
0.0
  0
ARC
  5
ECA8
  8
0
 10
4128.4102392807817523
 20
251.0365173652222097
 30
0.0
 40
0.012488909159518
 50
292.097450618792891
 51
296.734105119236915
  0
ARC
  5
ECA9
  8
0
 10
4128.4152007245756977
 20
251.0264474521663942
 30
0.0
 40
0.0012673854712654
 50
301.2084974659903196
 51
333.4163547788853066
  0
ARC
  5
ECAA
  8
0
 10
4128.3687432783963231
 20
251.0278656840281997
 30
0.0
 40
0.0476322414240848
 50
357.6111237329503751
 51
20.4019325234535707
  0
ARC
  5
ECAB
  8
0
 10
4127.869379766966631
 20
250.866947645959101
 30
0.0
 40
0.5722401838258684
 50
18.0727485060955502
 51
29.6617129736729197
  0
ARC
  5
ECAC
  8
0
 10
4128.3084401153628278
 20
251.1183036896638043
 30
0.0
 40
0.0663324005626309
 50
28.6790451796562493
 51
44.8485780425594527
  0
ARC
  5
ECAD
  8
0
 10
4128.3541441385614235
 20
251.1639550189092063
 30
0.0
 40
0.0017396652781199
 50
40.4487572925935766
 51
122.5164051746323963
  0
LINE
  5
ECAE
  8
0
 10
4128.4802495184057989
 20
251.1076386570759951
 30
0.0
 11
4128.4417283460788894
 21
251.0701063810899996
 31
0.0
  0
ARC
  5
ECAF
  8
0
 10
4128.4582176520143548
 20
251.0531826167078009
 30
0.0
 40
0.0236286057800747
 50
134.2550450346907098
 51
217.280013916328187
  0
LINE
  5
ECB0
  8
0
 10
4128.4394167291920894
 20
251.0388705130133928
 30
0.0
 11
4128.4912273884692695
 21
250.9675591523734113
 31
0.0
  0
ARC
  5
ECB1
  8
0
 10
4128.511839471408166
 20
250.9799817257942891
 30
0.0
 40
0.0240661233578888
 50
211.0766992422628903
 51
293.5976458344470075
  0
LINE
  5
ECB2
  8
0
 10
4128.5214734144792601
 20
250.9579280314464995
 30
0.0
 11
4128.5419786286693125
 21
250.9671631458622016
 31
0.0
  0
ARC
  5
ECB3
  8
0
 10
4128.5372805128963591
 20
250.9787346868214968
 30
0.0
 40
0.012488909159518
 50
292.097450618792891
 51
296.734105119236915
  0
ARC
  5
ECB4
  8
0
 10
4128.5422419566866665
 20
250.9686647737657097
 30
0.0
 40
0.0012673854712654
 50
301.2084974659903196
 51
333.4163547788853066
  0
ARC
  5
ECB5
  8
0
 10
4128.4957845105082015
 20
250.9700830056274867
 30
0.0
 40
0.0476322414240848
 50
357.6111237329503751
 51
20.4019325234535707
  0
ARC
  5
ECB6
  8
0
 10
4127.9964209990803283
 20
250.8091649675583881
 30
0.0
 40
0.5722401838258684
 50
18.0727485060955502
 51
29.6617129736729197
  0
ARC
  5
ECB7
  8
0
 10
4128.4354813474756156
 20
251.0605210112630914
 30
0.0
 40
0.0663324005626309
 50
28.6790451796562493
 51
44.8485780425594527
  0
ARC
  5
ECB8
  8
0
 10
4128.4811853706742113
 20
251.106172340508607
 30
0.0
 40
0.0017396652781199
 50
40.4487572925935766
 51
122.5164051746323963
  0
LINE
  5
ECB9
  8
0
 10
4128.4583651484435904
 20
251.0010170485556955
 30
0.0
 11
4128.419843976116681
 21
250.9634847725697
 31
0.0
  0
ARC
  5
ECBA
  8
0
 10
4128.4363332820521464
 20
250.9465610081875013
 30
0.0
 40
0.0236286057800747
 50
134.2550450346907098
 51
217.280013916328187
  0
LINE
  5
ECBB
  8
0
 10
4128.4175323592307905
 20
250.9322489044930933
 30
0.0
 11
4128.4693430185061516
 21
250.8609375438531117
 31
0.0
  0
ARC
  5
ECBC
  8
0
 10
4128.4899551014459576
 20
250.8733601172739895
 30
0.0
 40
0.0240661233578888
 50
211.0766992422628903
 51
293.5976458344470075
  0
LINE
  5
ECBD
  8
0
 10
4128.4995890445152327
 20
250.8513064229263136
 30
0.0
 11
4128.5200942587061945
 21
250.8605415373419874
 31
0.0
  0
ARC
  5
ECBE
  8
0
 10
4128.5153961429323317
 20
250.8721130783011972
 30
0.0
 40
0.012488909159518
 50
292.097450618792891
 51
296.734105119236915
  0
ARC
  5
ECBF
  8
0
 10
4128.5203575867253676
 20
250.8620431652454101
 30
0.0
 40
0.0012673854712654
 50
301.2084974659903196
 51
333.4163547788853066
  0
ARC
  5
ECC0
  8
0
 10
4128.4739001405441741
 20
250.8634613971071872
 30
0.0
 40
0.0476322414240848
 50
357.6111237329503751
 51
20.4019325234535707
  0
ARC
  5
ECC1
  8
0
 10
4127.9745366291172104
 20
250.7025433590380885
 30
0.0
 40
0.5722401838258684
 50
18.0727485060955502
 51
29.6617129736729197
  0
ARC
  5
ECC2
  8
0
 10
4128.4135969775134072
 20
250.9538994027427918
 30
0.0
 40
0.0663324005626309
 50
28.6790451796562493
 51
44.8485780425594527
  0
ARC
  5
ECC3
  8
0
 10
4128.4593010007110934
 20
250.9995507319883075
 30
0.0
 40
0.0017396652781199
 50
40.4487572925935766
 51
122.5164051746323963
  0
LINE
  5
ECC4
  8
0
 10
4128.5028865407566627
 20
250.8527915454313018
 30
0.0
 11
4128.4733155841331609
 21
250.8239797196715983
 31
0.0
  0
ARC
  5
ECC5
  8
0
 10
4128.4898048900677168
 20
250.807055955289286
 30
0.0
 40
0.0236286057800747
 50
134.2550450346907098
 51
217.280013916328187
  0
LINE
  5
ECC6
  8
0
 10
4128.4710039672481798
 20
250.7927438515949063
 30
0.0
 11
4128.5228146265217219
 21
250.7214324909550101
 31
0.0
  0
ARC
  5
ECC7
  8
0
 10
4128.5434267094624374
 20
250.7338550643758026
 30
0.0
 40
0.0240661233578888
 50
211.0766992422628903
 51
293.5976458344470075
  0
LINE
  5
ECC8
  8
0
 10
4128.5530606525317125
 20
250.7118013700280983
 30
0.0
 11
4128.5735658667226744
 21
250.7210364844438004
 31
0.0
  0
ARC
  5
ECC9
  8
0
 10
4128.5688677509488116
 20
250.7326080254030103
 30
0.0
 40
0.012488909159518
 50
292.097450618792891
 51
296.734105119236915
  0
ARC
  5
ECCA
  8
0
 10
4128.573829194740938
 20
250.7225381123471948
 30
0.0
 40
0.0012673854712654
 50
301.2084974659903196
 51
333.4163547788853066
  0
ARC
  5
ECCB
  8
0
 10
4128.5273717485606539
 20
250.7239563442090002
 30
0.0
 40
0.0476322414240848
 50
357.6111237329503751
 51
20.4019325234535707
  0
ARC
  5
ECCC
  8
0
 10
4128.0280082371336903
 20
250.5630383061399016
 30
0.0
 40
0.5722401838258684
 50
18.0727485060955502
 51
29.6617129736729197
  0
ARC
  5
ECCD
  8
0
 10
4128.4670685855289776
 20
250.8143943498446049
 30
0.0
 40
0.0663324005626309
 50
28.6790451796562493
 51
42.0676109807056307
  0
LINE
  5
ECCE
  8
0
 10
4128.6917039401296279
 20
250.8094416573308933
 30
0.0
 11
4128.653182767801809
 21
250.7719093813448978
 31
0.0
  0
ARC
  5
ECCF
  8
0
 10
4128.6696720737390933
 20
250.7549856169626992
 30
0.0
 40
0.0236286057800747
 50
134.2550450346907098
 51
217.280013916328187
  0
LINE
  5
ECD0
  8
0
 10
4128.6508711509168279
 20
250.7406735132682911
 30
0.0
 11
4128.702681810192189
 21
250.6693621526283948
 31
0.0
  0
ARC
  5
ECD1
  8
0
 10
4128.7232938931310855
 20
250.6817847260491874
 30
0.0
 40
0.0240661233578888
 50
211.0766992422628903
 51
293.5976458344470075
  0
LINE
  5
ECD2
  8
0
 10
4128.7329278362021796
 20
250.6597310317015115
 30
0.0
 11
4128.7534330503931415
 21
250.6689661461172136
 31
0.0
  0
ARC
  5
ECD3
  8
0
 10
4128.7487349346192786
 20
250.6805376870763951
 30
0.0
 40
0.012488909159518
 50
292.097450618792891
 51
296.734105119236915
  0
ARC
  5
ECD4
  8
0
 10
4128.753696378413224
 20
250.670467774020608
 30
0.0
 40
0.0012673854712654
 50
301.2084974659903196
 51
333.4163547788853066
  0
ARC
  5
ECD5
  8
0
 10
4128.707238932231121
 20
250.6718860058824134
 30
0.0
 40
0.0476322414240848
 50
357.6111237329503751
 51
20.4019325234535707
  0
ARC
  5
ECD6
  8
0
 10
4128.2078754208041573
 20
250.5109679678132864
 30
0.0
 40
0.5722401838258684
 50
18.0727485060955502
 51
29.6617129736729197
  0
ARC
  5
ECD7
  8
0
 10
4128.6469357691994446
 20
250.7623240115179897
 30
0.0
 40
0.0663324005626309
 50
28.6790451796562493
 51
44.8485780425594527
  0
ARC
  5
ECD8
  8
0
 10
4128.6926397923980403
 20
250.8079753407635053
 30
0.0
 40
0.0017396652781199
 50
40.4487572925935766
 51
122.5164051746323963
  0
LINE
  5
ECD9
  8
0
 10
4128.639208868607966
 20
250.6905948403590116
 30
0.0
 11
4128.6006876962792376
 21
250.6530625643729877
 31
0.0
  0
ARC
  5
ECDA
  8
0
 10
4128.6171770022156124
 20
250.636138799990789
 30
0.0
 40
0.0236286057800747
 50
134.2550450346907098
 51
217.280013916328187
  0
LINE
  5
ECDB
  8
0
 10
4128.5983760793942565
 20
250.6218266962964094
 30
0.0
 11
4128.6501867386696176
 21
250.5505153356563994
 31
0.0
  0
ARC
  5
ECDC
  8
0
 10
4128.6707988216094236
 20
250.562937909077192
 30
0.0
 40
0.0240661233578888
 50
211.0766992422628903
 51
293.5976458344470075
  0
LINE
  5
ECDD
  8
0
 10
4128.6804327646814272
 20
250.5408842147294877
 30
0.0
 11
4128.7009379788696606
 21
250.5501193291451898
 31
0.0
  0
ARC
  5
ECDE
  8
0
 10
4128.6962398630967073
 20
250.5616908701043997
 30
0.0
 40
0.012488909159518
 50
292.097450618792891
 51
296.734105119236915
  0
ARC
  5
ECDF
  8
0
 10
4128.7012013068879241
 20
250.5516209570486126
 30
0.0
 40
0.0012673854712654
 50
301.2084974659903196
 51
333.4163547788853066
  0
ARC
  5
ECE0
  8
0
 10
4128.6547438607085496
 20
250.5530391889105033
 30
0.0
 40
0.0476322414240848
 50
357.6111237329503751
 51
20.4019325234535707
  0
ARC
  5
ECE1
  8
0
 10
4128.1553803492815859
 20
250.3921211508414046
 30
0.0
 40
0.5722401838258684
 50
18.0727485060955502
 51
29.6617129736729197
  0
ARC
  5
ECE2
  8
0
 10
4128.5944406976768732
 20
250.643477194546108
 30
0.0
 40
0.0663324005626309
 50
28.6790451796562493
 51
44.8485780425594527
  0
ARC
  5
ECE3
  8
0
 10
4128.6401447208745594
 20
250.6891285237915099
 30
0.0
 40
0.0017396652781199
 50
40.4487572925935766
 51
122.5164051746323963
  0
LINE
  5
ECE4
  8
0
 10
4128.9457105579822382
 20
250.4604805665283891
 30
0.0
 11
4128.9071893856544193
 21
250.4229482905423936
 31
0.0
  0
ARC
  5
ECE5
  8
0
 10
4128.9236786915898847
 20
250.4060245261601949
 30
0.0
 40
0.0236286057800747
 50
134.2550450346907098
 51
217.280013916328187
  0
LINE
  5
ECE6
  8
0
 10
4128.9048777687694383
 20
250.3917124224657869
 30
0.0
 11
4128.9566884280438899
 21
250.3204010618258053
 31
0.0
  0
ARC
  5
ECE7
  8
0
 10
4128.9773005109827864
 20
250.3328236352467115
 30
0.0
 40
0.0240661233578888
 50
211.0766992422628903
 51
293.5976458344470075
  0
LINE
  5
ECE8
  8
0
 10
4128.986934454052971
 20
250.3107699408990072
 30
0.0
 11
4129.0074396682448423
 21
250.3200050553147094
 31
0.0
  0
ARC
  5
ECE9
  8
0
 10
4129.0027415524709795
 20
250.3315765962738908
 30
0.0
 40
0.012488909159518
 50
292.097450618792891
 51
296.734105119236915
  0
ARC
  5
ECEA
  8
0
 10
4129.0077029962631059
 20
250.3215066832181037
 30
0.0
 40
0.0012673854712654
 50
301.2084974659903196
 51
333.4163547788853066
  0
ARC
  5
ECEB
  8
0
 10
4128.9612455500819124
 20
250.3229249150799092
 30
0.0
 40
0.0476322414240848
 50
357.6111237329503751
 51
20.4019325234535707
  0
ARC
  5
ECEC
  8
0
 10
4128.4618820386558582
 20
250.1620068770108105
 30
0.0
 40
0.5722401838258684
 50
18.0727485060955502
 51
29.6617129736729197
  0
ARC
  5
ECED
  8
0
 10
4128.900942387050236
 20
250.4133629207155991
 30
0.0
 40
0.0663324005626309
 50
28.6790451796562493
 51
44.8485780425594527
  0
ARC
  5
ECEE
  8
0
 10
4128.9466464102479222
 20
250.459014249961001
 30
0.0
 40
0.0017396652781199
 50
40.4487572925935766
 51
122.5164051746323963
  0
LINE
  5
ECEF
  8
0
 10
4128.8345295731542137
 20
250.51877052003519
 30
0.0
 11
4128.7960084008263948
 21
250.4812382440491092
 31
0.0
  0
ARC
  5
ECF0
  8
0
 10
4128.8124977067609507
 20
250.4643144796669105
 30
0.0
 40
0.0236286057800747
 50
134.2550450346907098
 51
217.280013916328187
  0
LINE
  5
ECF1
  8
0
 10
4128.7936967839395948
 20
250.4500023759725025
 30
0.0
 11
4128.8455074432149559
 21
250.3786910153324925
 31
0.0
  0
ARC
  5
ECF2
  8
0
 10
4128.8661195261538523
 20
250.3911135887533987
 30
0.0
 40
0.0240661233578888
 50
211.0766992422628903
 51
293.5976458344470075
  0
LINE
  5
ECF3
  8
0
 10
4128.875753469225856
 20
250.3690598944056944
 30
0.0
 11
4128.8962586834159083
 21
250.3782950088213966
 31
0.0
  0
ARC
  5
ECF4
  8
0
 10
4128.891560567642955
 20
250.3898665497806064
 30
0.0
 40
0.012488909159518
 50
292.097450618792891
 51
296.734105119236915
  0
ARC
  5
ECF5
  8
0
 10
4128.8965220114350814
 20
250.3797966367247909
 30
0.0
 40
0.0012673854712654
 50
301.2084974659903196
 51
333.4163547788853066
  0
ARC
  5
ECF6
  8
0
 10
4128.8500645652547973
 20
250.3812148685867101
 30
0.0
 40
0.0476322414240848
 50
357.6111237329503751
 51
20.4019325234535707
  0
ARC
  5
ECF7
  8
0
 10
4128.3507010538269242
 20
250.2202968305174977
 30
0.0
 40
0.5722401838258684
 50
18.0727485060955502
 51
29.6617129736729197
  0
ARC
  5
ECF8
  8
0
 10
4128.789761402223121
 20
250.471652874222201
 30
0.0
 40
0.0663324005626309
 50
28.6790451796562493
 51
44.8485780425594527
  0
ARC
  5
ECF9
  8
0
 10
4128.8354654254198977
 20
250.5173042034676882
 30
0.0
 40
0.0017396652781199
 50
40.4487572925935766
 51
122.5164051746323963
  0
LINE
  5
ECFA
  8
0
 10
4129.2221028272088006
 20
250.0968880118566062
 30
0.0
 11
4129.1835816548800722
 21
250.0593557358706107
 31
0.0
  0
ARC
  5
ECFB
  8
0
 10
4129.2000709608173565
 20
250.0424319714882984
 30
0.0
 40
0.0236286057800747
 50
134.2550450346907098
 51
217.280013916328187
  0
LINE
  5
ECFC
  8
0
 10
4129.1812700379950911
 20
250.0281198677938903
 30
0.0
 11
4129.2330806972713617
 21
249.956808507153994
 31
0.0
  0
ARC
  5
ECFD
  8
0
 10
4129.2536927802102582
 20
249.9692310805747866
 30
0.0
 40
0.0240661233578888
 50
211.0766992422628903
 51
293.5976458344470075
  0
LINE
  5
ECFE
  8
0
 10
4129.2633267232822618
 20
249.9471773862271107
 30
0.0
 11
4129.2838319374714047
 21
249.9564125006428128
 31
0.0
  0
ARC
  5
ECFF
  8
0
 10
4129.2791338216984514
 20
249.9679840416019942
 30
0.0
 40
0.012488909159518
 50
292.097450618792891
 51
296.734105119236915
  0
ARC
  5
ED00
  8
0
 10
4129.2840952654896682
 20
249.9579141285462072
 30
0.0
 40
0.0012673854712654
 50
301.2084974659903196
 51
333.4163547788853066
  0
ARC
  5
ED01
  8
0
 10
4129.2376378193102937
 20
249.9593323604080979
 30
0.0
 40
0.0476322414240848
 50
357.6111237329503751
 51
20.4019325234535707
  0
ARC
  5
ED02
  8
0
 10
4128.7382743078824205
 20
249.798414322338914
 30
0.0
 40
0.5722401838258684
 50
18.0727485060955502
 51
29.6617129736729197
  0
ARC
  5
ED03
  8
0
 10
4129.1773346562777078
 20
250.0497703660437026
 30
0.0
 40
0.0663324005626309
 50
28.6790451796562493
 51
44.8485780425594527
  0
ARC
  5
ED04
  8
0
 10
4129.2230386794763035
 20
250.0954216952891045
 30
0.0
 40
0.0017396652781199
 50
40.4487572925935766
 51
122.5164051746323963
  0
LINE
  5
ED05
  8
0
 10
4129.0643587942258819
 20
250.2038095983166102
 30
0.0
 11
4129.0258376218989724
 21
250.1662773223305862
 31
0.0
  0
ARC
  5
ED06
  8
0
 10
4129.0423269278344378
 20
250.1493535579483876
 30
0.0
 40
0.0236286057800747
 50
134.2550450346907098
 51
217.280013916328187
  0
LINE
  5
ED07
  8
0
 10
4129.0235260050121724
 20
250.1350414542540079
 30
0.0
 11
4129.075336664288443
 21
250.0637300936141116
 31
0.0
  0
ARC
  5
ED08
  8
0
 10
4129.09594874722643
 20
250.0761526670349042
 30
0.0
 40
0.0240661233578888
 50
211.0766992422628903
 51
293.5976458344470075
  0
LINE
  5
ED09
  8
0
 10
4129.1055826902984336
 20
250.0540989726871999
 30
0.0
 11
4129.1260879044875765
 21
250.063334087102902
 31
0.0
  0
ARC
  5
ED0A
  8
0
 10
4129.1213897887146231
 20
250.0749056280621119
 30
0.0
 40
0.012488909159518
 50
292.097450618792891
 51
296.734105119236915
  0
ARC
  5
ED0B
  8
0
 10
4129.126351232507659
 20
250.0648357150062964
 30
0.0
 40
0.0012673854712654
 50
301.2084974659903196
 51
333.4163547788853066
  0
ARC
  5
ED0C
  8
0
 10
4129.079893786327375
 20
250.0662539468681018
 30
0.0
 40
0.0476322414240848
 50
357.6111237329503751
 51
20.4019325234535707
  0
ARC
  5
ED0D
  8
0
 10
4128.5805302748985923
 20
249.9053359087990032
 30
0.0
 40
0.5722401838258684
 50
18.0727485060955502
 51
29.6617129736729197
  0
ARC
  5
ED0E
  8
0
 10
4129.0195906232956986
 20
250.1566919525037918
 30
0.0
 40
0.0663324005626309
 50
28.6790451796562493
 51
44.8485780425594527
  0
ARC
  5
ED0F
  8
0
 10
4129.0652946464933848
 20
250.2023432817491937
 30
0.0
 40
0.0017396652781199
 50
40.4487572925935766
 51
122.5164051746323963
  0
LINE
  5
ED10
  8
0
 10
4128.9753907492922735
 20
250.2025514657669873
 30
0.0
 11
4128.9368695769644546
 21
250.1650191897809918
 31
0.0
  0
ARC
  5
ED11
  8
0
 10
4128.95335888289992
 20
250.1480954253987932
 30
0.0
 40
0.0236286057800747
 50
134.2550450346907098
 51
217.280013916328187
  0
LINE
  5
ED12
  8
0
 10
4128.9345579600776546
 20
250.1337833217044135
 30
0.0
 11
4128.9863686193530157
 21
250.0624719610644036
 31
0.0
  0
ARC
  5
ED13
  8
0
 10
4129.0069807022928217
 20
250.0748945344851961
 30
0.0
 40
0.0240661233578888
 50
211.0766992422628903
 51
293.5976458344470075
  0
LINE
  5
ED14
  8
0
 10
4129.0166146453639158
 20
250.0528408401374918
 30
0.0
 11
4129.0371198595539681
 21
250.0620759545531939
 31
0.0
  0
ARC
  5
ED15
  8
0
 10
4129.0324217437791958
 20
250.0736474955124038
 30
0.0
 40
0.012488909159518
 50
292.097450618792891
 51
296.734105119236915
  0
ARC
  5
ED16
  8
0
 10
4129.0373831875731412
 20
250.0635775824565883
 30
0.0
 40
0.0012673854712654
 50
301.2084974659903196
 51
333.4163547788853066
  0
ARC
  5
ED17
  8
0
 10
4128.9909257413928572
 20
250.0649958143185074
 30
0.0
 40
0.0476322414240848
 50
357.6111237329503751
 51
20.4019325234535707
  0
ARC
  5
ED18
  8
0
 10
4128.491562229964984
 20
249.9040777762494088
 30
0.0
 40
0.5722401838258684
 50
18.0727485060955502
 51
29.6617129736729197
  0
ARC
  5
ED19
  8
0
 10
4128.9306225783602713
 20
250.1554338199541121
 30
0.0
 40
0.0663324005626309
 50
28.6790451796562493
 51
44.8485780425594527
  0
ARC
  5
ED1A
  8
0
 10
4128.9763266015579575
 20
250.201085149199514
 30
0.0
 40
0.0017396652781199
 50
40.4487572925935766
 51
122.5164051746323963
  0
LINE
  5
ED1B
  8
0
 10
4129.1844756245809549
 20
249.9125861529971928
 30
0.0
 11
4129.1570405197862783
 21
249.8860923803582921
 31
0.0
  0
ARC
  5
ED1C
  8
0
 10
4129.1745201562998773
 20
249.8679916868080966
 30
0.0
 40
0.0251629251010809
 50
133.9999998952027056
 51
212.9370879561718937
  0
LINE
  5
ED1D
  8
0
 10
4129.153401716260305
 20
249.8543101558288981
 30
0.0
 11
4129.2055533542770718
 21
249.7825295840601996
 31
0.0
  0
ARC
  5
ED1E
  8
0
 10
4129.2247385988302995
 20
249.7963115874003961
 30
0.0
 40
0.0236220472000039
 50
216.0000000014605064
 51
290.0000000014345005
  0
ARC
  5
ED1F
  8
0
 10
4128.6112648848920799
 20
250.9999855372495858
 30
0.0
 40
1.3744412561477499
 50
296.886351427874672
 51
298.376847640540575
  0
ARC
  5
ED20
  8
0
 10
4129.1861519252015569
 20
249.9106431719505963
 30
0.0
 40
0.0025650286230612
 50
81.2972627899949742
 51
130.7928711029209126
  0
ARC
  5
ED21
  8
0
 10
4129.1136941003251195
 20
249.7953331397829118
 30
0.0
 40
0.1385427688276366
 50
34.7776587158130965
 51
58.2778142910278589
  0
ARC
  5
ED22
  8
0
 10
4128.9038282156534478
 20
249.6182648667900139
 30
0.0
 40
0.4127222122109688
 50
31.3330306936071494
 51
38.3523044312869672
  0
LINE
  5
ED23
  8
0
 10
4129.2842537310807529
 20
249.8609305036517014
 30
0.0
 11
4129.257581674881294
 21
249.8341382945401961
 31
0.0
  0
ARC
  5
ED24
  8
0
 10
4129.2743801855685888
 20
249.8174151188109136
 30
0.0
 40
0.0237034716405323
 50
135.1287634478013899
 51
215.7629064690611074
  0
LINE
  5
ED25
  8
0
 10
4129.2551461847651808
 20
249.8035620404207009
 30
0.0
 11
4129.3076890771362741
 21
249.730610021697089
 31
0.0
  0
ARC
  5
ED26
  8
0
 10
4129.3266686413526259
 20
249.7442798449226871
 30
0.0
 40
0.0233899107499436
 50
215.7629064690584926
 51
298.511137568530728
  0
LINE
  5
ED27
  8
0
 10
4129.3378333376767841
 20
249.7237265609782071
 30
0.0
 11
4129.3730834130128642
 21
249.7416640236399132
 31
0.0
  0
ARC
  5
ED28
  8
0
 10
4129.3704690369368109
 20
249.7457594488593031
 30
0.0
 40
0.0048587518965045
 50
302.5527357096344758
 51
7.5096575648597987
  0
ARC
  5
ED29
  8
0
 10
4129.2318710161471245
 20
249.709185846239393
 30
0.0
 40
0.1481633255455278
 50
14.5445308669533908
 51
37.6279552066103875
  0
ARC
  5
ED2A
  8
0
 10
4129.1200987038519088
 20
249.6468320337436069
 30
0.0
 40
0.2754013876353667
 50
33.7018225103093414
 51
49.2153859656775978
  0
ARC
  5
ED2B
  8
0
 10
4129.2804260017728666
 20
249.8327005294665071
 30
0.0
 40
0.0299386870670495
 50
49.1820530302694365
 51
77.4419816031631854
  0
ARC
  5
ED2C
  8
0
 10
4129.2868266361820133
 20
249.8580976770232098
 30
0.0
 40
0.0038268456155674
 50
88.3696546662011428
 51
132.2471912368800986
  0
LINE
  5
ED2D
  8
0
 10
4129.4869668201235982
 20
249.6908886247408077
 30
0.0
 11
4129.4602947639241393
 21
249.6640964156293023
 31
0.0
  0
ARC
  5
ED2E
  8
0
 10
4129.4770932746123435
 20
249.6473732398999914
 30
0.0
 40
0.0237034716405323
 50
135.1287634478013899
 51
215.7629064690611074
  0
LINE
  5
ED2F
  8
0
 10
4129.457859273808026
 20
249.6335201615098072
 30
0.0
 11
4129.5104021661791194
 21
249.560568142786309
 31
0.0
  0
ARC
  5
ED30
  8
0
 10
4129.5293817303963806
 20
249.5742379660117933
 30
0.0
 40
0.0233899107499436
 50
215.7629064690584926
 51
298.511137568530728
  0
LINE
  5
ED31
  8
0
 10
4129.5405464267187199
 20
249.5536846820673986
 30
0.0
 11
4129.5757965020547999
 21
249.5716221447291048
 31
0.0
  0
ARC
  5
ED32
  8
0
 10
4129.5731821259787466
 20
249.5757175699484094
 30
0.0
 40
0.0048587518965045
 50
302.5527357096344758
 51
7.5096575648597987
  0
ARC
  5
ED33
  8
0
 10
4129.4345841051899697
 20
249.5391439673284992
 30
0.0
 40
0.1481633255455278
 50
14.5445308669533908
 51
37.6279552066103875
  0
ARC
  5
ED34
  8
0
 10
4129.322811792894754
 20
249.4767901548327131
 30
0.0
 40
0.2754013876353667
 50
33.7018225103093414
 51
49.2153859656775978
  0
ARC
  5
ED35
  8
0
 10
4129.4831390908148023
 20
249.6626586505556133
 30
0.0
 40
0.0299386870670495
 50
49.1820530302694365
 51
77.4419816031631854
  0
ARC
  5
ED36
  8
0
 10
4129.4895397252239491
 20
249.6880557981122877
 30
0.0
 40
0.0038268456155674
 50
88.3696546662011428
 51
132.2471912368800986
  0
LINE
  5
ED37
  8
0
 10
4129.3829747450208743
 20
249.6311994641384047
 30
0.0
 11
4129.3563026888223249
 21
249.604407255027013
 31
0.0
  0
ARC
  5
ED38
  8
0
 10
4129.3731011995096196
 20
249.5876840792975884
 30
0.0
 40
0.0237034716405323
 50
135.1287634478013899
 51
215.7629064690611074
  0
LINE
  5
ED39
  8
0
 10
4129.3538671987043926
 20
249.5738310009074041
 30
0.0
 11
4129.4064100910745765
 21
249.5008789821837922
 31
0.0
  0
ARC
  5
ED3A
  8
0
 10
4129.4253896552927472
 20
249.5145488054093903
 30
0.0
 40
0.0233899107499436
 50
215.7629064690584926
 51
298.511137568530728
  0
LINE
  5
ED3B
  8
0
 10
4129.436554351615996
 20
249.4939955214649956
 30
0.0
 11
4129.471804426952076
 21
249.5119329841267017
 31
0.0
  0
ARC
  5
ED3C
  8
0
 10
4129.4691900508769322
 20
249.5160284093460064
 30
0.0
 40
0.0048587518965045
 50
302.5527357096344758
 51
7.5096575648597987
  0
ARC
  5
ED3D
  8
0
 10
4129.3305920300881553
 20
249.4794548067260962
 30
0.0
 40
0.1481633255455278
 50
14.5445308669533908
 51
37.6279552066103875
  0
ARC
  5
ED3E
  8
0
 10
4129.2188197177911206
 20
249.4171009942303101
 30
0.0
 40
0.2754013876353667
 50
33.7018225103093414
 51
49.2153859656775978
  0
ARC
  5
ED3F
  8
0
 10
4129.3791470157120784
 20
249.6029694899532103
 30
0.0
 40
0.0299386870670495
 50
49.1820530302694365
 51
77.4419816031631854
  0
ARC
  5
ED40
  8
0
 10
4129.3855476501221347
 20
249.6283666375099131
 30
0.0
 40
0.0038268456155674
 50
88.3696546662011428
 51
132.2471912368800986
  0
LINE
  5
ED41
  8
0
 10
4129.51872205627933
 20
249.5364606903725928
 30
0.0
 11
4129.4920500000798711
 21
249.5096684812610874
 31
0.0
  0
ARC
  5
ED42
  8
0
 10
4129.5088485107680754
 20
249.4929453055316912
 30
0.0
 40
0.0237034716405323
 50
135.1287634478013899
 51
215.7629064690611074
  0
LINE
  5
ED43
  8
0
 10
4129.4896145099628484
 20
249.479092227141507
 30
0.0
 11
4129.5421574023339417
 21
249.4061402084180088
 31
0.0
  0
ARC
  5
ED44
  8
0
 10
4129.5611369665512029
 20
249.4198100316436069
 30
0.0
 40
0.0233899107499436
 50
215.7629064690584926
 51
298.511137568530728
  0
LINE
  5
ED45
  8
0
 10
4129.5723016628744517
 20
249.3992567476990985
 30
0.0
 11
4129.6075517382096223
 21
249.4171942103608899
 31
0.0
  0
ARC
  5
ED46
  8
0
 10
4129.604937362135388
 20
249.4212896355801092
 30
0.0
 40
0.0048587518965045
 50
302.5527357096344758
 51
7.5096575648597987
  0
ARC
  5
ED47
  8
0
 10
4129.4663393413457015
 20
249.3847160329601991
 30
0.0
 40
0.1481633255455278
 50
14.5445308669533908
 51
37.6279552066103875
  0
ARC
  5
ED48
  8
0
 10
4129.3545670290495764
 20
249.3223622204644983
 30
0.0
 40
0.2754013876353667
 50
33.7018225103093414
 51
49.2153859656775978
  0
ARC
  5
ED49
  8
0
 10
4129.5148943269714437
 20
249.5082307161873132
 30
0.0
 40
0.0299386870670495
 50
49.1820530302694365
 51
77.4419816031631854
  0
ARC
  5
ED4A
  8
0
 10
4129.5212949613805904
 20
249.5336278637439875
 30
0.0
 40
0.0038268456155674
 50
88.3696546662011428
 51
132.2471912368800986
  0
LINE
  5
ED4B
  8
0
 10
4129.7420574983771075
 20
249.3342615780161111
 30
0.0
 11
4129.7153854421767392
 21
249.307469368904691
 31
0.0
  0
ARC
  5
ED4C
  8
0
 10
4129.7321839528658529
 20
249.2907461931752948
 30
0.0
 40
0.0237034716405323
 50
135.1287634478013899
 51
215.7629064690611074
  0
LINE
  5
ED4D
  8
0
 10
4129.7129499520606259
 20
249.2768931147851106
 30
0.0
 11
4129.7472243824577163
 21
249.2293055387065124
 31
0.0
  0
ARC
  5
ED4E
  8
0
 10
4129.784472408648071
 20
249.2176109192870967
 30
0.0
 40
0.0233899107499436
 50
257.13702201875941
 51
298.511137568530728
  0
LINE
  5
ED4F
  8
0
 10
4129.7956371049713198
 20
249.197057635342702
 30
0.0
 11
4129.8308871803083093
 21
249.2149950980044082
 31
0.0
  0
ARC
  5
ED50
  8
0
 10
4129.8282728042331655
 20
249.2190905232237128
 30
0.0
 40
0.0048587518965045
 50
302.5527357096344758
 51
7.5096575648597987
  0
ARC
  5
ED51
  8
0
 10
4129.6896747834452981
 20
249.1825169206038026
 30
0.0
 40
0.1481633255455278
 50
14.5445308669533908
 51
37.6279552066103875
  0
ARC
  5
ED52
  8
0
 10
4129.5779024711482634
 20
249.1201631081079881
 30
0.0
 40
0.2754013876353667
 50
33.7018225103093414
 51
49.2153859656775978
  0
ARC
  5
ED53
  8
0
 10
4129.7382297690701307
 20
249.306031603831002
 30
0.0
 40
0.0299386870670495
 50
49.1820530302694365
 51
77.4419816031631854
  0
ARC
  5
ED54
  8
0
 10
4129.744630403478368
 20
249.3314287513875911
 30
0.0
 40
0.0038268456155674
 50
88.3696546662011428
 51
132.2471912368800986
  0
LINE
  5
ED55
  8
0
 10
4129.7263479887160429
 20
249.239420436814612
 30
0.0
 11
4129.6996759325156745
 21
249.2126282277031919
 31
0.0
  0
ARC
  5
ED56
  8
0
 10
4129.7164744432029693
 20
249.1959050519737957
 30
0.0
 40
0.0237034716405323
 50
135.1287634478013899
 51
215.7629064690611074
  0
LINE
  5
ED57
  8
0
 10
4129.6972404423986518
 20
249.1820519735836115
 30
0.0
 11
4129.7497833347697451
 21
249.1090999548601133
 31
0.0
  0
ARC
  5
ED58
  8
0
 10
4129.7687628989860968
 20
249.1227697780855976
 30
0.0
 40
0.0233899107499436
 50
215.7629064690584926
 51
298.511137568530728
  0
LINE
  5
ED59
  8
0
 10
4129.7799275953102551
 20
249.1022164941412029
 30
0.0
 11
4129.8151776706472447
 21
249.1201539568029091
 31
0.0
  0
ARC
  5
ED5A
  8
0
 10
4129.8125632945711914
 20
249.124249382022299
 30
0.0
 40
0.0048587518965045
 50
302.5527357096344758
 51
7.5096575648597987
  0
ARC
  5
ED5B
  8
0
 10
4129.6739652737833239
 20
249.0876757794023035
 30
0.0
 40
0.1481633255455278
 50
14.5445308669533908
 51
37.6279552066103875
  0
ARC
  5
ED5C
  8
0
 10
4129.5621929614853798
 20
249.025321966906489
 30
0.0
 40
0.2754013876353667
 50
33.7018225103093414
 51
49.2153859656775978
  0
ARC
  5
ED5D
  8
0
 10
4129.7225202594072471
 20
249.2111904626293892
 30
0.0
 40
0.0299386870670495
 50
49.1820530302694365
 51
77.4419816031631854
  0
ARC
  5
ED5E
  8
0
 10
4129.7289208938173033
 20
249.236587610186092
 30
0.0
 40
0.0038268456155674
 50
88.3696546662011428
 51
132.2471912368800986
  0
LINE
  5
ED5F
  8
0
 10
4129.9805702929816107
 20
249.0029620621199911
 30
0.0
 11
4129.9538982367821518
 21
248.9761698530084004
 31
0.0
  0
ARC
  5
ED60
  8
0
 10
4129.9706967474703561
 20
248.9594466772790895
 30
0.0
 40
0.0237034716405323
 50
135.1287634478013899
 51
215.7629064690611074
  0
LINE
  5
ED61
  8
0
 10
4129.9514627466660386
 20
248.9455935988889053
 30
0.0
 11
4130.0040056390371319
 21
248.872641580165407
 31
0.0
  0
ARC
  5
ED62
  8
0
 10
4130.0229852032525741
 20
248.8863114033910051
 30
0.0
 40
0.0233899107499436
 50
215.7629064690584926
 51
298.511137568530728
  0
LINE
  5
ED63
  8
0
 10
4130.0341498995767324
 20
248.8657581194464967
 30
0.0
 11
4130.0693999749128125
 21
248.8836955821082029
 31
0.0
  0
ARC
  5
ED64
  8
0
 10
4130.0667855988367592
 20
248.8877910073275075
 30
0.0
 40
0.0048587518965045
 50
302.5527357096344758
 51
7.5096575648597987
  0
ARC
  5
ED65
  8
0
 10
4129.9281875780479822
 20
248.8512174047075973
 30
0.0
 40
0.1481633255455278
 50
14.5445308669533908
 51
37.6279552066103875
  0
ARC
  5
ED66
  8
0
 10
4129.8164152657527666
 20
248.7888635922118112
 30
0.0
 40
0.2754013876353667
 50
33.7018225103093414
 51
49.2153859656775978
  0
ARC
  5
ED67
  8
0
 10
4129.9767425636728149
 20
248.9747320879347114
 30
0.0
 40
0.0299386870670495
 50
49.1820530302694365
 51
77.4419816031631854
  0
ARC
  5
ED68
  8
0
 10
4129.9831431980819616
 20
249.0001292354914142
 30
0.0
 40
0.0038268456155674
 50
88.3696546662011428
 51
132.2471912368800986
  0
LINE
  5
ED69
  8
0
 10
4129.9077106647246183
 20
248.9774807451119045
 30
0.0
 11
4129.8810386085260689
 21
248.9506885360003992
 31
0.0
  0
ARC
  5
ED6A
  8
0
 10
4129.8978371192142731
 20
248.933965360271003
 30
0.0
 40
0.0237034716405323
 50
135.1287634478013899
 51
215.7629064690611074
  0
LINE
  5
ED6B
  8
0
 10
4129.8786031184099556
 20
248.9201122818807903
 30
0.0
 11
4129.9311460107801395
 21
248.8471602631572921
 31
0.0
  0
ARC
  5
ED6C
  8
0
 10
4129.9501255749974007
 20
248.8608300863828902
 30
0.0
 40
0.0233899107499436
 50
215.7629064690584926
 51
298.511137568530728
  0
LINE
  5
ED6D
  8
0
 10
4129.96129027131974
 20
248.8402768024382965
 30
0.0
 11
4129.99654034665582
 21
248.8582142651000879
 31
0.0
  0
ARC
  5
ED6E
  8
0
 10
4129.9939259705806762
 20
248.8623096903193925
 30
0.0
 40
0.0048587518965045
 50
302.5527357096344758
 51
7.5096575648597987
  0
ARC
  5
ED6F
  8
0
 10
4129.8553279497928088
 20
248.8257360876995108
 30
0.0
 40
0.1481633255455278
 50
14.5445308669533908
 51
37.6279552066103875
  0
ARC
  5
ED70
  8
0
 10
4129.7435556374948646
 20
248.7633822752036963
 30
0.0
 40
0.2754013876353667
 50
37.9820443603589197
 51
49.2153859656775978
  0
ARC
  5
ED71
  8
0
 10
4129.9038829354158224
 20
248.9492507709265965
 30
0.0
 40
0.0299386870670495
 50
49.1820530302694365
 51
77.4419816031631854
  0
ARC
  5
ED72
  8
0
 10
4129.9102835698258787
 20
248.9746479184832992
 30
0.0
 40
0.0038268456155674
 50
88.3696546662011428
 51
132.2471912368800986
  0
LINE
  5
ED73
  8
0
 10
4129.9694789345548998
 20
248.8209164185487907
 30
0.0
 11
4129.9428068783554409
 21
248.794124209437399
 31
0.0
  0
ARC
  5
ED74
  8
0
 10
4129.9596053890418261
 20
248.7774010337080028
 30
0.0
 40
0.0237034716405323
 50
135.1287634478013899
 51
215.7629064690611074
  0
LINE
  5
ED75
  8
0
 10
4129.9403713882384181
 20
248.7635479553177902
 30
0.0
 11
4129.992914280608602
 21
248.690595936594292
 31
0.0
  0
ARC
  5
ED76
  8
0
 10
4130.0118938448258632
 20
248.7042657598198048
 30
0.0
 40
0.0233899107499436
 50
215.7629064690584926
 51
298.511137568530728
  0
LINE
  5
ED77
  8
0
 10
4130.023058541149112
 20
248.6837124758752964
 30
0.0
 11
4130.0583086164861015
 21
248.7016499385370878
 31
0.0
  0
ARC
  5
ED78
  8
0
 10
4130.0556942404100482
 20
248.7057453637563924
 30
0.0
 40
0.0048587518965045
 50
302.5527357096344758
 51
7.5096575648597987
  0
ARC
  5
ED79
  8
0
 10
4129.9170962196212713
 20
248.6691717611365107
 30
0.0
 40
0.1481633255455278
 50
14.5445308669533908
 51
37.6279552066103875
  0
ARC
  5
ED7A
  8
0
 10
4129.8053239073260556
 20
248.6068179486406962
 30
0.0
 40
0.2754013876353667
 50
33.7018225103093414
 51
49.2153859656775978
  0
ARC
  5
ED7B
  8
0
 10
4129.9656512052461039
 20
248.7926864443635964
 30
0.0
 40
0.0299386870670495
 50
49.1820530302694365
 51
77.4419816031631854
  0
ARC
  5
ED7C
  8
0
 10
4129.9720518396552507
 20
248.8180835919202991
 30
0.0
 40
0.0038268456155674
 50
88.3696546662011428
 51
132.2471912368800986
  0
LINE
  5
ED7D
  8
0
 10
4130.1716489970503972
 20
248.7352335321502039
 30
0.0
 11
4130.1449769408500288
 21
248.7084413230386986
 31
0.0
  0
ARC
  5
ED7E
  8
0
 10
4130.161775451538233
 20
248.6917181473093024
 30
0.0
 40
0.0237034716405323
 50
135.1287634478013899
 51
215.7629064690611074
  0
LINE
  5
ED7F
  8
0
 10
4130.142541450734825
 20
248.6778650689190897
 30
0.0
 11
4130.1950843431050089
 21
248.6049130501955915
 31
0.0
  0
ARC
  5
ED80
  8
0
 10
4130.2140639073222701
 20
248.6185828734211896
 30
0.0
 40
0.0233899107499436
 50
215.7629064690584926
 51
298.511137568530728
  0
LINE
  5
ED81
  8
0
 10
4130.2252286036446094
 20
248.5980295894765959
 30
0.0
 11
4130.2604786789806894
 21
248.6159670521383873
 31
0.0
  0
ARC
  5
ED82
  8
0
 10
4130.2578643029046361
 20
248.6200624773576919
 30
0.0
 40
0.0048587518965045
 50
302.5527357096344758
 51
7.5096575648597987
  0
ARC
  5
ED83
  8
0
 10
4130.1192662821158592
 20
248.5834888747378102
 30
0.0
 40
0.1481633255455278
 50
14.5445308669533908
 51
37.6279552066103875
  0
ARC
  5
ED84
  8
0
 10
4130.007493969819734
 20
248.5211350622419957
 30
0.0
 40
0.2754013876353667
 50
33.7018225103093414
 51
49.2153859656775978
  0
ARC
  5
ED85
  8
0
 10
4130.1678212677406918
 20
248.7070035579650096
 30
0.0
 40
0.0299386870670495
 50
49.1820530302694365
 51
77.4419816031631854
  0
ARC
  5
ED86
  8
0
 10
4130.1742219021507481
 20
248.7324007055215986
 30
0.0
 40
0.0038268456155674
 50
88.3696546662011428
 51
132.2471912368800986
  0
LINE
  5
ED87
  8
0
 10
4130.1330653575942051
 20
248.6702207481168898
 30
0.0
 11
4130.1063933013947462
 21
248.6434285390054129
 31
0.0
  0
ARC
  5
ED88
  8
0
 10
4130.123191812082041
 20
248.6267053632761019
 30
0.0
 40
0.0237034716405323
 50
135.1287634478013899
 51
215.7629064690611074
  0
LINE
  5
ED89
  8
0
 10
4130.1039578112777235
 20
248.6128522848858893
 30
0.0
 11
4130.1565007036497263
 21
248.5399002661623058
 31
0.0
  0
ARC
  5
ED8A
  8
0
 10
4130.1754802678651686
 20
248.5535700893879039
 30
0.0
 40
0.0233899107499436
 50
215.7629064690584926
 51
298.511137568530728
  0
LINE
  5
ED8B
  8
0
 10
4130.1866449641893269
 20
248.5330168054433955
 30
0.0
 11
4130.2218950395254069
 21
248.5509542681051869
 31
0.0
  0
ARC
  5
ED8C
  8
0
 10
4130.2192806634502631
 20
248.5550496933244915
 30
0.0
 40
0.0048587518965045
 50
302.5527357096344758
 51
7.5096575648597987
  0
ARC
  5
ED8D
  8
0
 10
4130.0806826426605767
 20
248.5184760907046098
 30
0.0
 40
0.1481633255455278
 50
14.5445308669533908
 51
31.7210843833040883
  0
ARC
  5
ED8E
  8
0
 10
4129.968910330365361
 20
248.4561222782087953
 30
0.0
 40
0.2754013876353667
 50
46.6049504888730368
 51
49.2153859656775978
  0
ARC
  5
ED8F
  8
0
 10
4130.1292376282863188
 20
248.6419907739316955
 30
0.0
 40
0.0299386870670495
 50
49.1820530302694365
 51
77.4419816031631854
  0
ARC
  5
ED90
  8
0
 10
4130.135638262696375
 20
248.6673879214883982
 30
0.0
 40
0.0038268456155674
 50
88.3696546662011428
 51
132.2471912368800986
  0
LINE
  5
ED91
  8
0
 10
4130.3106248707490522
 20
248.5624101294181969
 30
0.0
 11
4130.2839528145495933
 21
248.5356179203066915
 31
0.0
  0
ARC
  5
ED92
  8
0
 10
4130.3007513252377976
 20
248.518894744577409
 30
0.0
 40
0.0237034716405323
 50
135.1287634478013899
 51
215.7629064690611074
  0
LINE
  5
ED93
  8
0
 10
4130.2815173244325706
 20
248.5050416661871964
 30
0.0
 11
4130.3340602168027544
 21
248.4320896474636982
 31
0.0
  0
ARC
  5
ED94
  8
0
 10
4130.3530397810209251
 20
248.445759470689211
 30
0.0
 40
0.0233899107499436
 50
215.7629064690584926
 51
298.511137568530728
  0
LINE
  5
ED95
  8
0
 10
4130.3642044773441739
 20
248.4252061867447026
 30
0.0
 11
4130.399454552680254
 21
248.443143649406494
 31
0.0
  0
ARC
  5
ED96
  8
0
 10
4130.3968401766042007
 20
248.4472390746257986
 30
0.0
 40
0.0048587518965045
 50
302.5527357096344758
 51
7.5096575648597987
  0
ARC
  5
ED97
  8
0
 10
4130.2582421558163333
 20
248.4106654720058884
 30
0.0
 40
0.1481633255455278
 50
14.5445308669533908
 51
37.6279552066103875
  0
ARC
  5
ED98
  8
0
 10
4130.1464698435202081
 20
248.3483116595101023
 30
0.0
 40
0.2754013876353667
 50
33.7018225103093414
 51
49.2153859656775978
  0
ARC
  5
ED99
  8
0
 10
4130.3067971414411659
 20
248.5341801552330026
 30
0.0
 40
0.0299386870670495
 50
49.1820530302694365
 51
77.4419816031631854
  0
ARC
  5
ED9A
  8
0
 10
4130.3131977758503126
 20
248.5595773027897053
 30
0.0
 40
0.0038268456155674
 50
88.3696546662011428
 51
132.2471912368800986
  0
LINE
  5
ED9B
  8
0
 10
4128.259223606042724
 20
251.3262713521245075
 30
0.0
 11
4128.2736752659329795
 21
251.2930609734414986
 31
0.0
  0
LINE
  5
ED9C
  8
0
 10
4128.3245492251071482
 20
251.190683278973296
 30
0.0
 11
4128.341402345624374
 21
251.153918471032199
 31
0.0
  0
LINE
  5
ED9D
  8
0
 10
4128.4001562782341352
 20
251.0182887214587026
 30
0.0
 11
4128.4248077261772778
 21
250.968321095712696
 31
0.0
  0
LINE
  5
ED9E
  8
0
 10
4128.2873020580236698
 20
251.2420519060567017
 30
0.0
 11
4128.2566589352645678
 21
251.2124520144269013
 31
0.0
  0
ARC
  5
ED9F
  8
0
 10
4128.2730708084845901
 20
251.195461714190202
 30
0.0
 40
0.0236224445120433
 50
134.007905439529992
 51
216.0594193034941952
  0
LINE
  5
EDA0
  8
0
 10
4128.2539742592352923
 20
251.1815569778943029
 30
0.0
 11
4128.3078272187958646
 21
251.1075961581670981
 31
0.0
  0
LINE
  5
EDA1
  8
0
 10
4128.4069551378570395
 20
251.0045076699805975
 30
0.0
 11
4128.3692980919458932
 21
250.9681176060799999
 31
0.0
  0
ARC
  5
EDA2
  8
0
 10
4128.3857131972563366
 20
250.9511309809404906
 30
0.0
 40
0.0236220472431485
 50
134.0197370422665983
 51
215.9999997983638025
  0
LINE
  5
EDA3
  8
0
 10
4128.366602559545754
 20
250.9372462900093126
 30
0.0
 11
4128.3934120905378222
 21
250.9003461359806124
 31
0.0
  0
LINE
  5
EDA4
  8
0
 10
4128.4127148665838831
 20
250.9472548827671972
 30
0.0
 11
4128.3961134754881641
 21
250.9312231057529061
 31
0.0
  0
ARC
  5
EDA5
  8
0
 10
4128.4125227287340749
 20
250.9142308265730037
 30
0.0
 40
0.0236220478335929
 50
133.9999999730790137
 51
216.0122167608977861
  0
LINE
  5
EDA6
  8
0
 10
4128.3934150515606234
 20
250.9003420607213002
 30
0.0
 11
4128.4456536608058741
 21
250.8284740134012054
 31
0.0
  0
ARC
  5
EDA7
  8
0
 10
4128.464778390120955
 20
250.842375173915201
 30
0.0
 40
0.0236431287062091
 50
216.0122167608886059
 51
281.6348081591414143
  0
ARC
  5
EDA8
  8
0
 10
4128.5715282727996964
 20
250.7117145131574034
 30
0.0
 40
0.0931334732684238
 50
34.6669646312264135
 51
49.0697954154680005
  0
ARC
  5
EDA9
  8
0
 10
4128.6295122248584448
 20
250.7785817567769868
 30
0.0
 40
0.0046271629534667
 50
49.0697954154530791
 51
111.7227949269530995
  0
LINE
  5
EDAA
  8
0
 10
4128.6277996360549878
 20
250.7828803235834982
 30
0.0
 11
4128.5931801858869221
 21
250.7490220974933948
 31
0.0
  0
ARC
  5
EDAB
  8
0
 10
4128.6096969537729819
 20
250.7321330427508883
 30
0.0
 40
0.0236209487298125
 50
134.3612172739732955
 51
215.9938795038954993
  0
LINE
  5
EDAC
  8
0
 10
4128.5905857218040182
 20
250.7182510388786056
 30
0.0
 11
4128.6224995136690268
 21
250.6743156038392044
 31
0.0
  0
LINE
  5
EDAD
  8
0
 10
4128.5561962046613189
 20
250.7132135563327893
 30
0.0
 11
4128.6002282996332724
 21
250.6526024718739052
 31
0.0
  0
LINE
  5
EDAE
  8
0
 10
4128.6810910134072401
 20
250.5411806760224067
 30
0.0
 11
4128.7637475455430831
 21
250.4274137195860988
 31
0.0
  0
LINE
  5
EDAF
  8
0
 10
4128.7914693927350527
 20
250.4535385332904127
 30
0.0
 11
4128.7627035226641965
 21
250.4266551926700117
 31
0.0
  0
ARC
  5
EDB0
  8
0
 10
4128.7785367170781683
 20
250.4097132649631021
 30
0.0
 40
0.0231887679656734
 50
133.0625084343112974
 51
216.9468355230362988
  0
LINE
  5
EDB1
  8
0
 10
4128.7600044024193267
 20
250.3957751060754049
 30
0.0
 11
4128.8121862691550632
 21
250.3239529280922113
 31
0.0
  0
ARC
  5
EDB2
  8
0
 10
4128.8313390205466931
 20
250.3377796545020999
 30
0.0
 40
0.0236220471999922
 50
216.0000000014777015
 51
298.0000000015139108
  0
LINE
  5
EDB3
  8
0
 10
4128.8424288999631244
 20
250.3169226247887025
 30
0.0
 11
4128.8718124164579422
 21
250.3325461176455065
 31
0.0
  0
ARC
  5
EDB4
  8
0
 10
4128.8674620353103819
 20
250.3360655236041055
 30
0.0
 40
0.0055957157212276
 50
321.027558230012005
 51
17.0747116990699404
  0
ARC
  5
EDB5
  8
0
 10
4128.2791674897107441
 20
250.1578072751094908
 30
0.0
 40
0.6203041233734502
 50
16.8592163226804104
 51
19.7329468330595006
  0
LINE
  5
EDB6
  8
0
 10
4128.8397725366103259
 20
250.3157143668146034
 30
0.0
 11
4128.9441237130777154
 21
250.1720871013274916
 31
0.0
  0
LINE
  5
EDB7
  8
0
 10
4129.0268672524580325
 20
250.0574583973454139
 30
0.0
 11
4129.1542234369899234
 21
249.8828650181407056
 31
0.0
  0
LINE
  5
EDB8
  8
0
 10
4129.2331722249373342
 20
249.7742463417727947
 30
0.0
 11
4129.3563026888223249
 21
249.604407255027013
 31
0.0
  0
LINE
  5
EDB9
  8
0
 10
4129.4367042994308576
 20
249.4940718243749984
 30
0.0
 11
4129.5475327952117368
 21
249.3415662014766099
 31
0.0
  0
LINE
  5
EDBA
  8
0
 10
4129.5734408749813156
 20
249.3668349255630972
 30
0.0
 11
4129.5475327952117368
 21
249.3415662014766099
 31
0.0
  0
ARC
  5
EDBB
  8
0
 10
4129.561906525815175
 20
249.3268287830871941
 30
0.0
 40
0.0205862971954535
 50
134.2842367282842133
 51
222.7981555060873973
  0
LINE
  5
EDBC
  8
0
 10
4129.5468012944893417
 20
249.3128420887385914
 30
0.0
 11
4129.5986603535111499
 21
249.241464217519308
 31
0.0
  0
ARC
  5
EDBD
  8
0
 10
4129.6181365306429143
 20
249.2548606935714872
 30
0.0
 40
0.0236386769159605
 50
214.5217138687631859
 51
290.9068225039658842
  0
LINE
  5
EDBE
  8
0
 10
4129.6265719744724265
 20
249.2327783401248098
 30
0.0
 11
4129.6693031398790481
 21
249.2552947903539007
 31
0.0
  0
ARC
  5
EDBF
  8
0
 10
4129.6579105294567853
 20
249.2596801552143972
 30
0.0
 40
0.0122074975806387
 50
338.9467553393982939
 51
44.9548296416440678
  0
ARC
  5
EDC0
  8
0
 10
4129.3710836238824413
 20
249.0897735708456082
 30
0.0
 40
0.3452152719320099
 50
31.141990612454439
 51
53.4015190734602214
  0
ARC
  5
EDC1
  8
0
 10
4129.5752526148280594
 20
249.3637247667089127
 30
0.0
 40
0.0035993734691628
 50
62.7225258885712122
 51
120.2217945919142039
  0
LINE
  5
EDC2
  8
0
 10
4129.6265408624412885
 20
249.2328211621336038
 30
0.0
 11
4129.7105154689461415
 21
249.1172401089852997
 31
0.0
  0
LINE
  5
EDC3
  8
0
 10
4129.7300799401573386
 20
249.1364566980439861
 30
0.0
 11
4129.7105154689461415
 21
249.1172401089852997
 31
0.0
  0
ARC
  5
EDC4
  8
0
 10
4129.7287250491399391
 20
249.1024049883118039
 30
0.0
 40
0.0234876481634366
 50
140.8307200219863944
 51
216.1328267687374023
  0
LINE
  5
EDC5
  8
0
 10
4129.7097551988990745
 20
249.0885552808036891
 30
0.0
 11
4129.760426889251903
 21
249.018811682387792
 31
0.0
  0
ARC
  5
EDC6
  8
0
 10
4129.7816427442558052
 20
249.0315405939984998
 30
0.0
 40
0.0247414165787765
 50
210.9625623081329024
 51
246.5336918071606078
  0
ARC
  5
EDC7
  8
0
 10
4129.7811450122781025
 20
249.0303940455617919
 30
0.0
 40
0.023491492404998
 50
246.5336918071618868
 51
301.4295844922506831
  0
LINE
  5
EDC8
  8
0
 10
4129.7933946578186806
 20
249.0103491858830864
 30
0.0
 11
4129.8349761716499415
 21
249.0324609409279901
 31
0.0
  0
ARC
  5
EDC9
  8
0
 10
4129.8343686527823593
 20
249.0334282530861003
 30
0.0
 40
0.0011422661628202
 50
302.1308103410345893
 51
350.4305580655329777
  0
ARC
  5
EDCA
  8
0
 10
4129.8200493390168049
 20
249.0319531066934928
 30
0.0
 40
0.015499066532141
 50
4.7566877858985599
 51
34.6413157217664107
  0
ARC
  5
EDCB
  8
0
 10
4129.4708297043598577
 20
248.7939741793485098
 30
0.0
 40
0.438095874101779
 50
34.2858693174160578
 51
44.85408481579951
  0
LINE
  5
EDCC
  8
0
 10
4129.8384801702632103
 20
248.9482920003144955
 30
0.0
 11
4129.7933946578395989
 21
249.010349185894114
 31
0.0
  0
LINE
  5
EDCD
  8
0
 10
4129.8582504183841593
 20
248.9673839070833878
 30
0.0
 11
4129.837491158332341
 21
248.9473369225711963
 31
0.0
  0
ARC
  5
EDCE
  8
0
 10
4129.8539513880359664
 20
248.9302918558339002
 30
0.0
 40
0.0236954312463012
 50
134.0000001543963037
 51
220.184661590159493
  0
LINE
  5
EDCF
  8
0
 10
4129.8358488180028871
 20
248.9150023031862986
 30
0.0
 11
4129.8870160186243083
 21
248.8445766935319909
 31
0.0
  0
ARC
  5
EDD0
  8
0
 10
4129.9061266562694072
 20
248.8584613845870877
 30
0.0
 40
0.0236220472628135
 50
216.0000001348977037
 51
297.9999997014156179
  0
LINE
  5
EDD1
  8
0
 10
4129.9172165356058031
 20
248.8376043547602023
 30
0.0
 11
4129.9323362505010664
 21
248.8456436496730078
 31
0.0
  0
ARC
  5
EDD2
  8
0
 10
4129.9325019793313913
 20
248.8221588666025923
 30
0.0
 40
0.023622047199985
 50
144.2317717242804918
 51
216.0000000014960904
  0
LINE
  5
EDD3
  8
0
 10
4129.9133913417035728
 20
248.8082741756290091
 30
0.0
 11
4129.935902174354851
 21
248.777290672554301
 31
0.0
  0
LINE
  5
EDD4
  8
0
 10
4130.0564276151753802
 20
248.7006927663767897
 30
0.0
 11
4130.0800799800399545
 21
248.668138166538597
 31
0.0
  0
ARC
  5
EDD5
  8
0
 10
4130.0991918484342023
 20
248.6820237890534884
 30
0.0
 40
0.023623590457207
 50
216.0000732626897957
 51
297.8716986340518247
  0
LINE
  5
EDD6
  8
0
 10
4130.1102357167901573
 20
248.6611406140596046
 30
0.0
 11
4130.1423938559519229
 21
248.6781471399152963
 31
0.0
  0
ARC
  5
EDD7
  8
0
 10
4129.514991336811363
 20
248.0720042386761861
 30
0.0
 40
0.8955076904469894
 50
45.2918767959048623
 51
53.2393195766294269
  0
ARC
  5
EDD8
  8
0
 10
4130.04898509846862
 20
248.7868306261730993
 30
0.0
 40
0.0032487023987422
 50
53.2393195766333207
 51
128.6377982433905913
  0
LINE
  5
EDD9
  8
0
 10
4130.0469566248293631
 20
248.7893682159671016
 30
0.0
 11
4130.0276585018500555
 21
248.7693394930246882
 31
0.0
  0
LINE
  5
EDDA
  8
0
 10
4130.1799929782246181
 20
248.5306196347058858
 30
0.0
 11
4130.1939194969199889
 21
248.5114514261861132
 31
0.0
  0
ARC
  5
EDDB
  8
0
 10
4130.219386939576907
 20
248.5299546063831997
 30
0.0
 40
0.0314794903526417
 50
216.0000000408238918
 51
285.2653062511017765
  0
LINE
  5
EDDC
  8
0
 10
4130.227675141308282
 20
248.4995858061940055
 30
0.0
 11
4130.275438378983381
 21
248.5249819700767944
 31
0.0
  0
LINE
  5
EDDD
  8
0
 10
4130.275438378983381
 20
248.5249819700767944
 30
0.0
 11
4130.2361003682563023
 21
248.5609319423620889
 31
0.0
  0
LINE
  5
EDDE
  8
0
 10
4130.2241154697658203
 20
248.5545679071832978
 30
0.0
 11
4130.2451851980049469
 21
248.5657560279528013
 31
0.0
  0
ARC
  5
EDDF
  8
0
 10
4130.2439677723259592
 20
248.5660955344824004
 30
0.0
 40
0.001263878938507
 50
344.4176761337456014
 51
40.0089541832076918
  0
LINE
  5
EDE0
  8
0
 10
4130.2449358327876325
 20
248.5669080915025972
 30
0.0
 11
4130.2195282025759298
 21
248.5958401954285932
 31
0.0
  0
ARC
  5
EDE1
  8
0
 10
4130.3651481495880944
 20
248.4184074847781005
 30
0.0
 40
0.02128138083175
 50
164.9168748885838056
 51
213.3800439746349866
  0
LINE
  5
EDE2
  8
0
 10
4130.3473773550385886
 20
248.4066986833358897
 30
0.0
 11
4130.4018073464267218
 21
248.3316850564420974
 31
0.0
  0
ARC
  5
EDE3
  8
0
 10
4130.4209772819303907
 20
248.3454972554646929
 30
0.0
 40
0.0236275954978673
 50
215.7732624485267081
 51
297.9715009629047131
  0
LINE
  5
EDE4
  8
0
 10
4130.4320593879756416
 20
248.3246298120515974
 30
0.0
 11
4130.48146812665982
 21
248.3508693887388858
 31
0.0
  0
LINE
  5
EDE5
  8
0
 10
4130.48146812665982
 20
248.3508693887388858
 30
0.0
 11
4130.3849466227866287
 21
248.4357610992057062
 31
0.0
  0
LINE
  5
EDE6
  8
0
 10
4130.4603748078561694
 20
248.3395966364676042
 30
0.0
 11
4130.6540761165197182
 21
248.1820875320262019
 31
0.0
  0
ARC
  5
EDE7
  8
0
 10
4128.5697409446411257
 20
250.7004942327610877
 30
0.0
 40
0.007874015596134
 50
152.8694885253484017
 51
204.2027949853325879
  0
LINE
  5
EDE8
  8
0
 10
4128.5625590540839767
 20
250.6972661420508075
 30
0.0
 11
4128.5926665376318851
 21
250.6314977349302069
 31
0.0
  0
ARC
  5
EDE9
  8
0
 10
4128.6158425316180001
 20
250.634073771952302
 30
0.0
 40
0.0232805254521727
 50
152.281978078702906
 51
186.6229952774934873
  0
ARC
  5
EDEA
  8
0
 10
4128.6189846939696508
 20
250.6344386105685089
 30
0.0
 40
0.0264437977237574
 50
186.6229952774951926
 51
223.5462645550620948
  0
LINE
  5
EDEB
  8
0
 10
4128.5998177451992888
 20
250.6162204187558018
 30
0.0
 11
4128.6127291148550285
 21
250.5889564608310991
 31
0.0
  0
ARC
  5
EDEC
  8
0
 10
4128.6091839308573981
 20
250.5872434969056997
 30
0.0
 40
0.0039373309490733
 50
308.5017058618482224
 51
25.7889295731095984
  0
LINE
  5
EDED
  8
0
 10
4128.6116350687416343
 20
250.5841621825649099
 30
0.0
 11
4128.5777767436566137
 21
250.5572308858413919
 31
0.0
  0
ARC
  5
EDEE
  8
0
 10
4128.5875801316833531
 20
250.5449063525339
 30
0.0
 40
0.0157480328337694
 50
128.4976866325997946
 51
216.0182436435846114
  0
LINE
  5
EDEF
  8
0
 10
4128.5748426535028557
 20
250.5356458348508113
 30
0.0
 11
4128.816706655350572
 21
250.2029714043956972
 31
0.0
  0
ARC
  5
EDF0
  8
0
 10
4128.8294537662277435
 20
250.2122389253306096
 30
0.0
 40
0.0157599422585956
 50
216.0182436435898978
 51
302.9818329711957858
  0
LINE
  5
EDF1
  8
0
 10
4128.838033054639709
 20
250.1990188046679862
 30
0.0
 11
4128.8436729095838018
 21
250.2026788274019111
 31
0.0
  0
ARC
  5
EDF2
  8
0
 10
4128.8380941976956819
 20
250.206051921541814
 30
0.0
 40
0.0065191863304762
 50
328.8413008471067087
 51
13.0600633549141705
  0
ARC
  5
EDF3
  8
0
 10
4128.57089018969873
 20
250.1353074929859019
 30
0.0
 40
0.2829266349034961
 50
14.7885168170007102
 51
27.1128327711458113
  0
ARC
  5
EDF4
  8
0
 10
4127.82937545355162
 20
249.7903033209198043
 30
0.0
 40
1.100622970619199
 50
25.5066886199402099
 51
32.9594563441839412
  0
ARC
  5
EDF5
  8
0
 10
4128.5902249843602476
 20
250.2884799930257032
 30
0.0
 40
0.1912401754891543
 50
31.7425984047349594
 51
44.8567710439208369
  0
ARC
  5
EDF6
  8
0
 10
4128.7226049289984076
 20
250.4204286739663985
 30
0.0
 40
0.0043344727702268
 50
42.7110428102278874
 51
105.0497085168142064
  0
LINE
  5
EDF7
  8
0
 10
4128.7214794529618302
 20
250.4246144782964052
 30
0.0
 11
4128.6914864792934168
 21
250.4007569897200938
 31
0.0
  0
ARC
  5
EDF8
  8
0
 10
4128.701299183089759
 20
250.3884006555562962
 30
0.0
 40
0.0157787245929043
 50
128.4546214119496881
 51
210.1251818318023084
  0
LINE
  5
EDF9
  8
0
 10
4128.748844418569206
 20
250.2963132444320991
 30
0.0
 11
4128.7326474417677673
 21
250.2831478253563091
 31
0.0
  0
ARC
  5
EDFA
  8
0
 10
4128.7376139594862252
 20
250.2770376839478956
 30
0.0
 40
0.0078740158923089
 50
129.1053109047522014
 51
174.8070825457213004
  0
LINE
  5
EDFB
  8
0
 10
4128.729772261747712
 20
250.2777503569886051
 30
0.0
 11
4128.7264810908145591
 21
250.2415368815341026
 31
0.0
  0
ARC
  5
EDFC
  8
0
 10
4128.7461197984239334
 20
250.2397520668251047
 30
0.0
 40
0.0197196450289507
 50
174.8070825457197088
 51
210.8940577711705942
  0
LINE
  5
EDFD
  8
0
 10
4128.7291980128911746
 20
250.2296269705553868
 30
0.0
 11
4128.7311771238000802
 21
250.2263193387605043
 31
0.0
  0
LINE
  5
EDFE
  8
0
 10
4128.7314867719105678
 20
250.226581191730304
 30
0.0
 11
4128.7259832089757765
 21
250.2222413510444881
 31
0.0
  0
ARC
  5
EDFF
  8
0
 10
4128.7296402675556237
 20
250.2176036572903968
 30
0.0
 40
0.0059061223152415
 50
128.2575850522335088
 51
209.711944383782793
  0
LINE
  5
EE00
  8
0
 10
4128.7245106337250036
 20
250.2146763483602001
 30
0.0
 11
4128.8162353692632678
 21
250.0613500348914044
 31
0.0
  0
LINE
  5
EE01
  8
0
 10
4128.7643467375437467
 20
250.1463052682424859
 30
0.0
 11
4128.7414388548941133
 21
250.1268626943231084
 31
0.0
  0
ARC
  5
EE02
  8
0
 10
4128.7490815966375521
 20
250.1178577636115961
 30
0.0
 40
0.0118110235999955
 50
130.32221743980719
 51
216.0000000014908039
  0
LINE
  5
EE03
  8
0
 10
4128.7395262778245524
 20
250.1109154181247902
 30
0.0
 11
4128.8765921663843983
 21
249.9222604072101035
 31
0.0
  0
ARC
  5
EE04
  8
0
 10
4128.8861474852419633
 20
249.9292027527301059
 30
0.0
 40
0.0118110236565034
 50
216.0000000014987904
 51
301.9996924439752206
  0
LINE
  5
EE05
  8
0
 10
4128.8924063204422055
 20
249.9191864030078989
 30
0.0
 11
4128.9050613403142052
 21
249.9270940426195011
 31
0.0
  0
LINE
  5
EE06
  8
0
 10
4128.729772261747712
 20
250.2777503569886051
 30
0.0
 11
4129.4774348231148906
 21
249.2486811249833067
 31
0.0
  0
LINE
  5
EE07
  8
0
 10
4129.7585737191320732
 20
249.0213656901696879
 30
0.0
 11
4129.6984265337732722
 21
249.0789256279713015
 31
0.0
  0
LINE
  5
EE08
  8
0
 10
4129.7019817226100713
 20
249.0812787965327004
 30
0.0
 11
4129.6669601838393646
 21
249.0580985053142911
 31
0.0
  0
ARC
  5
EE09
  8
0
 10
4129.6582682595635561
 20
249.0712305475356914
 30
0.0
 40
0.015748018304024
 50
215.9999542059267128
 51
303.5000459315060084
  0
LINE
  5
EE0A
  8
0
 10
4129.6455278377297873
 20
249.0619741048066942
 30
0.0
 11
4129.517460989830397
 21
249.2382432951388012
 31
0.0
  0
ARC
  5
EE0B
  8
0
 10
4129.5302024433049155
 20
249.2475004873988951
 30
0.0
 40
0.0157492934838549
 50
129.4742509329036011
 51
215.9999542059665885
  0
ARC
  5
EE0C
  8
0
 10
4129.5768582382479508
 20
249.1908506309565041
 30
0.0
 40
0.0891384577840235
 50
127.2994934086379999
 51
129.4742509329024927
  0
ARC
  5
EE0D
  8
0
 10
4129.5208440032984072
 20
249.2643811733233008
 30
0.0
 40
0.0032971153346884
 50
307.2994934086536887
 51
2.7176361527952899
  0
ARC
  5
EE0E
  8
0
 10
4129.5294884915356306
 20
249.268175095068699
 30
0.0
 40
0.0064704055973307
 50
188.483669841178596
 51
214.207335942132886
  0
ARC
  5
EE0F
  8
0
 10
4129.5235618019742105
 20
249.2671622986204056
 30
0.0
 40
0.0004764884056148
 50
76.3910848235400408
 51
172.9801041139822075
  0
ARC
  5
EE10
  8
0
 10
4129.499465385437361
 20
249.2195617428353955
 30
0.0
 40
0.0538160665063634
 50
47.7558508859303075
 51
63.2666862432308577
  0
ARC
  5
EE11
  8
0
 10
4129.005926860108957
 20
248.6385110500428937
 30
0.0
 40
0.8161532946383292
 50
45.9361569365180102
 51
49.5305119842789665
  0
ARC
  5
EE12
  8
0
 10
4128.2632892883748355
 20
247.8478370802108088
 30
0.0
 40
1.900847968397025
 50
41.0048123829887103
 51
46.4259168982712822
  0
ARC
  5
EE13
  8
0
 10
4129.6368681549693065
 20
249.0423326459913937
 30
0.0
 40
0.0805354521046878
 50
29.6399674664546993
 51
40.8656995772768497
  0
ARC
  5
EE14
  8
0
 10
4129.7053248825386618
 20
249.0813765685780083
 30
0.0
 40
0.0017290176741689
 50
345.2602441552148207
 51
26.9921417193879911
  0
ARC
  5
EE15
  8
0
 10
4129.7065916843594096
 20
249.0812321698612948
 30
0.0
 40
0.0005016070686655
 50
266.4323942030459875
 51
323.9044479164488735
  0
ARC
  5
EE16
  8
0
 10
4129.7039240832264113
 20
249.0781018223717069
 30
0.0
 40
0.0037236983741564
 50
44.9273697104238821
 51
121.4410721936861961
  0
ARC
  5
EE17
  8
0
 10
4129.5024530843584216
 20
249.2458931361001078
 30
0.0
 40
0.0224513049079065
 50
37.8123742184387268
 51
61.8803073424018493
  0
ARC
  5
EE18
  8
0
 10
4129.5108298714385455
 20
249.2581353811767997
 30
0.0
 40
0.0078740158447604
 50
73.7388387460940464
 51
122.9999974983611963
  0
LINE
  5
EE19
  8
0
 10
4129.5065413753363828
 20
249.2647390867045942
 30
0.0
 11
4129.4839611615552712
 21
249.2500753244370912
 31
0.0
  0
ARC
  5
EE1A
  8
0
 10
4129.4791828819243165
 20
249.2564705552157136
 30
0.0
 40
0.0079831655966697
 50
257.3515667041011739
 51
306.7657240485947909
  0
LINE
  5
EE1B
  8
0
 10
4129.4774348231148906
 20
249.2486811249833067
 30
0.0
 11
4129.4419765890961571
 21
249.2567416076022084
 31
0.0
  0
ARC
  5
EE1C
  8
0
 10
4129.4464792408543872
 20
249.2763757011784946
 30
0.0
 40
0.0201437703053035
 50
218.1140101387530024
 51
257.0845894784279722
  0
LINE
  5
EE1D
  8
0
 10
4129.4306304422816538
 20
249.2639423964712933
 30
0.0
 11
4129.425013088472042
 21
249.2601534434575967
 31
0.0
  0
ARC
  5
EE1E
  8
0
 10
4129.4216656335638618
 20
249.2652356912155938
 30
0.0
 40
0.006085613919236
 50
212.716983744198501
 51
303.3711532475564923
  0
LINE
  5
EE1F
  8
0
 10
4129.4165454986068653
 20
249.2619464793351938
 30
0.0
 11
4129.4064781678353029
 21
249.2729857749716018
 31
0.0
  0
ARC
  5
EE20
  8
0
 10
4129.4045149313842558
 20
249.2674615366784963
 30
0.0
 40
0.005862721729902
 50
70.4355037312820542
 51
122.1800291993686045
  0
LINE
  5
EE21
  8
0
 10
4129.4013925554363595
 20
249.2724236203661974
 30
0.0
 11
4129.3745096585043939
 21
249.2556280847855987
 31
0.0
  0
ARC
  5
EE22
  8
0
 10
4129.3682496861520121
 20
249.2656385824878953
 30
0.0
 40
0.0118066641390946
 50
215.9916663280455964
 51
302.0194213231126241
  0
LINE
  5
EE23
  8
0
 10
4129.3586968849267578
 20
249.2587001888097973
 30
0.0
 11
4129.2283770714757338
 21
249.4381248988291873
 31
0.0
  0
ARC
  5
EE24
  8
0
 10
4129.2390628547536835
 20
249.4435959135047938
 30
0.0
 40
0.0120049142375981
 50
130.3279444042676118
 51
207.111994572535707
  0
LINE
  5
EE25
  8
0
 10
4129.2312937343776866
 20
249.4527478933133011
 30
0.0
 11
4129.2728465950758618
 21
249.4876148837383028
 31
0.0
  0
ARC
  5
EE26
  8
0
 10
4129.2863769771129228
 20
249.500791537532109
 30
0.0
 40
0.0584072397685339
 50
198.8410685550302048
 51
221.4204124181572979
  0
ARC
  5
EE27
  8
0
 10
4129.2390252921522915
 20
249.4830836282480107
 30
0.0
 40
0.0080096013408094
 50
120.7378278066011035
 51
188.2864939106270867
  0
LINE
  5
EE28
  8
0
 10
4129.2349313877866734
 20
249.4899679125419993
 30
0.0
 11
4129.1200001083152529
 21
249.6407947503865046
 31
0.0
  0
LINE
  5
EE29
  8
0
 10
4129.1216256643847373
 20
249.6418209215059107
 30
0.0
 11
4129.1025788465376536
 21
249.6299087377904016
 31
0.0
  0
ARC
  5
EE2A
  8
0
 10
4129.0963186954377306
 20
249.6399183179431986
 30
0.0
 40
0.0118059809685094
 50
215.9771749374843921
 51
302.0225178310689103
  0
LINE
  5
EE2B
  8
0
 10
4129.0867646924980363
 20
249.6329827419426124
 30
0.0
 11
4129.0141349639015971
 21
249.7330327796674965
 31
0.0
  0
ARC
  5
EE2C
  8
0
 10
4129.0237076740822886
 20
249.7399819358900004
 30
0.0
 40
0.0118290976989699
 50
130.3211437860819046
 51
215.977174937526911
  0
LINE
  5
EE2D
  8
0
 10
4129.0160534058522899
 20
249.7490007900435103
 30
0.0
 11
4129.032415780192423
 21
249.7627304524013994
 31
0.0
  0
ARC
  5
EE2E
  8
0
 10
4129.0309255318361465
 20
249.765483354017789
 30
0.0
 40
0.003130384556517
 50
298.428336615471494
 51
31.0286061423298811
  0
ARC
  5
EE2F
  8
0
 10
4129.0371370808898064
 20
249.7692198513975939
 30
0.0
 40
0.0041183914999408
 50
166.1383529359501097
 51
211.0286061423452111
  0
ARC
  5
EE30
  8
0
 10
4129.0340603617769375
 20
249.7699790771202117
 30
0.0
 40
0.0009493815284798
 50
49.7946779321173665
 51
166.1383529360639102
  0
ARC
  5
EE31
  8
0
 10
4128.8926711480753511
 20
249.602699057173794
 30
0.0
 40
0.2199779523230794
 50
36.0304667520748225
 51
49.7946779321184181
  0
ARC
  5
EE32
  8
0
 10
4127.4526132662776945
 20
248.555265358599712
 30
0.0
 40
2.0006755841048509
 50
33.3138904463121008
 51
36.0304667520748225
  0
ARC
  5
EE33
  8
0
 10
4129.1001183791449876
 20
249.6380457844543059
 30
0.0
 40
0.0292074642665514
 50
4.3881321989391919
 51
33.3138904463121008
  0
ARC
  5
EE34
  8
0
 10
4129.1292186856398985
 20
249.6444902143433069
 30
0.0
 40
0.0042097487459807
 50
227.7808333808910959
 51
270.2931615201246132
  0
ARC
  5
EE35
  8
0
 10
4129.1238031487428088
 20
249.6394225201420056
 30
0.0
 40
0.0032394084692387
 50
37.0113935752332779
 51
132.2359904982361911
  0
LINE
  5
EE36
  8
0
 10
4128.8988007105963334
 20
249.9361536567510029
 30
0.0
 11
4128.9063690039347421
 21
249.9252221894815875
 31
0.0
  0
LINE
  5
EE37
  8
0
 10
4128.9347935679516013
 20
249.9490783033506034
 30
0.0
 11
4128.8949696030103951
 21
249.9156569563560026
 31
0.0
  0
ARC
  5
EE38
  8
0
 10
4128.9025622609533457
 20
249.906609752371395
 30
0.0
 40
0.0118110268210463
 50
130.0042825063493126
 51
216.0412393558264057
  0
LINE
  5
EE39
  8
0
 10
4128.8930119388487583
 20
249.8996605292279867
 30
0.0
 11
4128.989860023253641
 21
249.766562140814699
 31
0.0
  0
ARC
  5
EE3A
  8
0
 10
4128.9984162010241562
 20
249.7746523341205034
 30
0.0
 40
0.0117753728495616
 50
223.3965290494988096
 51
302.0618008408682726
  0
LINE
  5
EE3B
  8
0
 10
4129.0046669655766891
 20
249.7646729880380008
 30
0.0
 11
4129.0494040711164416
 21
249.7926278341358
 31
0.0
  0
LINE
  5
EE3C
  8
0
 10
4128.728945971277426
 20
250.230073083042214
 30
0.0
 11
4129.4419768607449441
 21
249.2567415458497067
 31
0.0
  0
ARC
  5
EE3D
  8
0
 10
4128.8071074549270634
 20
250.0381114942067029
 30
0.0
 40
0.0119872152824748
 50
130.2779362757223964
 51
208.3759686167663858
  0
LINE
  5
EE3E
  8
0
 10
4128.7993577677207213
 20
250.0472567486274045
 30
0.0
 11
4128.8203478237446689
 21
250.0647840535303885
 31
0.0
  0
ARC
  5
EE3F
  8
0
 10
4128.8177385408689588
 20
250.0681062806542059
 30
0.0
 40
0.004224399387568
 50
308.1461517879695862
 51
29.4768627448301004
  0
ARC
  5
EE40
  8
0
 10
4128.8229975788799493
 20
250.0710788983313932
 30
0.0
 40
0.0018166217722856
 50
134.7894255726452002
 51
209.4768627450004885
  0
ARC
  5
EE41
  8
0
 10
4128.8207105249057349
 20
250.069058266370007
 30
0.0
 40
0.0034597542099515
 50
47.9719170281049401
 51
73.0743837957072486
  0
ARC
  5
EE42
  8
0
 10
4128.7494966626736641
 20
249.9978424813672007
 30
0.0
 40
0.1041682272652865
 50
35.4316194600041499
 51
45.0994103239312096
  0
ARC
  5
EE43
  8
0
 10
4128.3725185086268539
 20
249.7138492803908036
 30
0.0
 40
0.5761160934157599
 50
33.1389638494642327
 51
36.7100824088184012
  0
ARC
  5
EE44
  8
0
 10
4128.2838877013764431
 20
249.6312761440291865
 30
0.0
 40
0.6957789341143399
 50
26.6657641905324496
 51
34.8430248973353685
  0
ARC
  5
EE45
  8
0
 10
4128.8752383606506555
 20
249.9282519437556118
 30
0.0
 40
0.0340461875716027
 50
13.6330867919632102
 51
26.6657641905324496
  0
ARC
  5
EE46
  8
0
 10
4128.9071105701596025
 20
249.9359821280397114
 30
0.0
 40
0.0012499455908728
 50
324.3147224871913181
 51
13.6330867919192809
  0
ARC
  5
EE47
  8
0
 10
4128.9078471199900378
 20
249.935753336904412
 30
0.0
 40
0.0005727262431794
 50
245.1965373010029907
 51
299.1184057901156734
  0
ARC
  5
EE48
  8
0
 10
4128.9026324730657507
 20
249.9310594067787861
 30
0.0
 40
0.0064936184901871
 50
40.0002206031230969
 51
113.417576850254207
  0
LINE
  5
EE49
  8
0
 10
4128.9000517180666066
 20
249.9370181637576991
 30
0.0
 11
4128.8858832084006281
 21
249.9281646963704873
 31
0.0
  0
ARC
  5
EE4A
  8
0
 10
4128.8796096647165541
 20
249.9382408855962865
 30
0.0
 40
0.0118695804353161
 50
220.41889122535909
 51
301.9071423999424724
  0
LINE
  5
EE4B
  8
0
 10
4128.8296718824076379
 20
250.1963700187471886
 30
0.0
 11
4128.9742998818883279
 21
249.9973066551011982
 31
0.0
  0
LINE
  5
EE4C
  8
0
 10
4128.9988095340631844
 20
250.0200923168980864
 30
0.0
 11
4128.9793117734789121
 21
250.0044732128997111
 31
0.0
  0
ARC
  5
EE4D
  8
0
 10
4128.9890311893386752
 20
249.9923401965951939
 30
0.0
 40
0.0155459682659683
 50
128.6972296886293066
 51
161.3691708119324915
  0
ARC
  5
EE4E
  8
0
 10
4128.9894665320143758
 20
249.9921934267763106
 30
0.0
 40
0.0160053859666962
 50
161.3691708119355894
 51
215.3814451029737995
  0
LINE
  5
EE4F
  8
0
 10
4128.9764170951557389
 20
249.9829260335260983
 30
0.0
 11
4129.1044766208769943
 21
249.8066672175864937
 31
0.0
  0
ARC
  5
EE50
  8
0
 10
4129.1172245110201402
 20
249.8159134228079949
 30
0.0
 40
0.0157480479452264
 50
215.9538496482032883
 51
271.1088432199528029
  0
ARC
  5
EE51
  8
0
 10
4129.117224511483073
 20
249.8159133988949065
 30
0.0
 40
0.0157480240277058
 50
271.1088432199528029
 51
303.5000076109355973
  0
LINE
  5
EE52
  8
0
 10
4129.1259164301327473
 20
249.8027813460873006
 30
0.0
 11
4129.1416650735491203
 21
249.813205148781293
 31
0.0
  0
ARC
  5
EE53
  8
0
 10
4129.1324313629784228
 20
249.8196779671474133
 30
0.0
 40
0.0112764705710752
 50
324.9695973490589722
 51
18.523361320479701
  0
ARC
  5
EE54
  8
0
 10
4128.7080280423942895
 20
249.6627073421597061
 30
0.0
 40
0.463773081027845
 50
20.2543834234959412
 51
37.4365897572321629
  0
ARC
  5
EE55
  8
0
 10
4128.7212638270566458
 20
249.698718248426303
 30
0.0
 40
0.4318622017243444
 50
34.7094529248226067
 51
46.5905401901692997
  0
ARC
  5
EE56
  8
0
 10
4128.9926514013050109
 20
249.9864006025933065
 30
0.0
 40
0.0363766431759486
 50
45.7322325833626593
 51
74.513559547001492
  0
ARC
  5
EE57
  8
0
 10
4129.0022176747752383
 20
250.016525167822607
 30
0.0
 40
0.0049335560847859
 50
88.2964507681859629
 51
133.6941143978532125
  0
LINE
  5
EE58
  8
0
 10
4129.1175292512007218
 20
249.8001683236495865
 30
0.0
 11
4129.3016687695690052
 21
249.5467220368491894
 31
0.0
  0
LINE
  5
EE59
  8
0
 10
4129.31591917105834
 20
249.5612654886735982
 30
0.0
 11
4129.3067000164246565
 21
249.5539040747356125
 31
0.0
  0
ARC
  5
EE5A
  8
0
 10
4129.3164009993033687
 20
249.5417549330088889
 30
0.0
 40
0.0155470483853508
 50
128.6070576771541027
 51
161.3680030243621104
  0
ARC
  5
EE5B
  8
0
 10
4129.3168347089185772
 20
249.5416087039085085
 30
0.0
 40
0.0160047458627493
 50
161.3680030243529018
 51
215.3826127316351915
  0
ARC
  5
EE5C
  8
0
 10
4137.5462383477806725
 20
255.3861836732934023
 30
0.0
 40
10.1096730990462795
 50
215.3826127316351915
 51
216.6173872812074137
  0
ARC
  5
EE5D
  8
0
 10
4129.4446409144093195
 20
249.3655909939049877
 30
0.0
 40
0.015941520314496
 50
216.6173872812449872
 51
302.8374250755439903
  0
LINE
  5
EE5E
  8
0
 10
4129.4532853177042853
 20
249.3521967279064881
 30
0.0
 11
4129.4806172922908445
 21
249.3702873672129954
 31
0.0
  0
ARC
  5
EE5F
  8
0
 10
4129.4729391963173839
 20
249.3750762282012943
 30
0.0
 40
0.0090491075433278
 50
328.0480352224906255
 51
30.678388518690479
  0
ARC
  5
EE60
  8
0
 10
4129.1575609469318806
 20
249.2197260091608939
 30
0.0
 40
0.3605862966697416
 50
26.3357806079409293
 51
40.4985732667234828
  0
ARC
  5
EE61
  8
0
 10
4129.0423854410682907
 20
249.16938235871811
 30
0.0
 40
0.4822474173846718
 50
36.1559653560101069
 51
53.9941469034016919
  0
ARC
  5
EE62
  8
0
 10
4129.3190875769651029
 20
249.5501483714315043
 30
0.0
 40
0.0115598050054611
 50
53.9941469034055075
 51
105.9076829786990004
  0
LINE
  5
EE63
  8
0
 10
4129.4448049733800872
 20
249.3496503178027979
 30
0.0
 11
4129.5065413753191024
 21
249.2647390867288948
 31
0.0
  0
ARC
  5
EE64
  8
0
 10
4129.2789294979347687
 20
249.3885846916616913
 30
0.0
 40
0.0118110235752964
 50
129.9999999925398981
 51
212.4858349784651921
  0
LINE
  5
EE65
  8
0
 10
4129.2713375183238895
 20
249.3976324606400965
 30
0.0
 11
4129.2826585510656514
 21
249.407131935035693
 31
0.0
  0
ARC
  5
EE66
  8
0
 10
4129.2790153932282919
 20
249.4114736814790092
 30
0.0
 40
0.0056677474549111
 50
309.9999999925315137
 51
26.0156967613247403
  0
ARC
  5
EE67
  8
0
 10
4129.2879801713488632
 20
249.4173335599124925
 30
0.0
 40
0.0051352088896023
 50
205.1724226846085912
 51
221.0725664892123916
  0
ARC
  5
EE68
  8
0
 10
4129.2834383181316298
 20
249.4152387255444125
 30
0.0
 40
0.0001384142251728
 50
80.6776292201144543
 51
220.229292412423689
  0
ARC
  5
EE69
  8
0
 10
4129.2783592737323488
 20
249.4081662074003987
 30
0.0
 40
0.0088315423169088
 50
48.0499654857341696
 51
54.7151661440262629
  0
ARC
  5
EE6A
  8
0
 10
4128.1317180490877945
 20
248.3158329936856887
 30
0.0
 40
1.5924648609539309
 50
40.6941281568346866
 51
43.6351159682376775
  0
ARC
  5
EE6B
  8
0
 10
4127.7002287868808708
 20
247.9161298717388036
 30
0.0
 40
2.1803433734575091
 50
39.4256741298041078
 51
41.2647830178345529
  0
ARC
  5
EE6C
  8
0
 10
4129.3004248846846167
 20
249.2314589575412072
 30
0.0
 40
0.1089387379013332
 50
34.786921271052897
 51
39.5427170314363465
  0
ARC
  5
EE6D
  8
0
 10
4129.3889212363601473
 20
249.2928895338637005
 30
0.0
 40
0.0012113440867552
 50
2.990679656225752
 51
36.5755383443152766
  0
ARC
  5
EE6E
  8
0
 10
4129.3901093658059835
 20
249.2930804668083908
 30
0.0
 40
0.0001295404543052
 50
245.1261624229645975
 51
279.5827453496488033
  0
ARC
  5
EE6F
  8
0
 10
4129.1576645722334433
 20
248.992218949896909
 30
0.0
 40
0.3800686829395183
 50
52.3060910963139989
 51
52.6296596511955812
  0
ARC
  5
EE70
  8
0
 10
4129.3857193643098071
 20
249.2890721342097891
 30
0.0
 40
0.0058273627567068
 50
63.1340236526898124
 51
122.0141118850375932
  0
LINE
  5
EE71
  8
0
 10
4129.3826301154385874
 20
249.2940132573727112
 30
0.0
 11
4129.3578629642570377
 21
249.2785404011684136
 31
0.0
  0
ARC
  5
EE72
  8
0
 10
4129.3515078925465787
 20
249.2888656293146994
 30
0.0
 40
0.0121242431812028
 50
226.6656459844788003
 51
301.611869683309294
  0
LINE
  5
EE73
  8
0
 10
4129.3867449991357716
 20
249.2948085294110001
 30
0.0
 11
4129.4064781678353029
 21
249.2729857749714881
 31
0.0
  0
LINE
  5
EE74
  8
0
 10
4129.0112704198154461
 20
249.7687992842012079
 30
0.0
 11
4129.0229954897258722
 21
249.7548258900974076
 31
0.0
  0
LINE
  5
EE75
  8
0
 10
4129.2349315008214035
 20
249.4899680008541054
 30
0.0
 11
4129.2584834886765748
 21
249.5072214178125876
 31
0.0
  0
ARC
  5
EE76
  8
0
 10
4129.8140207241558528
 20
248.8831113569067952
 30
0.0
 40
0.095173903774526
 50
45.238084829388491
 51
62.3077793086670013
  0
LINE
  5
EE77
  8
0
 10
4130.4788971168636635
 20
248.3495172518329923
 30
0.0
 11
4130.6775465314231042
 21
248.1989527360649106
 31
0.0
  0
LINE
  5
EE78
  8
0
 10
4128.0903495164466221
 20
251.7720643604183977
 30
0.0
 11
4128.0669748316140613
 21
251.8037134991998869
 31
0.0
  0
ARC
  5
EE79
  8
0
 10
4128.1951328441527949
 20
251.8983654634317872
 30
0.0
 40
0.1593219084454612
 50
72.4032771898517922
 51
216.447971450890293
  0
LINE
  5
EE7A
  8
0
 10
4128.243298305836106
 20
252.0502323749416007
 30
0.0
 11
4128.5349148863560913
 21
252.2462801398035879
 31
0.0
  0
ARC
  5
EE7B
  8
0
 10
4128.5611650689261296
 20
252.2031337963867088
 30
0.0
 40
0.0505042476952422
 50
89.4214153116632531
 51
121.3162800236859056
  0
ARC
  5
EE7C
  8
0
 10
4128.5626708456547931
 20
252.3522419918764115
 30
0.0
 40
0.0986115506822524
 50
269.4214153116632815
 51
286.0863427150782741
  0
ARC
  5
EE7D
  8
0
 10
4128.5816365752989441
 20
252.2864748466818128
 30
0.0
 40
0.0301643718655757
 50
286.0863427150782741
 51
306.8395885560040028
  0
LINE
  5
EE7E
  8
0
 10
4128.5997224304819611
 20
252.2623337785138062
 30
0.0
 11
4128.6456307146390827
 21
252.2955689573414872
 31
0.0
  0
ARC
  5
EE7F
  8
0
 10
4128.8072393604206809
 20
252.0723363487931863
 30
0.0
 40
0.2755905512
 50
55.7359194725780611
 51
125.9025575593652064
  0
ARC
  5
EE80
  8
0
 10
4125.5753870895032378
 20
247.3282320752585974
 30
0.0
 40
6.0159210694887939
 50
39.0462097852220467
 51
55.7359194725780611
  0
ARC
  5
EE81
  8
0
 10
4125.0334961257221948
 20
246.888693319527988
 30
0.0
 40
6.7136603721063484
 50
17.1100961973727905
 51
39.0462097852220467
  0
ARC
  5
EE82
  8
0
 10
4131.1932239093848693
 20
248.7848612282012937
 30
0.0
 40
0.2686856548009739
 50
304.8616570395441272
 51
17.1100961973727905
  0
LINE
  5
EE83
  8
0
 10
4131.3468037942702722
 20
248.5643953577028071
 30
0.0
 11
4131.3009030857074322
 21
248.531165663376413
 31
0.0
  0
ARC
  5
EE84
  8
0
 10
4131.3298587045146633
 20
248.49508044512271
 30
0.0
 40
0.0462663034720026
 50
128.7443686672980903
 51
157.9722376252773017
  0
ARC
  5
EE85
  8
0
 10
4130.7792417867885888
 20
248.7178545311082871
 30
0.0
 40
0.5477095238754847
 50
335.7559475172647012
 51
337.9722376252772733
  0
ARC
  5
EE86
  8
0
 10
4131.227213557165669
 20
248.5161138973554955
 30
0.0
 40
0.056407182784177
 50
312.6195537248748906
 51
335.7559475172647012
  0
LINE
  5
EE87
  8
0
 10
4131.2654083916986565
 20
248.4746057670118944
 30
0.0
 11
4130.9881057197890186
 21
248.2587859710062048
 31
0.0
  0
ARC
  5
EE88
  8
0
 10
4130.8336450576071002
 20
248.2579424517917914
 30
0.0
 40
0.154462965424685
 50
210.8310116872596041
 51
0.3128927327624012
  0
LINE
  5
EE89
  8
0
 10
4128.24329830575698
 20
252.0502323749666118
 30
0.0
 11
4130.9881057197890186
 21
248.2587859710062048
 31
0.0
  0
LINE
  5
EE8A
  8
0
 10
4128.5349148863560913
 20
252.2462801398035879
 30
0.0
 11
4131.2654083916986565
 21
248.4746057670118944
 31
0.0
  0
LINE
  5
EE8B
  8
0
 10
4131.3009030857074322
 20
248.531165663376413
 30
0.0
 11
4128.5997224304819611
 21
252.2623337785138062
 31
0.0
  0
LINE
  5
EE8C
  8
0
 10
4128.9623990581540056
 20
252.3000985495860959
 30
0.0
 11
4131.4500178565531314
 21
248.8639108948300134
 31
0.0
  0
LINE
  5
EE8D
  8
0
 10
4130.2475809220004521
 20
251.1179432919502119
 30
0.0
 11
4130.4681660363639821
 21
251.1937805842312059
 31
0.0
  0
ARC
  5
EE8E
  8
0
 10
4130.9513048428370894
 20
249.7845337028215056
 30
0.0
 40
1.4897650415694379
 50
19.7624050949522214
 51
108.9234965003100939
  0
ARC
  5
EE8F
  8
0
 10
3485.0741939607878521
 20
14.3210606550325092
 30
0.0
 40
688.9490490758475971
 50
19.9705492656017007
 51
20.0294507373525015
  0
ARC
  5
EE90
  8
0
 10
4132.6325468614786587
 20
249.636149117611609
 30
0.0
 40
0.0393479742105498
 50
199.9705492656001979
 51
286.68163578294741
  0
LINE
  5
EE91
  8
0
 10
4132.6823814799054162
 20
249.6124844040353992
 30
0.0
 11
4131.7588952396836248
 21
249.2763629008126998
 31
0.0
  0
ARC
  5
EE92
  8
0
 10
4132.7162071062357427
 20
249.5200541796642142
 30
0.0
 40
0.0984251968451508
 50
317.1575424036117283
 51
110.1005289091558978
  0
ARC
  5
EE93
  8
0
 10
4132.9125513282988322
 20
249.3505098227296912
 30
0.0
 40
0.1610898559186878
 50
140.4303775796830962
 51
182.94048421110611
  0
ARC
  5
EE94
  8
0
 10
4133.0757061460608384
 20
249.3461188559826951
 30
0.0
 40
0.3240557181223205
 50
180.6847454838591887
 51
201.8242481025212101
  0
ARC
  5
EE95
  8
0
 10
4149.0019615474002421
 20
250.8630031967734055
 30
0.0
 40
17.1351914792839892
 50
187.5972159637111076
 51
202.0226444185769026
  0
ARC
  5
EE96
  8
0
 10
4125.0884209995929268
 20
241.0907741829728934
 30
0.0
 40
8.6983265678184498
 50
19.8030353609049996
 51
22.6304589464499593
  0
ARC
  5
EE97
  8
0
 10
4132.2341545367908111
 20
243.8366637485368926
 30
0.0
 40
1.0574762581634469
 50
3.9925157149448882
 51
10.9570094061104992
  0
ARC
  5
EE98
  8
0
 10
4133.1670821845236787
 20
243.8744221317982976
 30
0.0
 40
0.1271467924341203
 50
341.2426122538240065
 51
16.3862951700050914
  0
ARC
  5
EE99
  8
0
 10
4133.2406508680023762
 20
243.8550425191436943
 30
0.0
 40
0.0515276726102231
 50
297.1709172442821227
 51
335.3315847403467274
  0
ARC
  5
EE9A
  8
0
 10
4133.3100590924796052
 20
243.7221223071904035
 30
0.0
 40
0.0984251969065317
 50
117.7829576419359938
 51
289.9999999979356744
  0
LINE
  5
EE9B
  8
0
 10
4133.3437224924300608
 20
243.6296328759567018
 30
0.0
 11
4134.3247176302984371
 21
243.9866859061293098
 31
0.0
  0
ARC
  5
EE9C
  8
0
 10
4116.4199092145872783
 20
242.1826636783981996
 30
0.0
 40
17.82580581084515
 50
8.3220406729232721
 51
22.2295390120576286
  0
ARC
  5
EE9D
  8
0
 10
4193.6417347266460638
 20
253.267855705818306
 30
0.0
 40
60.1876845459578078
 50
188.1236761010383134
 51
188.5426772230314896
  0
ARC
  5
EE9E
  8
0
 10
4135.1678091539188244
 20
244.5042562293571109
 30
0.0
 40
1.0608832567617379
 50
189.6066244745580889
 51
195.5096578745830982
  0
ARC
  5
EE9F
  8
0
 10
4134.2405922325624488
 20
244.2349771079549896
 30
0.0
 40
0.0961197545822208
 50
188.617250398055802
 51
232.2181761760421068
  0
ARC
  5
EEA0
  8
0
 10
4134.2037502869352465
 20
244.2055820403016924
 30
0.0
 40
0.0515276726102231
 50
244.6684152626100968
 51
282.8290827586865817
  0
ARC
  5
EEA1
  8
0
 10
4134.2360199675940748
 20
244.0591445038539007
 30
0.0
 40
0.0984251969065317
 50
290.0000000050350764
 51
102.2170423609824041
  0
ARC
  5
EEA2
  8
0
 10
4126.3176691344051505
 20
247.3487675894945994
 30
0.0
 40
5.8347253358003037
 50
12.3587873167680797
 51
15.6278716831423203
  0
ARC
  5
EEA3
  8
0
 10
4131.6797252477063012
 20
248.8486926629499862
 30
0.0
 40
0.266833365927648
 50
15.6278716831423203
 51
46.825111696625207
  0
ARC
  5
EEA4
  8
0
 10
4131.7445562273987889
 20
248.9177913083738929
 30
0.0
 40
0.1720827525920712
 50
46.825111696625207
 51
78.0685869949887348
  0
ARC
  5
EEA5
  8
0
 10
4131.7923963090734105
 20
249.1838145473178088
 30
0.0
 40
0.0984251969000009
 50
109.8994707626751932
 51
262.842457467053805
  0
ARC
  5
EEA6
  8
0
 10
4138.7290368640133238
 20
251.9452627006953094
 30
0.0
 40
6.5458641913247169
 50
204.5489647263866004
 51
207.4628122592687021
  0
ARC
  5
EEA7
  8
0
 10
4131.7818116887110591
 20
249.3265287300849025
 30
0.0
 40
0.0393710334000017
 50
293.3795108607978932
 51
20.0000000014669084
  0
LINE
  5
EEA8
  8
0
 10
4131.8188083582690524
 20
249.3399944165722104
 30
0.0
 11
4131.5765704698524132
 21
250.0055375450795054
 31
0.0
  0
ARC
  5
EEA9
  8
0
 10
4130.9518006742464422
 20
249.7855427914005872
 30
0.0
 40
0.6623707339159541
 50
19.3982521440977287
 51
108.069969455828101
  0
LINE
  5
EEAA
  8
0
 10
4131.7801327244387721
 20
249.0861563480885081
 30
0.0
 11
4132.7883750373557632
 21
249.4531265389472026
 31
0.0
  0
LINE
  5
EEAB
  8
0
 10
4134.2151916688735582
 20
244.155340664684303
 30
0.0
 11
4133.2641807946893096
 21
243.8092010139897923
 31
0.0
  0
ARC
  5
EEAC
  8
0
 10
4134.3288701637811755
 20
243.9569746882870902
 30
0.0
 40
0.0299999999999994
 50
20.0000000158049502
 51
97.9563004896443346
  0
LINE
  5
EEAD
  8
0
 10
4134.3570609424023132
 20
243.9672352925946086
 30
0.0
 11
4134.435183806385794
 21
243.8512655395171009
 31
0.0
  0
ARC
  5
EEAE
  8
0
 10
4134.5129026123668154
 20
243.8770275351880059
 30
0.0
 40
0.0818773059159563
 50
198.3391708644182927
 51
273.4540722534820247
  0
ARC
  5
EEAF
  8
0
 10
4134.3080471471057535
 20
243.3188843265706964
 30
0.0
 40
0.3977710135712007
 50
307.5535076487560104
 51
322.4464923899286077
  0
ARC
  5
EEB0
  8
0
 10
4134.5226505513992379
 20
243.0313764891390917
 30
0.0
 40
0.039370078352601
 50
284.9986889194249216
 51
315.0000001543299959
  0
LINE
  5
EEB1
  8
0
 10
4134.5328394072857918
 20
242.993347680517104
 30
0.0
 11
4133.639085515482293
 21
242.7714693884722124
 31
0.0
  0
ARC
  5
EEB2
  8
0
 10
4133.6288223719120651
 20
242.799654710037089
 30
0.0
 40
0.0299957408250573
 50
199.9918638408038873
 51
290.0081229384783228
  0
LINE
  5
EEB3
  8
0
 10
4133.6006341390611851
 20
242.7893995651645866
 30
0.0
 11
4133.3693521434488503
 21
243.5656772630055116
 31
0.0
  0
ARC
  5
EEB4
  8
0
 10
4133.4616385529207037
 20
243.5741116741425003
 30
0.0
 40
0.0926710346571364
 50
113.4556950056151976
 51
185.2219752278853946
  0
ARC
  5
EEB5
  8
0
 10
4134.5955549904238069
 20
243.1042809289309048
 30
0.0
 40
0.0393700788606637
 50
314.9999873286923275
 51
14.9999999546001401
  0
LINE
  5
EEB6
  8
0
 10
4138.6321890272856763
 20
242.4133781914671033
 30
0.0
 11
4138.6321890272856763
 21
244.7047167741671103
 31
0.0
  0
LINE
  5
EEB7
  8
0
 10
4138.6321890272856763
 20
217.102354086467102
 30
0.0
 11
4138.6321890272856763
 21
214.8976306429671013
 31
0.0
  0
LINE
  5
EEB8
  8
0
 10
4138.6321890272856763
 20
242.4133781914671033
 30
0.0
 11
4138.5377008382865824
 21
242.4386962253670958
 31
0.0
  0
LINE
  5
EEB9
  8
0
 10
4138.5377008382865824
 20
242.4386962253670958
 30
0.0
 11
4138.5377008382865824
 21
244.6793987402670894
 31
0.0
  0
LINE
  5
EEBA
  8
0
 10
4138.506436953884986
 20
217.0553139722011906
 30
0.0
 11
4138.506436953884986
 21
214.9446707572330979
 31
0.0
  0
LINE
  5
EEBB
  8
0
 10
4138.3198010886871998
 20
242.6514605129997051
 30
0.0
 11
4138.3198010886871998
 21
244.4666344526345085
 31
0.0
  0
LINE
  5
EEBC
  8
0
 10
4138.18998056048531
 20
242.6632942632897141
 30
0.0
 11
4138.18998056048531
 21
244.4548007023444995
 31
0.0
  0
LINE
  5
EEBD
  8
0
 10
4138.1597498848859686
 20
216.8740081127670862
 30
0.0
 11
4138.1597498848859686
 21
215.1259766166670886
 31
0.0
  0
LINE
  5
EEBE
  8
0
 10
4138.0363453886866409
 20
242.67318195150321
 30
0.0
 11
4138.0363453886866409
 21
244.4449130141310036
 31
0.0
  0
LINE
  5
EEBF
  8
0
 10
4138.0399757862860497
 20
216.8635624091670877
 30
0.0
 11
4138.0399757862860497
 21
215.1364223202670871
 31
0.0
  0
LINE
  5
EEC0
  8
0
 10
4136.320299881685969
 20
242.9204860678545117
 30
0.0
 11
4136.320299881685969
 21
244.1976088977797019
 31
0.0
  0
LINE
  5
EEC1
  8
0
 10
4136.1793327092864274
 20
242.9217152864057994
 30
0.0
 11
4136.1793327092864274
 21
244.1963796792283858
 31
0.0
  0
LINE
  5
EEC2
  8
0
 10
4135.2231209817873605
 20
243.0151780815853044
 30
0.0
 11
4135.2231209817873605
 21
244.1029168840489092
 31
0.0
  0
LINE
  5
EEC3
  8
0
 10
4133.1192542253866122
 20
216.2362128371676988
 30
0.0
 11
4133.1192542253866122
 21
215.7637718922665897
 31
0.0
  0
LINE
  5
EEC4
  8
0
 10
4133.2407664463844412
 20
216.343945304283892
 30
0.0
 11
4133.2407664463844412
 21
215.710831188250296
 31
0.0
  0
LINE
  5
EEC5
  8
0
 10
4133.7606642896862468
 20
216.3543230733671123
 30
0.0
 11
4133.2658210739864444
 21
216.3543230733671123
 31
0.0
  0
LINE
  5
EEC6
  8
0
 10
4133.7890099966862181
 20
215.6590734434560943
 30
0.0
 11
4133.7890099966862181
 21
216.3409112859781942
 31
0.0
  0
LINE
  5
EEC7
  8
0
 10
4133.9477883318859313
 20
215.6575827475670906
 30
0.0
 11
4133.9477883318859313
 21
216.3424019818671979
 31
0.0
  0
LINE
  5
EEC8
  8
0
 10
4134.143424931786285
 20
215.3509027307671033
 30
0.0
 11
4134.143424931786285
 21
216.6490819986670999
 31
0.0
  0
LINE
  5
EEC9
  8
0
 10
4134.8454664164873975
 20
215.3770448550087053
 30
0.0
 11
4134.8454664164873975
 21
216.6229398744256116
 31
0.0
  0
LINE
  5
EECA
  8
0
 10
4134.9510884674864428
 20
215.3752088988671005
 30
0.0
 11
4134.9510884674864428
 21
216.6247758305671027
 31
0.0
  0
LINE
  5
EECB
  8
0
 10
4134.970773506885962
 20
215.4279610594670942
 30
0.0
 11
4134.970773506885962
 21
216.5720236699671091
 31
0.0
  0
LINE
  5
EECC
  8
0
 10
4136.7817971289850902
 20
242.8654925578132975
 30
0.0
 11
4136.7817971289850902
 21
244.2526024078208877
 31
0.0
  0
LINE
  5
EECD
  8
0
 10
4136.7817971289850902
 20
216.7384420337481004
 30
0.0
 11
4136.7817971289850902
 21
215.2615426956861029
 31
0.0
  0
LINE
  5
EECE
  8
0
 10
4137.8460823647856159
 20
242.6823540358597029
 30
0.0
 11
4137.8460823647856159
 21
244.4357409297745107
 31
0.0
  0
LINE
  5
EECF
  8
0
 10
4137.8460823647856159
 20
216.8416582354043101
 30
0.0
 11
4137.8460823647856159
 21
215.1583264940300069
 31
0.0
  0
ARC
  5
EED0
  8
0
 10
4137.9975854544227332
 20
242.1998949078976011
 30
0.0
 40
0.5905511807709556
 50
23.8516686049685696
 51
50.4265793206337705
  0
ARC
  5
EED1
  8
0
 10
4138.3487244603838917
 20
242.6247501841720862
 30
0.0
 40
0.0393700786953163
 50
50.4265792348572006
 51
137.2779574034121879
  0
ARC
  5
EED2
  8
0
 10
4138.29666239121525
 20
242.6728287765131995
 30
0.0
 40
0.031496063346074
 50
270.0000001317346232
 51
317.2779569407130111
  0
LINE
  5
EED3
  8
0
 10
4138.2966623912861905
 20
242.6413327131670883
 30
0.0
 11
4138.2199988056863731
 21
242.6413327131670883
 31
0.0
  0
ARC
  5
EED4
  8
0
 10
4138.2199988056472648
 20
242.6728287760269893
 30
0.0
 40
0.0314960628598478
 50
197.6210930373906081
 51
270.0000000712345809
  0
ARC
  5
EED5
  8
0
 10
4138.1112351054116516
 20
242.6382828230678967
 30
0.0
 40
0.0826221449540932
 50
17.6210930373890697
 51
155.0141537035383124
  0
ARC
  5
EED6
  8
0
 10
4138.0077969742951609
 20
242.6864857110049059
 30
0.0
 40
0.0314960629465715
 50
260.2363593256691274
 51
335.0141537035369197
  0
LINE
  5
EED7
  8
0
 10
4138.0024557417036704
 20
242.6554458460639125
 30
0.0
 11
4136.3545447507585777
 21
242.9390126691683065
 31
0.0
  0
ARC
  5
EED8
  8
0
 10
4136.3492035182125619
 20
242.907972804485297
 30
0.0
 40
0.031496062684984
 50
80.2363593256693548
 51
156.5907460871684123
  0
ARC
  5
EED9
  8
0
 10
4136.2500760386474212
 20
242.9508881050481079
 30
0.0
 40
0.0765223627226299
 50
202.4100530498315038
 51
336.5907460871670196
  0
ARC
  5
EEDA
  8
0
 10
4136.15021525703105
 20
242.9097079614595032
 30
0.0
 40
0.0314960613129424
 50
22.4100530498300117
 51
99.7987223725730672
  0
LINE
  5
EEDB
  8
0
 10
4136.1448550202858314
 20
242.9407445485830124
 30
0.0
 11
4135.3382501524029067
 21
242.801438218484293
 31
0.0
  0
ARC
  5
EEDC
  8
0
 10
4135.3328899173193349
 20
242.8324747959945
 30
0.0
 40
0.0314960515573689
 50
202.4999186922478032
 51
279.7987223725730814
  0
LINE
  5
EEDD
  8
0
 10
4135.3037913428261163
 20
242.8204218201719868
 30
0.0
 11
4135.2231209817873605
 21
243.0151780815853044
 31
0.0
  0
LINE
  5
EEDE
  8
0
 10
4138.6321890272856763
 20
244.7047167741671103
 30
0.0
 11
4138.5377008382865824
 21
244.6793987402670894
 31
0.0
  0
ARC
  5
EEDF
  8
0
 10
4137.9975854544227332
 20
244.9182000577366125
 30
0.0
 40
0.5905511807709556
 50
309.5734206793662224
 51
336.1483313950313914
  0
ARC
  5
EEE0
  8
0
 10
4138.3487244603838917
 20
244.493344781462099
 30
0.0
 40
0.0393700786953163
 50
222.7220425965878121
 51
309.5734207651428278
  0
ARC
  5
EEE1
  8
0
 10
4138.29666239121525
 20
244.4452661891210141
 30
0.0
 40
0.031496063346074
 50
42.7220430592870173
 51
89.999999868265391
  0
LINE
  5
EEE2
  8
0
 10
4138.2966623912861905
 20
244.4767622524670969
 30
0.0
 11
4138.2199988056863731
 21
244.4767622524670969
 31
0.0
  0
ARC
  5
EEE3
  8
0
 10
4138.2199988056472648
 20
244.4452661896073096
 30
0.0
 40
0.0314960628598478
 50
89.999999928765348
 51
162.3789069626093919
  0
ARC
  5
EEE4
  8
0
 10
4138.1112351054116516
 20
244.4798121425662885
 30
0.0
 40
0.0826221449540932
 50
204.9858462964616876
 51
342.3789069626109267
  0
ARC
  5
EEE5
  8
0
 10
4138.0077969742951609
 20
244.4316092546293078
 30
0.0
 40
0.0314960629465715
 50
24.98584629646313
 51
99.7636406743309152
  0
LINE
  5
EEE6
  8
0
 10
4138.0024557417036704
 20
244.4626491195701874
 30
0.0
 11
4136.3545447507585777
 21
244.1790822964659071
 31
0.0
  0
ARC
  5
EEE7
  8
0
 10
4136.3492035182125619
 20
244.2101221611490018
 30
0.0
 40
0.031496062684984
 50
203.4092539128315877
 51
279.7636406743305884
  0
ARC
  5
EEE8
  8
0
 10
4136.2500760386474212
 20
244.1672068605861057
 30
0.0
 40
0.0765223627226299
 50
23.4092539128315487
 51
157.5899469501684962
  0
ARC
  5
EEE9
  8
0
 10
4136.15021525703105
 20
244.2083870041747105
 30
0.0
 40
0.0314960613129424
 50
260.2012776274269186
 51
337.5899469501699741
  0
LINE
  5
EEEA
  8
0
 10
4136.1448550202858314
 20
244.1773504170512012
 30
0.0
 11
4135.3382501524029067
 21
244.3166567471498922
 31
0.0
  0
ARC
  5
EEEB
  8
0
 10
4135.3328899173193349
 20
244.2856201696397136
 30
0.0
 40
0.0314960515573689
 50
80.201277627426947
 51
157.5000813077506905
  0
LINE
  5
EEEC
  8
0
 10
4135.3037913428261163
 20
244.2976731454621984
 30
0.0
 11
4135.2231209817873605
 21
244.1029168840489092
 31
0.0
  0
LINE
  5
EEED
  8
0
 10
4135.3037913428261163
 20
242.8204218201719868
 30
0.0
 11
4135.3037913428261163
 21
244.2976731454621984
 31
0.0
  0
LINE
  5
EEEE
  8
0
 10
4135.2231209817873605
 20
243.3227959991671128
 30
0.0
 11
4134.6803553142390228
 21
243.3228275134354135
 31
0.0
  0
ARC
  5
EEEF
  8
0
 10
4134.6804033421467466
 20
243.2440621712318887
 30
0.0
 40
0.0787653568462328
 50
90.0349366359227048
 51
194.9765351608334072
  0
LINE
  5
EEF0
  8
0
 10
4135.2231209817873605
 20
243.7952989664671009
 30
0.0
 11
4134.5178355910711616
 21
243.7952989664671009
 31
0.0
  0
ARC
  5
EEF1
  8
0
 10
4135.2453459052458129
 20
243.7464046700488893
 30
0.0
 40
0.7747005925953249
 50
175.6245919449945063
 51
215.9116155801380899
  0
LINE
  5
EEF2
  8
0
 10
4134.9510884673863984
 20
216.5118033883670989
 30
0.0
 11
4134.970773506885962
 21
216.5118033883670989
 31
0.0
  0
LINE
  5
EEF3
  8
0
 10
4138.6321890272856763
 20
217.102354086467102
 30
0.0
 11
4138.5312411227387202
 21
217.0753051769549131
 31
0.0
  0
ARC
  5
EEF4
  8
0
 10
4138.5414300090951656
 20
217.0372797354197871
 30
0.0
 40
0.0393668338720055
 50
105.0000000059815051
 51
152.7349530925114038
  0
ARC
  5
EEF5
  8
0
 10
4138.0024335819789485
 20
217.3150602588139861
 30
0.0
 40
0.566998705733642
 50
286.10833573767502
 51
332.7349530925113754
  0
ARC
  5
EEF6
  8
0
 10
4138.147938861286093
 20
216.8740081127670862
 30
0.0
 40
0.0118110235999972
 50
0.0
 51
90.0
  0
LINE
  5
EEF7
  8
0
 10
4138.147938861286093
 20
216.885819136367104
 30
0.0
 11
4138.0754319042862335
 21
216.885819136367104
 31
0.0
  0
ARC
  5
EEF8
  8
0
 10
4138.0754319042862335
 20
216.8464490575244952
 30
0.0
 40
0.0393700788426248
 50
90.0
 51
154.2351217806960051
  0
ARC
  5
EEF9
  8
0
 10
4138.0045196672299426
 20
216.8806757613189973
 30
0.0
 40
0.0393700800142972
 50
309.4020823598521019
 51
334.2351217806975114
  0
ARC
  5
EEFA
  8
0
 10
4137.9295481819990528
 20
216.9719407783395866
 30
0.0
 40
0.1574803121264039
 50
243.4889087469896936
 51
309.4020823598531251
  0
ARC
  5
EEFB
  8
0
 10
4137.8768271945164088
 20
216.8662500773901058
 30
0.0
 40
0.0393700806119487
 50
218.6552379619236035
 51
243.4889087469904041
  0
ARC
  5
EEFC
  8
0
 10
4137.8153375360643622
 20
216.8170663940259999
 30
0.0
 40
0.0393700794453734
 50
38.6552379619249109
 51
96.0006249509855252
  0
ARC
  5
EEFD
  8
0
 10
4134.9904585462863906
 20
216.5720236699671091
 30
0.0
 40
0.019685039400011
 50
96.7683229852179068
 51
179.9999999999689919
  0
ARC
  5
EEFE
  8
0
 10
4134.8987806528339206
 20
216.5949082710529865
 30
0.0
 40
0.0602343638216774
 50
29.7261995370706984
 51
152.2654668505595055
  0
ARC
  5
EEFF
  8
0
 10
4134.8141112610292112
 20
216.6394258140963984
 30
0.0
 40
0.0354250191329685
 50
263.9922590121375947
 51
332.2654668505551854
  0
LINE
  5
EF00
  8
0
 10
4134.8104035783480867
 20
216.6041953575324897
 30
0.0
 11
4134.1797563005047778
 21
216.6705652039152881
 31
0.0
  0
ARC
  5
EF01
  8
0
 10
4134.1760520282368816
 20
216.6353671531574037
 30
0.0
 40
0.0353924343636362
 50
83.9922590121375521
 51
157.2004819545718988
  0
ARC
  5
EF02
  8
0
 10
4102.1563818286185779
 20
230.0948801906843073
 30
0.0
 40
34.6981327380072528
 50
336.7995180730055154
 51
337.2004819545718988
  0
ARC
  5
EF03
  8
0
 10
4133.9403160217852928
 20
216.4719521424156028
 30
0.0
 40
0.1177533097262759
 50
284.1685737472859046
 51
336.7995180730039806
  0
ARC
  5
EF04
  8
0
 10
4133.9778885770911074
 20
216.3231236380337918
 30
0.0
 40
0.0357446401907617
 50
104.1685737472859046
 51
147.3616032882673892
  0
ARC
  5
EF05
  8
0
 10
4133.9177625240026828
 20
216.3616326507300016
 30
0.0
 40
0.0356562443888651
 50
270.1967960969798241
 51
327.3616032882742957
  0
LINE
  5
EF06
  8
0
 10
4133.9178849936861297
 20
216.3259766166671056
 30
0.0
 11
4133.8179130815578901
 21
216.3256332378066134
 31
0.0
  0
ARC
  5
EF07
  8
0
 10
4133.8177937145956093
 20
216.36038594025419
 30
0.0
 40
0.034752907445082
 50
214.0817230503130872
 51
270.1967960969798241
  0
ARC
  5
EF08
  8
0
 10
4133.7577464947753469
 20
216.3114962288807135
 30
0.0
 40
0.0429261241647682
 50
43.2551440579150821
 51
86.1024588342862529
  0
ARC
  5
EF09
  8
0
 10
4175.8004991934785721
 20
-149.4880011886538966
 30
0.0
 40
368.3086669457508719
 50
95.9203150715110127
 51
96.0796849280344247
  0
ARC
  5
EF0A
  8
0
 10
4136.7620726955337886
 20
216.7268804445901935
 30
0.0
 40
0.0198254765320901
 50
5.7871364861013728
 51
95.7252058591538031
  0
ARC
  5
EF0B
  8
0
 10
4136.7936583250848344
 20
216.7372877135233011
 30
0.0
 40
0.011917232400357
 50
96.1910999762462922
 51
174.4415336760542061
  0
ARC
  5
EF0C
  8
0
 10
4133.2658210739864444
 20
216.3188900024671
 30
0.0
 40
0.0354330708999839
 50
90.0000000001042082
 51
134.9991515755729949
  0
ARC
  5
EF0D
  8
0
 10
5251.767131830452854
 20
-902.2155463310501773
 30
0.0
 40
1581.8585797683660985
 50
134.9991515755729949
 51
135.000810920138008
  0
ARC
  5
EF0E
  8
0
 10
4133.2334280837931146
 20
216.2864961422324939
 30
0.0
 40
0.0354337011064471
 50
135.000810920138008
 51
179.9939365719438058
  0
ARC
  5
EF0F
  8
0
 10
4133.1882668264952372
 20
216.2775066887718936
 30
0.0
 40
0.0097282097914901
 50
359.3359308567020207
 51
88.3951918720356957
  0
LINE
  5
EF10
  8
0
 10
4133.1885392701042292
 20
216.2872310828520881
 30
0.0
 11
4133.1704357528624314
 21
216.2872310828522018
 31
0.0
  0
ARC
  5
EF11
  8
0
 10
4133.1707943966939638
 20
216.2356895024300059
 30
0.0
 40
0.0515428281898318
 50
90.3986770713900682
 51
179.418243274925004
  0
ARC
  5
EF12
  8
0
 10
4121.1941333752192804
 20
384.4518826103033007
 30
0.0
 40
168.4261221375724915
 50
274.6977540199869168
 51
275.3028499117668844
  0
LINE
  5
EF13
  8
0
 10
4133.1979943828855539
 20
216.2864998920763924
 30
0.0
 11
4133.1979943828855539
 21
215.7134848373578109
 31
0.0
  0
LINE
  5
EF14
  8
0
 10
4133.7606642896862468
 20
215.6456616560670909
 30
0.0
 11
4133.2658210739864444
 21
215.6456616560670909
 31
0.0
  0
LINE
  5
EF15
  8
0
 10
4134.9510884673863984
 20
215.4881813410671043
 30
0.0
 11
4134.970773506885962
 21
215.4881813410671043
 31
0.0
  0
LINE
  5
EF16
  8
0
 10
4138.6321890272856763
 20
214.8976306429671013
 30
0.0
 11
4138.5312411227387202
 21
214.9246795524792901
 31
0.0
  0
ARC
  5
EF17
  8
0
 10
4138.5414300090951656
 20
214.9627049940145014
 30
0.0
 40
0.0393668338720055
 50
207.2650469074885962
 51
254.9999999940183955
  0
ARC
  5
EF18
  8
0
 10
4138.0024335819789485
 20
214.6849244706201034
 30
0.0
 40
0.566998705733642
 50
27.2650469074885891
 51
73.891664262325051
  0
ARC
  5
EF19
  8
0
 10
4138.147938861286093
 20
215.1259766166670886
 30
0.0
 40
0.0118110235999972
 50
270.0
 51
0.0
  0
LINE
  5
EF1A
  8
0
 10
4138.147938861286093
 20
215.1141655930670993
 30
0.0
 11
4138.0754319042862335
 21
215.1141655930670993
 31
0.0
  0
ARC
  5
EF1B
  8
0
 10
4138.0754319042862335
 20
215.1535356719097081
 30
0.0
 40
0.0393700788426248
 50
205.7648782193039949
 51
270.0
  0
ARC
  5
EF1C
  8
0
 10
4138.0045196672299426
 20
215.1193089681150923
 30
0.0
 40
0.0393700800142972
 50
25.7648782193024815
 51
50.5979176401478909
  0
ARC
  5
EF1D
  8
0
 10
4137.9295481819990528
 20
215.0280439510945882
 30
0.0
 40
0.1574803121264039
 50
50.5979176401468607
 51
116.5110912530103064
  0
ARC
  5
EF1E
  8
0
 10
4137.8768271945164088
 20
215.1337346520440974
 30
0.0
 40
0.0393700806119487
 50
116.5110912530095959
 51
141.3447620380763965
  0
ARC
  5
EF1F
  8
0
 10
4137.8153375360643622
 20
215.1829183354082033
 30
0.0
 40
0.0393700794453734
 50
263.9993750490144748
 51
321.3447620380750891
  0
ARC
  5
EF20
  8
0
 10
4134.9904585462863906
 20
215.4279610594670942
 30
0.0
 40
0.019685039400011
 50
180.0000000000308944
 51
263.2316770147821217
  0
ARC
  5
EF21
  8
0
 10
4134.8987806528339206
 20
215.4050764583811883
 30
0.0
 40
0.0602343638216774
 50
207.7345331494404945
 51
330.2738004629293869
  0
ARC
  5
EF22
  8
0
 10
4134.8141112610292112
 20
215.3605589153376911
 30
0.0
 40
0.0354250191329685
 50
27.7345331494448502
 51
96.0077409878624621
  0
LINE
  5
EF23
  8
0
 10
4134.8104035783480867
 20
215.3957893719017136
 30
0.0
 11
4134.1797563005047778
 21
215.3294195255188868
 31
0.0
  0
ARC
  5
EF24
  8
0
 10
4134.1760520282368816
 20
215.3646175762767996
 30
0.0
 40
0.0353924343636362
 50
202.7995180454281012
 51
276.007740987862519
  0
ARC
  5
EF25
  8
0
 10
4102.1563818286185779
 20
201.9051045387498959
 30
0.0
 40
34.6981327380072528
 50
22.7995180454281297
 51
23.2004819269944491
  0
ARC
  5
EF26
  8
0
 10
4133.9403160217852928
 20
215.5280325870186005
 30
0.0
 40
0.1177533097262759
 50
23.2004819269959413
 51
75.8314262527141238
  0
ARC
  5
EF27
  8
0
 10
4133.9778885770911074
 20
215.6768610914002977
 30
0.0
 40
0.0357446401907617
 50
212.6383967117324971
 51
255.8314262527140954
  0
ARC
  5
EF28
  8
0
 10
4133.9177625240026828
 20
215.6383520787042016
 30
0.0
 40
0.0356562443888651
 50
32.6383967117257185
 51
89.8032039030201759
  0
LINE
  5
EF29
  8
0
 10
4133.9178849936861297
 20
215.6740081127670976
 30
0.0
 11
4133.8179130815578901
 21
215.6743514916275899
 31
0.0
  0
ARC
  5
EF2A
  8
0
 10
4133.8177937145956093
 20
215.6395987891800132
 30
0.0
 40
0.034752907445082
 50
89.8032039030201759
 51
145.9182769496867991
  0
ARC
  5
EF2B
  8
0
 10
4133.7577464947753469
 20
215.6884885005534898
 30
0.0
 40
0.0429261241647682
 50
273.897541165713676
 51
316.7448559420848824
  0
ARC
  5
EF2C
  8
0
 10
4175.8004991934785721
 20
581.4879859180881567
 30
0.0
 40
368.3086669457508719
 50
263.9203150719656037
 51
264.0796849284889731
  0
ARC
  5
EF2D
  8
0
 10
4136.7620726955337886
 20
215.2731042848440097
 30
0.0
 40
0.0198254765320901
 50
264.2747941408462111
 51
354.2128635138985828
  0
ARC
  5
EF2E
  8
0
 10
4136.7936583250848344
 20
215.2626970159109021
 30
0.0
 40
0.011917232400357
 50
185.5584663239442023
 51
263.8089000237537221
  0
ARC
  5
EF2F
  8
0
 10
4133.2658210739864444
 20
215.6810947269669896
 30
0.0
 40
0.0354330708999839
 50
225.0008484244268914
 51
269.999999999895806
  0
ARC
  5
EF30
  8
0
 10
5251.767131830452854
 20
1334.2155310604839542
 30
0.0
 40
1581.8585797683660985
 50
224.9991890798619067
 51
225.0008484244268914
  0
ARC
  5
EF31
  8
0
 10
4133.2334280837931146
 20
215.7134885872017094
 30
0.0
 40
0.0354337011064471
 50
180.0060634280561089
 51
224.9991890798619067
  0
ARC
  5
EF32
  8
0
 10
4133.1880634840690618
 20
215.7225621673198077
 30
0.0
 40
0.0099309400646143
 50
269.6013229286098749
 51
0.1651363461696348
  0
LINE
  5
EF33
  8
0
 10
4133.1879943828862451
 20
215.7126314676671086
 30
0.0
 11
4133.1704357528624314
 21
215.7127536465820867
 31
0.0
  0
ARC
  5
EF34
  8
0
 10
4133.1707943966939638
 20
215.7642952270041121
 30
0.0
 40
0.0515428281898318
 50
180.5817567250732907
 51
269.6013229286098749
  0
ARC
  5
EF35
  8
0
 10
4121.1941333752192804
 20
47.5481021191309026
 30
0.0
 40
168.4261221375724915
 50
84.6971500882331014
 51
85.3022459800131259
  0
LINE
  5
EF36
  8
0
 10
4135.8762853179860031
 20
214.6507801720171074
 30
0.0
 11
4135.8762853179860031
 21
215.0196774041170897
 31
0.0
  0
LINE
  5
EF37
  8
0
 10
4135.4202485907808295
 20
215.0196774041170897
 30
0.0
 11
4136.3323229777797678
 21
215.0196774041170897
 31
0.0
  0
LINE
  5
EF38
  8
0
 10
4136.3323229777797678
 20
215.0196774041170897
 30
0.0
 11
4136.3323229777797678
 21
214.6507801720171074
 31
0.0
  0
LINE
  5
EF39
  8
0
 10
4136.3323229777797678
 20
214.6507801720171074
 30
0.0
 11
4135.4202485907808295
 21
214.6507801720171074
 31
0.0
  0
LINE
  5
EF3A
  8
0
 10
4135.4202485907808295
 20
214.6507801720171074
 30
0.0
 11
4135.4202485907808295
 21
215.0196774041170897
 31
0.0
  0
LINE
  5
EF3B
  8
0
 10
4135.8542466511798921
 20
214.6507801720171074
 30
0.0
 11
4135.8542466511798921
 21
215.0196774041170897
 31
0.0
  0
LINE
  5
EF3C
  8
0
 10
4135.8335384767797223
 20
214.6507801720171074
 30
0.0
 11
4135.8335384767797223
 21
215.0196774041170897
 31
0.0
  0
LINE
  5
EF3D
  8
0
 10
4135.8103741583800002
 20
214.6507801720171074
 30
0.0
 11
4135.8103741583800002
 21
215.0196774041170897
 31
0.0
  0
LINE
  5
EF3E
  8
0
 10
4135.7911902893802107
 20
214.6507801720171074
 30
0.0
 11
4135.7911902893802107
 21
215.0196774041170897
 31
0.0
  0
LINE
  5
EF3F
  8
0
 10
4135.7671170646808605
 20
214.6507801720171074
 30
0.0
 11
4135.7671170646808605
 21
215.0196774041170897
 31
0.0
  0
LINE
  5
EF40
  8
0
 10
4135.7496366156801741
 20
214.6507801720171074
 30
0.0
 11
4135.7496366156801741
 21
215.0196774041170897
 31
0.0
  0
LINE
  5
EF41
  8
0
 10
4135.7248792498812691
 20
214.6507801720171074
 30
0.0
 11
4135.7248792498812691
 21
215.0196774041170897
 31
0.0
  0
LINE
  5
EF42
  8
0
 10
4135.7092654311809383
 20
214.6507801720171074
 30
0.0
 11
4135.7092654311809383
 21
215.0196774041170897
 31
0.0
  0
LINE
  5
EF43
  8
0
 10
4135.6840550770812115
 20
214.6507801720171074
 30
0.0
 11
4135.6840550770812115
 21
215.0196774041170897
 31
0.0
  0
LINE
  5
EF44
  8
0
 10
4135.6704536706811268
 20
214.6507801720171074
 30
0.0
 11
4135.6704536706811268
 21
215.0196774041170897
 31
0.0
  0
LINE
  5
EF45
  8
0
 10
4135.6450257106798745
 20
214.6507801720171074
 30
0.0
 11
4135.6450257106798745
 21
215.0196774041170897
 31
0.0
  0
LINE
  5
EF46
  8
0
 10
4135.6335637091806348
 20
214.6507801720171074
 30
0.0
 11
4135.6335637091806348
 21
215.0196774041170897
 31
0.0
  0
LINE
  5
EF47
  8
0
 10
4135.6081555571809076
 20
214.6507801720171074
 30
0.0
 11
4135.6081555571809076
 21
215.0196774041170897
 31
0.0
  0
LINE
  5
EF48
  8
0
 10
4135.5989399782811233
 20
214.6507801720171074
 30
0.0
 11
4135.5989399782811233
 21
215.0196774041170897
 31
0.0
  0
LINE
  5
EF49
  8
0
 10
4135.5737888634812407
 20
214.6507801720171074
 30
0.0
 11
4135.5737888634812407
 21
215.0196774041170897
 31
0.0
  0
LINE
  5
EF4A
  8
0
 10
4135.5669057504810553
 20
214.6507801720171074
 30
0.0
 11
4135.5669057504810553
 21
215.0196774041170897
 31
0.0
  0
LINE
  5
EF4B
  8
0
 10
4135.5422465018809817
 20
214.6507801720171074
 30
0.0
 11
4135.5422465018809817
 21
215.0196774041170897
 31
0.0
  0
LINE
  5
EF4C
  8
0
 10
4135.5377601206810141
 20
214.6507801720171074
 30
0.0
 11
4135.5377601206810141
 21
215.0196774041170897
 31
0.0
  0
LINE
  5
EF4D
  8
0
 10
4135.5138229751801191
 20
214.6507801720171074
 30
0.0
 11
4135.5138229751801191
 21
215.0196774041170897
 31
0.0
  0
LINE
  5
EF4E
  8
0
 10
4135.4887836659809182
 20
214.6507801720171074
 30
0.0
 11
4135.4887836659809182
 21
215.0196774041170897
 31
0.0
  0
LINE
  5
EF4F
  8
0
 10
4135.4673623597809637
 20
214.6507801720171074
 30
0.0
 11
4135.4673623597809637
 21
215.0196774041170897
 31
0.0
  0
LINE
  5
EF50
  8
0
 10
4135.4497590612800195
 20
214.6507801720171074
 30
0.0
 11
4135.4497590612800195
 21
215.0196774041170897
 31
0.0
  0
LINE
  5
EF51
  8
0
 10
4135.4361381279813941
 20
214.6507801720171074
 30
0.0
 11
4135.4361381279813941
 21
215.0196774041170897
 31
0.0
  0
LINE
  5
EF52
  8
0
 10
4135.4266267346802124
 20
214.6507801720171074
 30
0.0
 11
4135.4266267346802124
 21
215.0196774041170897
 31
0.0
  0
LINE
  5
EF53
  8
0
 10
4135.8983239847912046
 20
214.6507801720171074
 30
0.0
 11
4135.8983239847912046
 21
215.0196774041170897
 31
0.0
  0
LINE
  5
EF54
  8
0
 10
4135.9190321591922839
 20
214.6507801720171074
 30
0.0
 11
4135.9190321591922839
 21
215.0196774041170897
 31
0.0
  0
LINE
  5
EF55
  8
0
 10
4135.942196477592006
 20
214.6507801720171074
 30
0.0
 11
4135.942196477592006
 21
215.0196774041170897
 31
0.0
  0
LINE
  5
EF56
  8
0
 10
4135.9613803465917954
 20
214.6507801720171074
 30
0.0
 11
4135.9613803465917954
 21
215.0196774041170897
 31
0.0
  0
LINE
  5
EF57
  8
0
 10
4135.9854535712920551
 20
214.6507801720171074
 30
0.0
 11
4135.9854535712920551
 21
215.0196774041170897
 31
0.0
  0
LINE
  5
EF58
  8
0
 10
4136.002934020291832
 20
214.6507801720171074
 30
0.0
 11
4136.002934020291832
 21
215.0196774041170897
 31
0.0
  0
LINE
  5
EF59
  8
0
 10
4136.0276913860907371
 20
214.6507801720171074
 30
0.0
 11
4136.0276913860907371
 21
215.0196774041170897
 31
0.0
  0
LINE
  5
EF5A
  8
0
 10
4136.0433052047919773
 20
214.6507801720171074
 30
0.0
 11
4136.0433052047919773
 21
215.0196774041170897
 31
0.0
  0
LINE
  5
EF5B
  8
0
 10
4136.0685155588917041
 20
214.6507801720171074
 30
0.0
 11
4136.0685155588917041
 21
215.0196774041170897
 31
0.0
  0
LINE
  5
EF5C
  8
0
 10
4136.0821169652908793
 20
214.6507801720171074
 30
0.0
 11
4136.0821169652908793
 21
215.0196774041170897
 31
0.0
  0
LINE
  5
EF5D
  8
0
 10
4136.1075449252912222
 20
214.6507801720171074
 30
0.0
 11
4136.1075449252912222
 21
215.0196774041170897
 31
0.0
  0
LINE
  5
EF5E
  8
0
 10
4136.1190069267913714
 20
214.6507801720171074
 30
0.0
 11
4136.1190069267913714
 21
215.0196774041170897
 31
0.0
  0
LINE
  5
EF5F
  8
0
 10
4136.1444150787910985
 20
214.6507801720171074
 30
0.0
 11
4136.1444150787910985
 21
215.0196774041170897
 31
0.0
  0
LINE
  5
EF60
  8
0
 10
4136.1536306576908828
 20
214.6507801720171074
 30
0.0
 11
4136.1536306576908828
 21
215.0196774041170897
 31
0.0
  0
LINE
  5
EF61
  8
0
 10
4136.1787817724916749
 20
214.6507801720171074
 30
0.0
 11
4136.1787817724916749
 21
215.0196774041170897
 31
0.0
  0
LINE
  5
EF62
  8
0
 10
4136.1856648854909508
 20
214.6507801720171074
 30
0.0
 11
4136.1856648854909508
 21
215.0196774041170897
 31
0.0
  0
LINE
  5
EF63
  8
0
 10
4136.210324134091934
 20
214.6507801720171074
 30
0.0
 11
4136.210324134091934
 21
215.0196774041170897
 31
0.0
  0
LINE
  5
EF64
  8
0
 10
4136.2148105152919015
 20
214.6507801720171074
 30
0.0
 11
4136.2148105152919015
 21
215.0196774041170897
 31
0.0
  0
LINE
  5
EF65
  8
0
 10
4136.238747660791887
 20
214.6507801720171074
 30
0.0
 11
4136.238747660791887
 21
215.0196774041170897
 31
0.0
  0
LINE
  5
EF66
  8
0
 10
4136.2637869699919975
 20
214.6507801720171074
 30
0.0
 11
4136.2637869699919975
 21
215.0196774041170897
 31
0.0
  0
LINE
  5
EF67
  8
0
 10
4136.2852082761910424
 20
214.6507801720171074
 30
0.0
 11
4136.2852082761910424
 21
215.0196774041170897
 31
0.0
  0
LINE
  5
EF68
  8
0
 10
4136.3028115746919866
 20
214.6507801720171074
 30
0.0
 11
4136.3028115746919866
 21
215.0196774041170897
 31
0.0
  0
LINE
  5
EF69
  8
0
 10
4136.3164325079906121
 20
214.6507801720171074
 30
0.0
 11
4136.3164325079906121
 21
215.0196774041170897
 31
0.0
  0
LINE
  5
EF6A
  8
0
 10
4136.3259439012917937
 20
214.6507801720171074
 30
0.0
 11
4136.3259439012917937
 21
215.0196774041170897
 31
0.0
  0
LINE
  5
EF6B
  8
0
 10
4136.3388837431866705
 20
215.1417246482170924
 30
0.0
 11
4135.4136868927853357
 21
215.1417246482170924
 31
0.0
  0
LINE
  5
EF6C
  8
0
 10
4136.269974217086201
 20
215.1016545667170874
 30
0.0
 11
4135.4825964188867147
 21
215.1016545667170874
 31
0.0
  0
LINE
  5
EF6D
  8
0
 10
4136.2888050029860096
 20
215.0629844907170991
 30
0.0
 11
4135.4637656329859965
 21
215.0629844907170991
 31
0.0
  0
LINE
  5
EF6E
  8
0
 10
4136.269974217086201
 20
214.5688030093170937
 30
0.0
 11
4135.4825964188867147
 21
214.5688030093170937
 31
0.0
  0
LINE
  5
EF6F
  8
0
 10
4136.269974217086201
 20
214.5688030093170937
 30
0.0
 11
4136.269974217086201
 21
214.6507801720171074
 31
0.0
  0
LINE
  5
EF70
  8
0
 10
4136.2888050029860096
 20
215.0196774041170897
 30
0.0
 11
4136.2888050029860096
 21
215.0629844907170991
 31
0.0
  0
LINE
  5
EF71
  8
0
 10
4136.269974217086201
 20
215.0629844907170991
 30
0.0
 11
4136.269974217086201
 21
215.1016545667170874
 31
0.0
  0
LINE
  5
EF72
  8
0
 10
4136.2365215384861585
 20
215.1016545667170874
 30
0.0
 11
4136.2365215383861141
 21
215.1220396087205984
 31
0.0
  0
ARC
  5
EF73
  8
0
 10
4136.2562065777856333
 20
215.1220396088170901
 30
0.0
 40
0.0196850394000023
 50
90.0000322464219664
 51
180.0000002810758986
  0
LINE
  5
EF74
  8
0
 10
4136.3388837431866705
 20
215.1417246482170924
 30
0.0
 11
4136.3388837431866705
 21
215.2902289081170863
 31
0.0
  0
LINE
  5
EF75
  8
0
 10
4135.4825964188867147
 20
214.5688030093170937
 30
0.0
 11
4135.4825964188867147
 21
214.6507801720171074
 31
0.0
  0
LINE
  5
EF76
  8
0
 10
4135.4637656329859965
 20
215.0196774041170897
 30
0.0
 11
4135.4637656329859965
 21
215.0629844907170991
 31
0.0
  0
LINE
  5
EF77
  8
0
 10
4135.4825964188867147
 20
215.0629844907170991
 30
0.0
 11
4135.4825964188867147
 21
215.1016545667170874
 31
0.0
  0
LINE
  5
EF78
  8
0
 10
4135.5160490974858476
 20
215.1016545667170874
 30
0.0
 11
4135.516049097585892
 21
215.1220396087205984
 31
0.0
  0
ARC
  5
EF79
  8
0
 10
4135.4963640581863729
 20
215.1220396088170901
 30
0.0
 40
0.0196850394000023
 50
359.999999718924073
 51
89.9999677535780336
  0
LINE
  5
EF7A
  8
0
 10
4135.4136868927853357
 20
215.1417246482170924
 30
0.0
 11
4135.4136868927853357
 21
215.3729003941818974
 31
0.0
  0
LINE
  5
EF7B
  8
0
 10
4136.1709086404453046
 20
214.5688030093170937
 30
0.0
 11
4136.1709086404453046
 21
207.8419273711540995
 31
0.0
  0
LINE
  5
EF7C
  8
0
 10
4135.5816619955267015
 20
214.5688030093170937
 30
0.0
 11
4135.5816619955267015
 21
207.9350787206005009
 31
0.0
  0
LINE
  5
EF7D
  8
0
 10
4134.6335835663821854
 20
243.1144706551339141
 30
0.0
 11
4134.6043135072868608
 21
243.2237073568101096
 31
0.0
  0
LINE
  5
EF7E
  8
0
 10
4134.4315150225856996
 20
242.9661978934171032
 30
0.0
 11
4134.4939111406984011
 21
242.6873750262203089
 31
0.0
  0
ARC
  5
EF7F
  8
0
 10
4134.4650962819596316
 20
242.6809267196404107
 30
0.0
 40
0.0295275590222201
 50
284.998796079366798
 51
12.6140559778535994
  0
LINE
  5
EF80
  8
0
 10
4134.4727379772857603
 20
242.6524051272170936
 30
0.0
 11
4133.738494344161154
 21
242.4511157251683073
 31
0.0
  0
ARC
  5
EF81
  8
0
 10
4133.7555572782148374
 20
242.4944279303028054
 30
0.0
 40
0.0465520228578253
 50
200.8285578393179094
 51
248.4979356058337032
  0
LINE
  5
EF82
  8
0
 10
4133.7120474968569397
 20
242.4778752943092002
 30
0.0
 11
4133.6202995432740863
 21
242.7708952618567082
 31
0.0
  0
ARC
  5
EF83
  8
0
 10
4004.9224063458759701
 20
206.5601397070142866
 30
0.0
 40
134.4040320434193063
 50
13.3476817088111002
 51
15.5677903355002893
  0
ARC
  5
EF84
  8
0
 10
4119.246363839208243
 20
234.4949183605174881
 30
0.0
 40
16.7378187222437909
 50
356.0580493552071744
 51
10.6513022571299096
  0
ARC
  5
EF85
  8
0
 10
4102.1023190234982394
 20
237.2085735916554938
 30
0.0
 40
34.0621757037461492
 50
338.0498802989920932
 51
353.4858440824809236
  0
ARC
  5
EF86
  8
0
 10
4096.7766658465643559
 20
239.7103375355538901
 30
0.0
 40
39.9382885977336528
 50
325.5972109125031011
 51
337.5769064313552121
  0
ARC
  5
EF87
  8
0
 10
4178.0770413948039277
 20
183.2018749290718915
 30
0.0
 40
59.0732178763421771
 50
144.9288821317879865
 51
150.5822365097149884
  0
ARC
  5
EF88
  8
0
 10
4133.2671588549037551
 20
208.1072409350022951
 30
0.0
 40
7.8145517900007269
 50
148.2695969034255086
 51
188.4996844780851006
  0
ARC
  5
EF89
  8
0
 10
4130.4854823193863922
 20
208.1760616455171089
 30
0.0
 40
5.096179904600012
 50
193.8953339280485011
 51
239.4703758151300121
  0
ARC
  5
EF8A
  8
0
 10
4130.4854823193591074
 20
208.1760616454363912
 30
0.0
 40
5.0961799045164842
 50
239.4703758149456974
 51
288.3140800210799739
  0
ARC
  5
EF8B
  8
0
 10
4130.4854823194909841
 20
208.1760616454178034
 30
0.0
 40
5.0961799044574168
 50
288.3140800197601834
 51
324.3440899805638082
  0
ARC
  5
EF8C
  8
0
 10
4130.4247189084380807
 20
208.2079654736506029
 30
0.0
 40
5.1641581292082179
 50
324.4494591263471079
 51
356.9709399956341258
  0
ARC
  5
EF8D
  8
0
 10
4004.3529793736288411
 20
206.403555548600707
 30
0.0
 40
134.4040320434193063
 50
13.3476817088111002
 51
15.5677903355002893
  0
ARC
  5
EF8E
  8
0
 10
4118.6769368669602045
 20
234.3383342021037947
 30
0.0
 40
16.7378187222437909
 50
356.0580493552071744
 51
10.6513022571299096
  0
ARC
  5
EF8F
  8
0
 10
4097.528901160049827
 20
238.4320609882726103
 30
0.0
 40
38.2078872159821472
 50
338.2880130313101859
 51
352.1107261275557789
  0
ARC
  5
EF90
  8
0
 10
4090.2865331628390777
 20
243.4253904637120911
 30
0.0
 40
46.8247166911073407
 50
325.891316826149307
 51
335.8892215193811239
  0
ARC
  5
EF91
  8
0
 10
4165.751872232270216
 20
190.7469886288936891
 30
0.0
 40
45.2175390196835565
 50
144.2462030591360929
 51
151.4955810581840012
  0
ARC
  5
EF92
  8
0
 10
4134.2194334184923719
 20
207.9092724383791904
 30
0.0
 40
9.3172165747570332
 50
151.7031899255642884
 51
186.8646717441448004
  0
ARC
  5
EF93
  8
0
 10
4130.4931469730863682
 20
208.1833803446162108
 30
0.0
 40
5.6957816087648361
 50
194.101736262858708
 51
232.5757894219723028
  0
ARC
  5
EF94
  8
0
 10
4130.4856078419061305
 20
208.1755279792205044
 30
0.0
 40
5.684964104164302
 50
232.5880376749225888
 51
270.3792984339943928
  0
ARC
  5
EF95
  8
0
 10
4130.4852517054296186
 20
208.1763466358196979
 30
0.0
 40
5.6857851112497073
 50
270.3828325381832087
 51
320.6589402015163159
  0
ARC
  5
EF96
  8
0
 10
4130.3962346724338204
 20
208.2282959913756031
 30
0.0
 40
5.787585001321041
 50
320.8198525794400098
 51
356.1721914450004078
  0
ENDSEC
  0
EOF
