  0
SECTION
  2
HEADER
  9
$ACADVER
  1
AC1009
  9
$INSBASE
 10
4161.5563464382439633
 20
214.6949852580295044
 30
0.0
  9
$EXTMIN
 10
4155.7689448633927896
 20
201.1856813382296139
 30
0.0
  9
$EXTMAX
 10
4167.3437480130942276
 20
251.0429197933056003
 30
0.0
  9
$LIMMIN
 10
0.0
 20
0.0
  9
$LIMMAX
 10
11.6929133858000007
 20
8.2677165353999982
  9
$ORTHOMODE
 70
     0
  9
$REGENMODE
 70
     1
  9
$FILLMODE
 70
     1
  9
$QTEXTMODE
 70
     0
  9
$MIRRTEXT
 70
     0
  9
$DRAGMODE
 70
     2
  9
$LTSCALE
 40
0.6431102362
  9
$OSMODE
 70
  3839
  9
$ATTMODE
 70
     1
  9
$TEXTSIZE
 40
0.2
  9
$TRACEWID
 40
0.05
  9
$TEXTSTYLE
  7
STANDARD
  9
$CLAYER
  8
0
  9
$CELTYPE
  6
BYLAYER
  9
$CECOLOR
 62
   256
  9
$DIMSCALE
 40
1.0
  9
$DIMASZ
 40
0.1875
  9
$DIMEXO
 40
0.0625
  9
$DIMDLI
 40
0.4443307087
  9
$DIMRND
 40
0.0
  9
$DIMDLE
 40
0.0
  9
$DIMEXE
 40
0.125
  9
$DIMTP
 40
0.01
  9
$DIMTM
 40
0.01
  9
$DIMTXT
 40
2.0
  9
$DIMCEN
 40
0.1052362205
  9
$DIMTSZ
 40
0.0
  9
$DIMTOL
 70
     1
  9
$DIMLIM
 70
     0
  9
$DIMTIH
 70
     1
  9
$DIMTOH
 70
     1
  9
$DIMSE1
 70
     0
  9
$DIMSE2
 70
     0
  9
$DIMTAD
 70
     0
  9
$DIMZIN
 70
     0
  9
$DIMBLK
  1

  9
$DIMASO
 70
     1
  9
$DIMSHO
 70
     1
  9
$DIMPOST
  1
\X
  9
$DIMAPOST
  1

  9
$DIMALT
 70
     1
  9
$DIMALTD
 70
     2
  9
$DIMALTF
 40
25.3999999999999986
  9
$DIMLFAC
 40
1.0
  9
$DIMTOFL
 70
     0
  9
$DIMTVP
 40
0.0
  9
$DIMTIX
 70
     0
  9
$DIMSOXD
 70
     0
  9
$DIMSAH
 70
     0
  9
$DIMBLK1
  1

  9
$DIMBLK2
  1

  9
$DIMSTYLE
  2
STANDARD
  9
$DIMCLRD
 70
     0
  9
$DIMCLRE
 70
     0
  9
$DIMCLRT
 70
     0
  9
$DIMTFAC
 40
1.0
  9
$DIMGAP
 40
0.09
  9
$LUNITS
 70
     2
  9
$LUPREC
 70
     4
  9
$SKETCHINC
 40
0.1
  9
$FILLETRAD
 40
0.0
  9
$AUNITS
 70
     0
  9
$AUPREC
 70
     0
  9
$MENU
  1
.
  9
$ELEVATION
 40
0.0
  9
$PELEVATION
 40
0.0
  9
$THICKNESS
 40
0.0
  9
$LIMCHECK
 70
     0
  9
$BLIPMODE
 70
     0
  9
$CHAMFERA
 40
0.0
  9
$CHAMFERB
 40
0.0
  9
$SKPOLY
 70
     0
  9
$TDCREATE
 40
2458060.468368056230247
  9
$TDUPDATE
 40
2459137.8442592588253319
  9
$TDINDWG
 40
0.5984908565
  9
$TDUSRTIMER
 40
0.5984908565
  9
$USRTIMER
 70
     1
  9
$ANGBASE
 50
0.0
  9
$ANGDIR
 70
     0
  9
$PDMODE
 70
     0
  9
$PDSIZE
 40
0.3125
  9
$PLINEWID
 40
0.0
  9
$COORDS
 70
     1
  9
$SPLFRAME
 70
     0
  9
$SPLINETYPE
 70
     6
  9
$SPLINESEGS
 70
     8
  9
$ATTDIA
 70
     1
  9
$ATTREQ
 70
     1
  9
$HANDLING
 70
     1
  9
$HANDSEED
  5
F476
  9
$SURFTAB1
 70
     6
  9
$SURFTAB2
 70
     6
  9
$SURFTYPE
 70
     6
  9
$SURFU
 70
     6
  9
$SURFV
 70
     6
  9
$UCSNAME
  2

  9
$UCSORG
 10
0.0
 20
0.0
 30
0.0
  9
$UCSXDIR
 10
1.0
 20
0.0
 30
0.0
  9
$UCSYDIR
 10
0.0
 20
1.0
 30
0.0
  9
$PUCSNAME
  2

  9
$PUCSORG
 10
0.0
 20
0.0
 30
0.0
  9
$PUCSXDIR
 10
1.0
 20
0.0
 30
0.0
  9
$PUCSYDIR
 10
0.0
 20
1.0
 30
0.0
  9
$USERI1
 70
     0
  9
$USERI2
 70
     0
  9
$USERI3
 70
     0
  9
$USERI4
 70
     0
  9
$USERI5
 70
     0
  9
$USERR1
 40
0.0
  9
$USERR2
 40
0.0
  9
$USERR3
 40
0.0
  9
$USERR4
 40
0.0
  9
$USERR5
 40
0.0
  9
$WORLDVIEW
 70
     1
  9
$SHADEDGE
 70
     3
  9
$SHADEDIF
 70
    70
  9
$TILEMODE
 70
     1
  9
$MAXACTVP
 70
    64
  9
$PLIMCHECK
 70
     0
  9
$PEXTMIN
 10
1.0000000000000000E+20
 20
1.0000000000000000E+20
 30
1.0000000000000000E+20
  9
$PEXTMAX
 10
-1.0000000000000000E+20
 20
-1.0000000000000000E+20
 30
-1.0000000000000000E+20
  9
$PLIMMIN
 10
0.0
 20
0.0
  9
$PLIMMAX
 10
12.0
 20
9.0
  9
$UNITMODE
 70
     0
  9
$VISRETAIN
 70
     1
  9
$PLINEGEN
 70
     0
  9
$PSLTSCALE
 70
     1
  0
ENDSEC
  0
SECTION
  2
TABLES
  0
TABLE
  2
VPORT
 70
     1
  0
VPORT
  2
*ACTIVE
 70
     0
 10
0.0
 20
0.0
 11
1.0
 21
1.0
 12
0.0
 22
0.0
 13
0.0
 23
0.0
 14
1.0
 24
1.0
 15
0.0
 25
0.0
 16
0.0
 26
0.0
 36
202.37134017897489
 17
4161.556396484375
 27
226.1108322143554972
 37
0.0
 40
51.176418946537531
 41
3.1396160558464219
 42
50.0
 43
0.0
 44
0.0
 50
0.0
 51
0.0
 71
     0
 72
   100
 73
     1
 74
     1
 75
     0
 76
     0
 77
     0
 78
     0
  0
ENDTAB
  0
TABLE
  2
LTYPE
 70
     2
  0
LTYPE
  2
CONTINUOUS
 70
     0
  3
Solid line
 72
    65
 73
     0
 40
0.0
  0
LTYPE
  2
PHANTOM2
 70
     0
  3
___ _ _ ___ _ _ ___ _ _ ___ _ _
 72
    65
 73
     6
 40
1.25
 49
0.625
 49
-0.125
 49
0.125
 49
-0.125
 49
0.125
 49
-0.125
  0
ENDTAB
  0
TABLE
  2
LAYER
 70
     2
  0
LAYER
  2
0
 70
     0
 62
   255
  6
CONTINUOUS
  0
LAYER
  2
DEFPOINTS
 70
     0
 62
     7
  6
CONTINUOUS
  0
ENDTAB
  0
TABLE
  2
STYLE
 70
     1
  0
STYLE
  2
STANDARD
 70
     0
 40
0.0
 41
0.8
 50
0.0
 71
     0
 42
0.2
  3
txt
  4

  0
ENDTAB
  0
TABLE
  2
VIEW
 70
     0
  0
ENDTAB
  0
TABLE
  2
UCS
 70
     0
  0
ENDTAB
  0
TABLE
  2
APPID
 70
     9
  0
APPID
  2
ACAD
 70
     0
  0
APPID
  2
ACAD_MLEADERVER
 70
     0
  0
APPID
  2
ACAD_EXEMPT_FROM_CAD_STANDARDS
 70
     0
  0
APPID
  2
ACAD_NAV_VCDISPLAY
 70
     0
  0
APPID
  2
ACAECLAYERSTANDARD
 70
     0
  0
APPID
  2
ACCMTRANSPARENCY
 70
     0
  0
APPID
  2
ACAD_DSTYLE_DIMJAG
 70
     0
  0
APPID
  2
ACAD_DSTYLE_DIMTALN
 70
     0
  0
APPID
  2
ACDBATTR
 70
     0
  0
ENDTAB
  0
TABLE
  2
DIMSTYLE
 70
     1
  0
DIMSTYLE
  2
STANDARD
 70
     0
  3

  4

  5

  6

  7

 40
1.0
 41
0.1875
 42
0.0625
 43
0.38
 44
0.125
 45
0.0
 46
0.0
 47
0.01
 48
0.01
140
0.15625
141
0.09
142
0.0
143
25.3999999999999986
144
1.0
145
0.0
146
1.0
147
0.09
 71
     1
 72
     0
 73
     1
 74
     1
 75
     0
 76
     0
 77
     0
 78
     4
170
     0
171
     2
172
     0
173
     0
174
     0
175
     0
176
     0
177
     0
178
     0
  0
ENDTAB
  0
ENDSEC
  0
SECTION
  2
BLOCKS
  0
BLOCK
  8
0
  2
$MODEL_SPACE
 70
     0
 10
0.0
 20
0.0
 30
0.0
  3
$MODEL_SPACE
  1

  0
ENDBLK
  5
21
  8
0
  0
BLOCK
 67
     1
  8
0
  2
$PAPER_SPACE
 70
     0
 10
0.0
 20
0.0
 30
0.0
  3
$PAPER_SPACE
  1

  0
ENDBLK
  5
1D
 67
     1
  8
0
  0
BLOCK
  8
0
  2
_FILLED
 70
     0
 10
0.0
 20
0.0
 30
0.0
  3
_FILLED
  1

  0
SOLID
  5
6F59
  8
0
  6
BYBLOCK
 62
     0
 10
0.0
 20
0.0
 30
0.0
 11
-1.0
 21
0.1666666667
 31
0.0
 12
-1.0
 22
-0.1666666667
 32
0.0
 13
-1.0
 23
-0.1666666667
 33
0.0
  0
ENDBLK
  5
6F5A
  8
0
  6
BYBLOCK
 62
     0
  0
ENDSEC
  0
SECTION
  2
ENTITIES
  0
ATTDEF
  5
3930
  8
DEFPOINTS
 10
4161.5565552108391785
 20
214.6936503214529921
 30
0.0
 40
0.001
  1
K-72699T-B4
  3

  2
MODELNUMBER
 70
     0
1001
ACDBATTR
1070
     0
1070
     1
  0
ATTDEF
  5
3931
  8
DEFPOINTS
 10
4161.5565552108391785
 20
214.6919836547862985
 30
0.0
 40
0.001
  1
ARCHER
  3

  2
TRADENAME
 70
     0
1001
ACDBATTR
1070
     0
1070
     1
  0
ATTDEF
  5
3932
  8
DEFPOINTS
 10
4161.5565552108391785
 20
214.6903169881196902
 30
0.0
 40
0.001
  1
BATH AND SHOWER FAUCET
  3

  2
PRODUCT
 70
     0
1001
ACDBATTR
1070
     0
1070
     1
  0
ARC
  5
EA65
  8
0
 10
4162.3095066950836554
 20
248.7721731099144904
 30
0.0
 40
1.6504609106862129
 50
0.4062606031087292
 51
20.522851082860349
  0
ARC
  5
EA66
  8
0
 10
4162.1856962261872468
 20
248.7951076312087935
 30
0.0
 40
1.774265441902416
 50
312.9209016605286138
 51
359.637289927430686
  0
ARC
  5
EA67
  8
0
 10
4161.6230949534538013
 20
248.0305422173506997
 30
0.0
 40
2.4148958986006068
 50
56.874667445936872
 51
77.9211978232608118
  0
ARC
  5
EA68
  8
0
 10
4161.9339261158556837
 20
248.4873753052781069
 30
0.0
 40
1.8624785417684779
 50
28.0144810021389787
 51
57.2028318974541179
  0
ARC
  5
EA69
  8
0
 10
4162.2742911444538549
 20
248.6782738897449008
 30
0.0
 40
1.4723558868678699
 50
352.7363131247589081
 51
27.6773586488641286
  0
ARC
  5
EA6A
  8
0
 10
4162.0497364525481316
 20
248.7586937379599021
 30
0.0
 40
1.7060503807259111
 50
302.9481880641760085
 51
351.010422796392902
  0
ARC
  5
EA6B
  8
0
 10
4161.6300294025186304
 20
248.0377634609037898
 30
0.0
 40
2.4218215753272472
 50
56.4926441133786525
 51
76.7684699477432133
  0
ARC
  5
EA6C
  8
0
 10
4162.0426566974219895
 20
248.5951583013726065
 30
0.0
 40
1.729650951946285
 50
17.0353286671630109
 51
57.6967934810530281
  0
ARC
  5
EA6D
  8
0
 10
4162.3358023496557507
 20
248.6627534783659996
 30
0.0
 40
1.4297224420857939
 50
331.2935362727058077
 51
17.8869863918215906
  0
ARC
  5
EA6E
  8
0
 10
4161.846896793183987
 20
248.9488313044157053
 30
0.0
 40
1.996011993726291
 50
292.7088597832993173
 51
330.8318307138118826
  0
ARC
  5
EA6F
  8
0
 10
4161.4063308622999102
 20
249.1206761186869869
 30
0.0
 40
0.1307033241075983
 50
103.7123835193726933
 51
134.565771758940798
  0
ARC
  5
EA70
  8
0
 10
4161.4032910510286456
 20
249.1295195589358116
 30
0.0
 40
0.1223364621502301
 50
136.4582268263262108
 51
195.9317628418166066
  0
ARC
  5
EA71
  8
0
 10
4161.4060486362750453
 20
249.1379217194831881
 30
0.0
 40
0.1275048909555202
 50
199.2240194827720927
 51
273.8259164365512106
  0
ARC
  5
EA72
  8
0
 10
4161.413583616716096
 20
249.0941147449487971
 30
0.0
 40
0.0848405799117859
 50
54.4928582906560806
 51
143.0944207783448121
  0
ARC
  5
EA73
  8
0
 10
4161.3927661224106487
 20
249.1176513667035977
 30
0.0
 40
0.0544287955943765
 50
149.7619735020882956
 51
242.3282828798355126
  0
ARC
  5
EA74
  8
0
 10
4161.4065022213444536
 20
249.0896534012302084
 30
0.0
 40
0.133416026159747
 50
92.6353507398124236
 51
145.4080866904085099
  0
ARC
  5
EA75
  8
0
 10
4161.3711803572314238
 20
249.1179748638299998
 30
0.0
 40
0.0883198510123077
 50
147.52440212243161
 51
194.4478751759401973
  0
LINE
  5
EA76
  8
0
 10
4161.4088176966843093
 20
249.1773106835356089
 30
0.0
 11
4161.4206287202832755
 21
249.1773106835356089
 31
0.0
  0
LINE
  5
EA77
  8
0
 10
4161.4206287202832755
 20
249.1773106835356089
 30
0.0
 11
4161.4206287202832755
 21
249.1583882092355964
 31
0.0
  0
LINE
  5
EA78
  8
0
 10
4161.4206287202832755
 20
249.1583882092355964
 30
0.0
 11
4161.4088176966843093
 21
249.1583882092355964
 31
0.0
  0
LINE
  5
EA79
  8
0
 10
4161.4088176966843093
 20
249.1583882092355964
 30
0.0
 11
4161.4088176966843093
 21
249.1773106835356089
 31
0.0
  0
LINE
  5
EA7A
  8
0
 10
4161.4088176966843093
 20
249.1616437685356118
 30
0.0
 11
4161.4206287202832755
 21
249.1616437685356118
 31
0.0
  0
LINE
  5
EA7B
  8
0
 10
4161.3850581806500486
 20
249.1740160809638951
 30
0.0
 11
4161.385759745330688
 21
249.1579256886427913
 31
0.0
  0
LINE
  5
EA7C
  8
0
 10
4161.385759745330688
 20
249.1579256886427913
 30
0.0
 11
4161.3817750356556644
 21
249.1577519494622948
 31
0.0
  0
LINE
  5
EA7D
  8
0
 10
4161.3738307054118195
 20
249.1603945729924021
 30
0.0
 11
4161.3734612314383412
 21
249.1688684619089997
 31
0.0
  0
LINE
  5
EA7E
  8
0
 10
4161.3856180470902473
 20
249.1611755390914027
 30
0.0
 11
4161.3738172977482463
 21
249.1607020778718038
 31
0.0
  0
ARC
  5
EA7F
  8
0
 10
4161.4352377747782157
 20
249.1189375235908869
 30
0.0
 40
0.0521558269405727
 50
320.8322349223108745
 51
58.0216964982262482
  0
ARC
  5
EA80
  8
0
 10
4161.4115215560786964
 20
249.1434904048277019
 30
0.0
 40
0.0861460200966316
 50
239.2603927327944007
 51
318.1330262593144766
  0
LINE
  5
EA81
  8
0
 10
4161.4443471855947791
 20
249.1731813423816106
 30
0.0
 11
4161.4436820167384212
 21
249.1579256886427913
 31
0.0
  0
LINE
  5
EA82
  8
0
 10
4161.4436820167384212
 20
249.1579256886427913
 30
0.0
 11
4161.4442648485783138
 21
249.1579002763205892
 31
0.0
  0
LINE
  5
EA83
  8
0
 10
4161.4556799307301844
 20
249.1619742004345142
 30
0.0
 11
4161.4559266790647598
 21
249.1676333757216923
 31
0.0
  0
LINE
  5
EA84
  8
0
 10
4161.4438237149797715
 20
249.1611755390914027
 30
0.0
 11
4161.4528073457740902
 21
249.1608151042860015
 31
0.0
  0
ARC
  5
EA85
  8
0
 10
4161.411224157261131
 20
249.1095982897653016
 30
0.0
 40
0.1426412300706971
 50
49.9045139838655487
 51
104.5671236886623063
  0
ARC
  5
EA86
  8
0
 10
4161.4219415471034154
 20
249.1270350911138109
 30
0.0
 40
0.1224374295904077
 50
348.3456831360927026
 51
1.2021168861737761
  0
ARC
  5
EA87
  8
0
 10
4161.4119087821727589
 20
249.1181113881968088
 30
0.0
 40
0.1357786026604995
 50
27.9521368331633511
 51
47.8113443842272403
  0
ARC
  5
EA88
  8
0
 10
4161.4203707636170293
 20
249.1368749287379103
 30
0.0
 40
0.1263078381141446
 50
267.3615683089226991
 51
344.1142463136745278
  0
ARC
  5
EA89
  8
0
 10
4161.4156616527643564
 20
249.084286689538402
 30
0.0
 40
0.1394826292475497
 50
34.7690717381237704
 51
96.2949502175381156
  0
ARC
  5
EA8A
  8
0
 10
4161.4547893989329168
 20
249.1189125160225899
 30
0.0
 40
0.0878090318866278
 50
341.3475131349418916
 51
30.7658038954048294
  0
ARC
  5
EA8B
  8
0
 10
4161.2448576091046561
 20
250.2917181108579996
 30
0.0
 40
1.1577454335051161
 50
284.3524978711660083
 51
290.0886769590258041
  0
ARC
  5
EA8C
  8
0
 10
4161.2469891798227764
 20
250.2913201163071903
 30
0.0
 40
1.199170371715728
 50
284.242467782603228
 51
290.218550071962909
  0
ARC
  5
EA8D
  8
0
 10
4161.716186173243841
 20
249.2254532655501009
 30
0.0
 40
0.0807996941948062
 50
227.332616154357197
 51
296.4108812803202113
  0
LINE
  5
EA8E
  8
0
 10
4161.7521263038051984
 20
249.1530868534709953
 30
0.0
 11
4161.8497901269938666
 21
249.0852754357098888
 31
0.0
  0
ARC
  5
EA8F
  8
0
 10
4161.7097690956534279
 20
249.2085974567156939
 30
0.0
 40
0.0673863087144047
 50
107.6969858066232035
 51
183.5649128373825931
  0
LINE
  5
EA90
  8
0
 10
4161.6892848071938715
 20
249.272794875109895
 30
0.0
 11
4161.6917799638940778
 21
249.2854581908098908
 31
0.0
  0
LINE
  5
EA91
  8
0
 10
4161.7693237412941016
 20
249.2743821370098942
 30
0.0
 11
4161.7668287246942782
 21
249.2617195331098969
 31
0.0
  0
ARC
  5
EA92
  8
0
 10
4161.7308768843131475
 20
249.2125652230886033
 30
0.0
 40
0.0608989410448171
 50
332.1306286648759283
 51
53.8179753361236806
  0
LINE
  5
EA93
  8
0
 10
4161.7847125009939191
 20
249.1840975678099142
 30
0.0
 11
4161.8756239766971703
 21
249.1210131060701087
 31
0.0
  0
LINE
  5
EA94
  8
0
 10
4162.097190217890784
 20
249.0177630679978904
 30
0.0
 11
4162.2036866111493509
 21
248.9881540822889008
 31
0.0
  0
ARC
  5
EA95
  8
0
 10
4162.2700457516875758
 20
248.934297950912395
 30
0.0
 40
0.0854635502422296
 50
77.525866983244029
 51
140.9377088522774102
  0
LINE
  5
EA96
  8
0
 10
4162.2885057784933451
 20
249.017744016309905
 30
0.0
 11
4162.2995130976978544
 21
249.0264265115127102
 31
0.0
  0
LINE
  5
EA97
  8
0
 10
4162.0779723808636845
 20
248.9792201167645089
 30
0.0
 11
4162.1903311973928794
 21
248.9481480309098913
 31
0.0
  0
ARC
  5
EA98
  8
0
 10
4162.2529477463349394
 20
248.9537747355319084
 30
0.0
 40
0.0628688476602085
 50
185.1347907394072934
 51
266.8860491865586937
  0
LINE
  5
EA99
  8
0
 10
4162.2495325883928672
 20
248.8909987154098928
 30
0.0
 11
4162.2734768872169298
 21
248.7873347421192989
 31
0.0
  0
LINE
  5
EA9A
  8
0
 10
4162.3187429629851977
 20
248.8021104280786062
 30
0.0
 11
4162.2965003811941642
 21
248.8985555905098863
 31
0.0
  0
ARC
  5
EA9B
  8
0
 10
4162.2715990497008534
 20
248.9617232816667922
 30
0.0
 40
0.06789870040112
 50
291.5148516102814256
 51
6.0547902585198843
  0
LINE
  5
EA9C
  8
0
 10
4162.3504735474944027
 20
248.9771872720098997
 30
0.0
 11
4162.3391189761241549
 21
248.9688851991039087
 31
0.0
  0
ARC
  5
EA9D
  8
0
 10
4162.2675231733992405
 20
248.9449461454474033
 30
0.0
 40
0.0477087899449882
 50
62.1310083882587989
 51
153.3222261351095028
  0
ARC
  5
EA9E
  8
0
 10
4162.2747866911040546
 20
248.9569929121940959
 30
0.0
 40
0.0336731442154511
 50
310.6401784278851892
 51
63.4750102329543324
  0
ARC
  5
EA9F
  8
0
 10
4162.2625663525632262
 20
249.005883256107694
 30
0.0
 40
0.048731874135576
 50
224.7300262637396031
 51
323.7062079459756205
  0
ARC
  5
EAA0
  8
0
 10
4161.5993147356448389
 20
248.8598933890334024
 30
0.0
 40
0.0817117776088358
 50
138.7274676033979972
 51
189.8543637202054981
  0
ARC
  5
EAA1
  8
0
 10
4161.5929324523067407
 20
248.8301741810869032
 30
0.0
 40
0.0757755593896574
 50
84.6584174491642187
 51
168.0154058846675866
  0
ARC
  5
EAA2
  8
0
 10
4161.5948118849901221
 20
248.2104187718938988
 30
0.0
 40
1.0781801474241539
 50
49.1862330485042776
 51
80.6852545060509954
  0
ARC
  5
EAA3
  8
0
 10
4161.8344612069058712
 20
248.4657960277843927
 30
0.0
 40
0.7264913903894124
 50
3.612390475303437
 51
44.7422945210706118
  0
ARC
  5
EAA4
  8
0
 10
4163.0734077308188716
 20
249.0273211980623103
 30
0.0
 40
0.7879662102405904
 50
212.7429791416574858
 51
219.1059349543000963
  0
ARC
  5
EAA5
  8
0
 10
4162.4875042360326916
 20
248.4533944457074881
 30
0.0
 40
0.0810428801064289
 50
44.6691919698409876
 51
108.3718868355060039
  0
LINE
  5
EAA6
  8
0
 10
4162.5451401159943998
 20
248.51036859560989
 30
0.0
 11
4162.5595091506929748
 21
248.5115695957098865
 31
0.0
  0
ARC
  5
EAA7
  8
0
 10
4163.0554550224951527
 20
249.0225899300108097
 30
0.0
 40
0.8170337521016428
 50
212.5658544113387052
 51
219.2319681086644039
  0
ARC
  5
EAA8
  8
0
 10
4162.4585376015147631
 20
248.4685468271360094
 30
0.0
 40
0.0518049444705608
 50
133.9437948784236028
 51
226.0604652549999969
  0
ARC
  5
EAA9
  8
0
 10
4161.555736336256814
 20
248.0842026402170859
 30
0.0
 40
1.2089345583820521
 50
83.5387143933179459
 51
112.7172094425853999
  0
ARC
  5
EAAA
  8
0
 10
4161.8043772696119049
 20
248.5381670796751052
 30
0.0
 40
0.853551065253095
 50
301.577987967932188
 51
354.1195406503197773
  0
ARC
  5
EAAB
  8
0
 10
4161.8119254632219963
 20
248.4711071523838086
 30
0.0
 40
0.8417583004174909
 50
358.6120379275644723
 51
60.4174333243554287
  0
ARC
  5
EAAC
  8
0
 10
4161.9609326531235638
 20
248.9917165492194044
 30
0.0
 40
1.9280168049944419
 50
10.7335210023203604
 51
37.3006191964563527
  0
ARC
  5
EAAD
  8
0
 10
4161.7888805652073643
 20
248.8174438238276878
 30
0.0
 40
2.1707593328682488
 50
38.2077026295658513
 51
64.5911542040119997
  0
ARC
  5
EAAE
  8
0
 10
4161.5930088483892177
 20
248.4444220822811928
 30
0.0
 40
2.591796816250008
 50
64.2181977749060451
 51
78.1132190014918706
  0
ARC
  5
EAAF
  8
0
 10
4163.0212133843961055
 20
247.6176581086681949
 30
0.0
 40
0.0163075007463187
 50
312.4321467855859282
 51
37.5996950543634014
  0
ARC
  5
EAB0
  8
0
 10
4163.0140831377848372
 20
247.6252815871989981
 30
0.0
 40
0.0267453745575686
 50
217.5923314898466003
 51
312.6870406153090016
  0
ARC
  5
EAB1
  8
0
 10
4163.0061743289998049
 20
247.6177149641885933
 30
0.0
 40
0.0159058808929741
 50
153.7770878470522007
 51
213.370753392602694
  0
ARC
  5
EAB2
  8
0
 10
4163.0140788576309205
 20
247.6105612510687024
 30
0.0
 40
0.0263208626621462
 50
40.3647263624424113
 51
147.3972936572021979
  0
ARC
  5
EAB3
  8
0
 10
4163.0201759670117099
 20
247.6374136375669934
 30
0.0
 40
0.0638081396161144
 50
297.0523826459893826
 51
345.8703988503760911
  0
ARC
  5
EAB4
  8
0
 10
4163.013499826338375
 20
247.6681817354775035
 30
0.0
 40
0.0945892540384408
 50
239.1918360515415998
 51
292.1716863631227739
  0
ARC
  5
EAB5
  8
0
 10
4162.9887099586530894
 20
247.6245810386822939
 30
0.0
 40
0.044456821179572
 50
189.4396215744071981
 51
237.8525666187902914
  0
LINE
  5
EAB6
  8
0
 10
4162.9448551281147957
 20
247.6172897570477005
 30
0.0
 11
4162.940476012840918
 21
247.6374532701516955
 31
0.0
  0
ARC
  5
EAB7
  8
0
 10
4162.990557193841596
 20
247.6399690768130881
 30
0.0
 40
0.0501443314197459
 50
121.4836442636170943
 51
182.8758115025869984
  0
ARC
  5
EAB8
  8
0
 10
4163.028218987315995
 20
247.5923369068231921
 30
0.0
 40
0.1106707662852213
 50
86.165994162197336
 51
125.2353114832365009
  0
ARC
  5
EAB9
  8
0
 10
4163.0352959779884259
 20
247.6415826401573952
 30
0.0
 40
0.0611782005019706
 50
37.9295526475360916
 51
89.6973732047843555
  0
ARC
  5
EABA
  8
0
 10
4163.0525489184456092
 20
247.6610564214387011
 30
0.0
 40
0.0359154315365556
 50
351.3163852515016856
 51
30.3215266097318512
  0
LINE
  5
EABB
  8
0
 10
4163.0880526551045477
 20
247.6556339768204964
 30
0.0
 11
4163.0820536567789532
 21
247.6218370464684995
 31
0.0
  0
ARC
  5
EABC
  8
0
 10
4163.03115788723062
 20
247.6278462788530987
 30
0.0
 40
0.0512492949402101
 50
353.2662970031108216
 51
44.9297726543164728
  0
ARC
  5
EABD
  8
0
 10
4163.01386150586859
 20
247.6063846793389871
 30
0.0
 40
0.0787080853961828
 50
47.0987483063922525
 51
139.9811637228908978
  0
ARC
  5
EABE
  8
0
 10
4162.9968354170187013
 20
247.6266757401174061
 30
0.0
 40
0.0528208965833013
 50
144.9675257771328063
 51
190.23549990160069
  0
ARC
  5
EABF
  8
0
 10
4162.2620225231039512
 20
248.9666255284053022
 30
0.0
 40
0.0494138302056576
 50
248.9587788813747125
 51
314.5994035460573173
  0
ARC
  5
EAC0
  8
0
 10
4162.2563309313663922
 20
248.9526288108390872
 30
0.0
 40
0.0343080724756365
 50
156.3962432477123059
 51
249.4376095737083858
  0
ARC
  5
EAC1
  8
0
 10
4161.7202925026276716
 20
249.1999447950693138
 30
0.0
 40
0.0477087899449882
 50
62.1310083882587989
 51
153.3222261351095028
  0
ARC
  5
EAC2
  8
0
 10
4161.7275560203333953
 20
249.2119915618160917
 30
0.0
 40
0.0336731442154511
 50
310.6401784278851892
 51
63.4750102329543324
  0
ARC
  5
EAC3
  8
0
 10
4161.7153356817925669
 20
249.2608819057296898
 30
0.0
 40
0.048731874135576
 50
224.7300262637396031
 51
323.7062079459756205
  0
ARC
  5
EAC4
  8
0
 10
4161.7147918523342014
 20
249.2216241780272981
 30
0.0
 40
0.0494138302056576
 50
248.9587788813747125
 51
314.5994035460573173
  0
ARC
  5
EAC5
  8
0
 10
4161.7091002605966423
 20
249.2076274604611115
 30
0.0
 40
0.0343080724756365
 50
156.3962432477123059
 51
249.4376095737083858
  0
ARC
  5
EAC6
  8
0
 10
4162.4854893765950692
 20
248.4573022592080065
 30
0.0
 40
0.0512395966330001
 50
69.9691063176029786
 51
147.509852542102692
  0
ARC
  5
EAC7
  8
0
 10
4162.4940336889330865
 20
248.4758799266068934
 30
0.0
 40
0.0309039089840935
 50
304.9724894392144279
 51
73.055840562124061
  0
ARC
  5
EAC8
  8
0
 10
4162.4785220723460952
 20
248.5276460035659056
 30
0.0
 40
0.050063340273229
 50
229.2193219000521083
 51
320.9483999121204079
  0
ARC
  5
EAC9
  8
0
 10
4162.4778516742953798
 20
248.4896820624643965
 30
0.0
 40
0.0517660942811221
 50
248.1701818141416993
 51
310.9032756355784954
  0
ARC
  5
EACA
  8
0
 10
4162.4681396349906208
 20
248.4699205306363865
 30
0.0
 40
0.0298567706596224
 50
150.0511146084884047
 51
251.3713686197837092
  0
ARC
  5
EACB
  8
0
 10
4161.6020956579941412
 20
248.8292298551569957
 30
0.0
 40
0.0764199297535124
 50
14.3512765872104495
 51
91.5814333675908756
  0
ARC
  5
EACC
  8
0
 10
4161.6127332909281904
 20
248.8451324189977925
 30
0.0
 40
0.063470371897021
 50
288.5520322189469198
 51
2.744720911916378
  0
ARC
  5
EACD
  8
0
 10
4161.5976774060409298
 20
248.8712217009206995
 30
0.0
 40
0.0931858053248283
 50
233.97546826298111
 51
292.2269538054368923
  0
ARC
  5
EACE
  8
0
 10
4161.5767848868008514
 20
248.8429709812332078
 30
0.0
 40
0.0580507393103484
 50
177.0990741660990011
 51
234.253804899315611
  0
ARC
  5
EACF
  8
0
 10
4161.5973389921382477
 20
248.8340628059139021
 30
0.0
 40
0.0466452535851338
 50
56.3791779487459479
 51
120.2326748442215063
  0
ARC
  5
EAD0
  8
0
 10
4161.6066287451340031
 20
248.8480339902172886
 30
0.0
 40
0.0298674855104996
 50
349.1638023361156797
 51
56.3791779487459479
  0
ARC
  5
EAD1
  8
0
 10
4161.6027512407472386
 20
248.8527008510060057
 30
0.0
 40
0.034767570704721
 50
285.3646608111246223
 51
342.7983560653294717
  0
ARC
  5
EAD2
  8
0
 10
4161.5974840730614233
 20
248.8627253865585942
 30
0.0
 40
0.0458934123654104
 50
230.6851145499431937
 51
288.3908184101596817
  0
ARC
  5
EAD3
  8
0
 10
4161.586921973454082
 20
248.849418435990998
 30
0.0
 40
0.0289073578222649
 50
181.2234412901360088
 51
230.1709566326746028
  0
ARC
  5
EAD4
  8
0
 10
4161.5884673628161181
 20
248.847628948335398
 30
0.0
 40
0.0304687169845479
 50
118.663681998798296
 51
177.7950202283398937
  0
ARC
  5
EAD5
  8
0
 10
4161.5974248585371242
 20
248.8747728975191933
 30
0.0
 40
0.0385404512653389
 50
200.3199793758001022
 51
339.2725705177300028
  0
LINE
  5
EAD6
  8
0
 10
4161.6761308497943901
 20
248.8481717673803075
 30
0.0
 11
4161.6761308497943901
 21
248.8681786760099044
 31
0.0
  0
ARC
  5
EAD7
  8
0
 10
4161.6025649949797298
 20
248.8628466826629051
 30
0.0
 40
0.0737588309793444
 50
4.145502561752985
 51
98.4981478646891588
  0
LINE
  5
EAD8
  8
0
 10
4161.591663012493882
 20
248.9223669866098874
 30
0.0
 11
4161.5916651852712675
 21
248.9363192174247956
 31
0.0
  0
ARC
  5
EAD9
  8
0
 10
4162.0979204394943736
 20
249.4453394561099913
 30
0.0
 40
0.7179108481001976
 50
214.1675752677398066
 51
225.1560379911975076
  0
ARC
  5
EADA
  8
0
 10
4162.0968733709942171
 20
249.4304844011099931
 30
0.0
 40
0.716534107400189
 50
213.291185185578712
 51
225.1643555266049077
  0
ARC
  5
EADB
  8
0
 10
4161.5969168701049057
 20
248.837117539736397
 30
0.0
 40
0.0854111870831717
 50
93.5268296628658078
 51
126.7911895897108963
  0
ARC
  5
EADC
  8
0
 10
4162.0936313147940382
 20
249.4338052690094969
 30
0.0
 40
0.7610829120994361
 50
213.2851541498577888
 51
223.9577170080881103
  0
ARC
  5
EADD
  8
0
 10
4161.7875899957680303
 20
248.7678772183878095
 30
0.0
 40
0.0779969061452228
 50
173.889233827069404
 51
186.8397192269341929
  0
ARC
  5
EADE
  8
0
 10
4161.7842720940152503
 20
248.7428536933132932
 30
0.0
 40
0.0757755593896574
 50
84.6584174491642187
 51
168.0154058846675866
  0
ARC
  5
EADF
  8
0
 10
4161.7935311516039292
 20
248.7422165788674135
 30
0.0
 40
0.0761155520284217
 50
15.7071881075711097
 51
91.6599402181670655
  0
ARC
  5
EAE0
  8
0
 10
4161.8048771833618957
 20
248.7567643603809984
 30
0.0
 40
0.0622228329240283
 50
288.156854658105317
 51
5.5874438906078581
  0
ARC
  5
EAE1
  8
0
 10
4161.7890170477476204
 20
248.7839012131470895
 30
0.0
 40
0.0931858053248283
 50
233.97546826298111
 51
292.2269538054368923
  0
ARC
  5
EAE2
  8
0
 10
4161.768124528509361
 20
248.7556504934597115
 30
0.0
 40
0.0580507393103484
 50
177.0990741660990011
 51
234.253804899315611
  0
ARC
  5
EAE3
  8
0
 10
4161.7886786338458478
 20
248.7467423181404058
 30
0.0
 40
0.0466452535851338
 50
56.3791779487459479
 51
120.2326748442215063
  0
ARC
  5
EAE4
  8
0
 10
4161.7979683868406937
 20
248.7607135024437923
 30
0.0
 40
0.0298674855104996
 50
349.1638023361156797
 51
56.3791779487459479
  0
ARC
  5
EAE5
  8
0
 10
4161.7940908824548387
 20
248.7653803632325094
 30
0.0
 40
0.034767570704721
 50
285.3646608111246223
 51
342.7983560653294717
  0
ARC
  5
EAE6
  8
0
 10
4161.7888237147681139
 20
248.7754048987850979
 30
0.0
 40
0.0458934123654104
 50
230.6851145499431937
 51
288.3908184101596817
  0
ARC
  5
EAE7
  8
0
 10
4161.7782616151625916
 20
248.7620979482175017
 30
0.0
 40
0.0289073578222649
 50
181.2234412901360088
 51
230.1709566326746028
  0
ARC
  5
EAE8
  8
0
 10
4161.7798070045237182
 20
248.760308460561788
 30
0.0
 40
0.0304687169845479
 50
118.663681998798296
 51
177.7950202283398937
  0
ARC
  5
EAE9
  8
0
 10
4161.7887645002447243
 20
248.787452409745697
 30
0.0
 40
0.0385404512653389
 50
200.3199793758001022
 51
339.2725705177300028
  0
LINE
  5
EAEA
  8
0
 10
4161.8669678044998363
 20
248.7608184575489929
 30
0.0
 11
4161.8674704915028997
 21
248.7808581882364081
 31
0.0
  0
ARC
  5
EAEB
  8
0
 10
4161.7972697826999138
 20
248.7742760099600901
 30
0.0
 40
0.0705086135676627
 50
5.3565223110710614
 51
84.739769479619909
  0
ARC
  5
EAEC
  8
0
 10
4161.4127674871579075
 20
249.2641848891921086
 30
0.0
 40
0.110853519157603
 50
244.7116774918436022
 51
295.8382182055610201
  0
ARC
  5
EAED
  8
0
 10
4161.4375092530735856
 20
249.1235427032638938
 30
0.0
 40
0.1052040742668714
 50
3.0535033458112801
 51
26.2703579541798184
  0
ARC
  5
EAEE
  8
0
 10
4161.436246503431903
 20
249.175931104059913
 30
0.0
 40
0.0957781304593816
 50
356.513670012220075
 51
3.486329987799361
  0
ARC
  5
EAEF
  8
0
 10
4161.2449681031202999
 20
250.3028817464087865
 30
0.0
 40
1.1572484529452911
 50
284.3531461425998259
 51
290.0758437085333981
  0
ARC
  5
EAF0
  8
0
 10
4161.7101545756604537
 20
249.2196858707461047
 30
0.0
 40
0.0680477400831191
 50
105.7118036025975982
 51
183.1481747278513126
  0
ARC
  5
EAF1
  8
0
 10
4161.9813457471964284
 20
249.0081028270662102
 30
0.0
 40
0.1645887929157054
 50
107.0550817960403975
 51
129.9665950141908866
  0
ARC
  5
EAF2
  8
0
 10
4161.9502407852723991
 20
249.0497856939601036
 30
0.0
 40
0.1127004884514441
 50
131.4589758278067961
 51
132.1739489515223056
  0
ARC
  5
EAF3
  8
0
 10
4161.9502407852723991
 20
249.0497856939601036
 30
0.0
 40
0.1127004884514441
 50
159.6848615030739893
 51
197.2364027871795997
  0
ARC
  5
EAF4
  8
0
 10
4161.962996659676719
 20
249.0583734386831907
 30
0.0
 40
0.1275048909555202
 50
199.2240194827720927
 51
273.8259164365512106
  0
ARC
  5
EAF5
  8
0
 10
4161.9705316401159507
 20
249.0145664641487997
 30
0.0
 40
0.0848405799117859
 50
54.4928582906560806
 51
143.0944207783448121
  0
ARC
  5
EAF6
  8
0
 10
4161.9497141458114129
 20
249.0381030859036002
 30
0.0
 40
0.0544287955943765
 50
149.7619735020882956
 51
242.3282828798355126
  0
ARC
  5
EAF7
  8
0
 10
4161.9634502447443083
 20
249.0101051204302109
 30
0.0
 40
0.133416026159747
 50
92.6353507398124236
 51
145.4080866904085099
  0
ARC
  5
EAF8
  8
0
 10
4161.9281283806303691
 20
249.0384265830300876
 30
0.0
 40
0.0883198510123077
 50
147.52440212243161
 51
194.4478751759401973
  0
LINE
  5
EAF9
  8
0
 10
4161.9657657200832546
 20
249.0977624027356114
 30
0.0
 11
4161.9775767436831302
 21
249.0977624027356114
 31
0.0
  0
LINE
  5
EAFA
  8
0
 10
4161.9775767436831302
 20
249.0977624027356114
 30
0.0
 11
4161.9775767436831302
 21
249.0788399284355989
 31
0.0
  0
LINE
  5
EAFB
  8
0
 10
4161.9775767436831302
 20
249.0788399284355989
 30
0.0
 11
4161.9657657200832546
 21
249.0788399284355989
 31
0.0
  0
LINE
  5
EAFC
  8
0
 10
4161.9657657200832546
 20
249.0788399284355989
 30
0.0
 11
4161.9657657200832546
 21
249.0977624027356114
 31
0.0
  0
LINE
  5
EAFD
  8
0
 10
4161.9657657200832546
 20
249.0820954877355859
 30
0.0
 11
4161.9775767436831302
 21
249.0820954877355859
 31
0.0
  0
LINE
  5
EAFE
  8
0
 10
4161.9420062040489938
 20
249.0944678001638977
 30
0.0
 11
4161.9427077687314522
 21
249.0783774078427939
 31
0.0
  0
LINE
  5
EAFF
  8
0
 10
4161.9427077687314522
 20
249.0783774078427939
 30
0.0
 11
4161.9387230590573381
 21
249.0782036686622973
 31
0.0
  0
LINE
  5
EB00
  8
0
 10
4161.9307787288116742
 20
249.0808462921924047
 30
0.0
 11
4161.9304092548381959
 21
249.0893201811090023
 31
0.0
  0
LINE
  5
EB01
  8
0
 10
4161.9425660704891925
 20
249.0816272582914905
 30
0.0
 11
4161.9307653211471916
 21
249.0811537970718064
 31
0.0
  0
ARC
  5
EB02
  8
0
 10
4161.9921857981789799
 20
249.0393892427908895
 30
0.0
 40
0.0521558269405727
 50
320.8322349223108745
 51
58.0216964982262482
  0
ARC
  5
EB03
  8
0
 10
4161.9684695794803702
 20
249.0639421240277898
 30
0.0
 40
0.0861460200966316
 50
239.2603927327944007
 51
318.1330262593144766
  0
LINE
  5
EB04
  8
0
 10
4162.0012952089937244
 20
249.0936330615816132
 30
0.0
 11
4162.0006300401391854
 21
249.0783774078427939
 31
0.0
  0
LINE
  5
EB05
  8
0
 10
4162.0006300401391854
 20
249.0783774078427939
 30
0.0
 11
4162.0012128719763496
 21
249.0783519955205918
 31
0.0
  0
LINE
  5
EB06
  8
0
 10
4162.0126279541300391
 20
249.0824259196344883
 30
0.0
 11
4162.012874702463705
 21
249.0880850949216949
 31
0.0
  0
LINE
  5
EB07
  8
0
 10
4162.0007717383787167
 20
249.0816272582914905
 30
0.0
 11
4162.0097553691748544
 21
249.0812668234860041
 31
0.0
  0
ARC
  5
EB08
  8
0
 10
4161.9740834319463829
 20
249.0288119655091066
 30
0.0
 40
0.1426630516888868
 50
52.0422525388845685
 51
106.7060190694250963
  0
ARC
  5
EB09
  8
0
 10
4161.9942455517693816
 20
249.0596092688583099
 30
0.0
 40
0.1060229045155659
 50
352.5257561341438759
 51
50.3961040341742788
  0
ARC
  5
EB0A
  8
0
 10
4161.9773187870177935
 20
249.0573266479379129
 30
0.0
 40
0.1263078381141446
 50
267.3615683089226991
 51
344.1142463136745278
  0
ARC
  5
EB0B
  8
0
 10
4161.9726096761651206
 20
249.0047384087382909
 30
0.0
 40
0.1394826292475497
 50
34.7690717381237704
 51
96.2949502175381156
  0
ARC
  5
EB0C
  8
0
 10
4162.0035114644369969
 20
249.0366260322236087
 30
0.0
 40
0.0962958540261953
 50
351.7171534279000866
 51
29.6620260721498816
  0
ARC
  5
EB0D
  8
0
 10
4161.9697155105568527
 20
249.1846366083921964
 30
0.0
 40
0.110853519157603
 50
244.7116774918436022
 51
295.8382182055610201
  0
ARC
  5
EB0E
  8
0
 10
4162.3251938830508152
 20
248.6875441387352055
 30
0.0
 40
0.122603371991153
 50
116.1750501723698932
 51
135.7842017283610971
  0
ARC
  5
EB0F
  8
0
 10
4162.3137940077212988
 20
248.692556559689308
 30
0.0
 40
0.1110229367140122
 50
133.5349173942456105
 51
194.1234307382738109
  0
ARC
  5
EB10
  8
0
 10
4162.3265220547764329
 20
248.7074482551832091
 30
0.0
 40
0.1275048909555202
 50
199.2240194827720927
 51
273.8259164365512106
  0
ARC
  5
EB11
  8
0
 10
4162.3340570352156647
 20
248.6636412806487897
 30
0.0
 40
0.0848405799117859
 50
54.4928582906560806
 51
143.0944207783448121
  0
ARC
  5
EB12
  8
0
 10
4162.3132395409120363
 20
248.6871779024035902
 30
0.0
 40
0.0544287955943765
 50
149.7619735020882956
 51
242.3282828798355126
  0
ARC
  5
EB13
  8
0
 10
4162.3269756398440222
 20
248.6591799369302009
 30
0.0
 40
0.133416026159747
 50
92.6353507398124236
 51
145.4080866904085099
  0
ARC
  5
EB14
  8
0
 10
4162.291653775730083
 20
248.6875013995299923
 30
0.0
 40
0.0883198510123077
 50
147.52440212243161
 51
194.4478751759401973
  0
LINE
  5
EB15
  8
0
 10
4162.3292911151829685
 20
248.7468372192356014
 30
0.0
 11
4162.3411021387828441
 21
248.7468372192356014
 31
0.0
  0
LINE
  5
EB16
  8
0
 10
4162.3411021387828441
 20
248.7468372192356014
 30
0.0
 11
4162.3411021387828441
 21
248.7279147449355889
 31
0.0
  0
LINE
  5
EB17
  8
0
 10
4162.3411021387828441
 20
248.7279147449355889
 30
0.0
 11
4162.3292911151829685
 21
248.7279147449355889
 31
0.0
  0
LINE
  5
EB18
  8
0
 10
4162.3292911151829685
 20
248.7279147449355889
 30
0.0
 11
4162.3292911151829685
 21
248.7468372192356014
 31
0.0
  0
LINE
  5
EB19
  8
0
 10
4162.3292911151829685
 20
248.7311703042356044
 30
0.0
 11
4162.3411021387828441
 21
248.7311703042356044
 31
0.0
  0
LINE
  5
EB1A
  8
0
 10
4162.3055315991496173
 20
248.7435426166638877
 30
0.0
 11
4162.3062331638320757
 21
248.7274522243428123
 31
0.0
  0
LINE
  5
EB1B
  8
0
 10
4162.3062331638320757
 20
248.7274522243428123
 30
0.0
 11
4162.3022484541561425
 21
248.7272784851622873
 31
0.0
  0
LINE
  5
EB1C
  8
0
 10
4162.2943041239113882
 20
248.7299211086923947
 30
0.0
 11
4162.2939346499370004
 21
248.7383949976089923
 31
0.0
  0
LINE
  5
EB1D
  8
0
 10
4162.3060914655898159
 20
248.7307020747913953
 30
0.0
 11
4162.294290716247815
 21
248.7302286135717964
 31
0.0
  0
ARC
  5
EB1E
  8
0
 10
4162.3557111932786938
 20
248.6884640592909079
 30
0.0
 40
0.0521558269405727
 50
320.8322349223108745
 51
58.0216964982262482
  0
ARC
  5
EB1F
  8
0
 10
4162.3319949745800841
 20
248.7130169405276945
 30
0.0
 40
0.0861460200966316
 50
239.2603927327944007
 51
318.1330262593144766
  0
LINE
  5
EB20
  8
0
 10
4162.3648206040952573
 20
248.7427078780816885
 30
0.0
 11
4162.3641554352379899
 21
248.7274522243428123
 31
0.0
  0
LINE
  5
EB21
  8
0
 10
4162.3641554352379899
 20
248.7274522243428123
 30
0.0
 11
4162.3647382670760635
 21
248.7274268120206102
 31
0.0
  0
LINE
  5
EB22
  8
0
 10
4162.3761533492297531
 20
248.7315007361345067
 30
0.0
 11
4162.3764000975643285
 21
248.7371599114217133
 31
0.0
  0
LINE
  5
EB23
  8
0
 10
4162.3642971334793401
 20
248.7307020747913953
 30
0.0
 11
4162.3732807642736589
 21
248.7303416399859941
 31
0.0
  0
ARC
  5
EB24
  8
0
 10
4162.3445077923242934
 20
248.6763186642155858
 30
0.0
 40
0.139380873421642
 50
54.7267268482838602
 51
99.7994166548918571
  0
ARC
  5
EB25
  8
0
 10
4162.3675973805929971
 20
248.7129740442777006
 30
0.0
 40
0.0961493843147614
 50
16.5332326706505697
 51
53.3458061537933403
  0
ARC
  5
EB26
  8
0
 10
4162.3408441821165979
 20
248.7064014644379029
 30
0.0
 40
0.1263078381141481
 50
267.3615683089226991
 51
338.6198042803317207
  0
ARC
  5
EB27
  8
0
 10
4162.3361350712639251
 20
248.6538132252383946
 30
0.0
 40
0.1394826292475497
 50
34.7690717381237704
 51
96.2949502175381156
  0
ARC
  5
EB28
  8
0
 10
4162.375262817433395
 20
248.6884390517226109
 30
0.0
 40
0.0878090318866278
 50
341.3475131349418916
 51
30.7658038954048294
  0
ARC
  5
EB29
  8
0
 10
4162.3332409056565666
 20
248.8337114248921011
 30
0.0
 40
0.110853519157603
 50
244.7116774918436022
 51
295.8382182055610201
  0
ARC
  5
EB2A
  8
0
 10
4161.7304852385932463
 20
249.2237436018644985
 30
0.0
 40
0.0613311288118148
 50
354.5549003098873868
 51
51.356733775138558
  0
ARC
  5
EB2B
  8
0
 10
4162.4173086692953802
 20
250.0103017004111905
 30
0.0
 40
1.031346313201591
 50
232.4316474628955973
 51
238.3168590423393027
  0
LINE
  5
EB2C
  8
0
 10
4161.8756236377939786
 20
249.1326613729407882
 30
0.0
 11
4161.8756239766971703
 21
249.1210131060701087
 31
0.0
  0
ARC
  5
EB2D
  8
0
 10
4161.9579016506077096
 20
249.034331126488496
 30
0.0
 40
0.1195131005724205
 50
133.5067974045489052
 51
154.769049057577206
  0
LINE
  5
EB2E
  8
0
 10
4162.0994844776532773
 20
249.0287474386377085
 30
0.0
 11
4162.2036675342587841
 21
248.9997816254318934
 31
0.0
  0
ARC
  5
EB2F
  8
0
 10
4162.270026674798828
 20
248.9459254940553876
 30
0.0
 40
0.0854635502422296
 50
77.525866983244029
 51
140.9377088522774102
  0
LINE
  5
EB30
  8
0
 10
4162.2884867016045973
 20
249.0293715594528976
 30
0.0
 11
4162.2924349909835655
 21
249.0324859420703945
 31
0.0
  0
LINE
  5
EB31
  8
0
 10
4162.2036675342587841
 20
248.9997816254318934
 30
0.0
 11
4162.2036866111493509
 21
248.9881540822889008
 31
0.0
  0
LINE
  5
EB32
  8
0
 10
4162.2884867016045973
 20
249.0293715594528976
 30
0.0
 11
4162.2885057784933451
 21
249.017744016309905
 31
0.0
  0
ARC
  5
EB33
  8
0
 10
4162.3229602994369998
 20
248.7124650789183136
 30
0.0
 40
0.0897444959472709
 50
92.693475516265778
 51
123.4618087762890042
  0
LINE
  5
EB34
  8
0
 10
4162.3187429629851977
 20
248.8021104280786062
 30
0.0
 11
4162.3207852420364361
 21
248.8136659193162075
 31
0.0
  0
LINE
  5
EB35
  8
0
 10
4162.3207852420364361
 20
248.8136659193162075
 30
0.0
 11
4162.2981056658363741
 21
248.8992122201073016
 31
0.0
  0
ARC
  5
EB36
  8
0
 10
4162.3593276585297644
 20
248.7127591492559873
 30
0.0
 40
0.1041604826861868
 50
352.1011715471248067
 51
15.3519700137486304
  0
ARC
  5
EB37
  8
0
 10
4161.791156755429256
 20
248.7562128130273038
 30
0.0
 40
0.0891663546883711
 50
81.8911941831922547
 51
128.8653971306158041
  0
ARC
  5
EB38
  8
0
 10
4161.9867285659393019
 20
248.677723739151503
 30
0.0
 40
0.088099560470378
 50
168.5014775504340889
 51
186.2639975213772914
  0
ARC
  5
EB39
  8
0
 10
4161.9732789003001017
 20
248.6523765260133132
 30
0.0
 40
0.0757755593896574
 50
84.6584174491642187
 51
168.0154058846675866
  0
ARC
  5
EB3A
  8
0
 10
4161.982537957887871
 20
248.6517394115674051
 30
0.0
 40
0.0761155520284217
 50
15.7071881075711097
 51
91.6599402181670655
  0
ARC
  5
EB3B
  8
0
 10
4161.9938839896467471
 20
248.6662871930809047
 30
0.0
 40
0.0622228329240283
 50
288.156854658105317
 51
5.5874438906078581
  0
ARC
  5
EB3C
  8
0
 10
4161.9780238540342907
 20
248.6934240458471947
 30
0.0
 40
0.0931858053248283
 50
233.97546826298111
 51
292.2269538054368923
  0
ARC
  5
EB3D
  8
0
 10
4161.9571313347933028
 20
248.665173326159703
 30
0.0
 40
0.0580507393103484
 50
177.0990741660990011
 51
234.253804899315611
  0
ARC
  5
EB3E
  8
0
 10
4161.9776854401306991
 20
248.6562651508403974
 30
0.0
 40
0.0466452535851338
 50
56.3791779487459479
 51
120.2326748442215063
  0
ARC
  5
EB3F
  8
0
 10
4161.986975193127364
 20
248.6702363351438123
 30
0.0
 40
0.0298674855104996
 50
349.1638023361156797
 51
56.3791779487459479
  0
ARC
  5
EB40
  8
0
 10
4161.9830976887396901
 20
248.6749031959325009
 30
0.0
 40
0.034767570704721
 50
285.3646608111246223
 51
342.7983560653294717
  0
ARC
  5
EB41
  8
0
 10
4161.9778305210529652
 20
248.6849277314850895
 30
0.0
 40
0.0458934123654104
 50
230.6851145499431937
 51
288.3908184101596817
  0
ARC
  5
EB42
  8
0
 10
4161.9672684214483525
 20
248.6716207809174932
 30
0.0
 40
0.0289073578222649
 50
181.2234412901360088
 51
230.1709566326746028
  0
ARC
  5
EB43
  8
0
 10
4161.9688138108085695
 20
248.6698312932618933
 30
0.0
 40
0.0304687169845479
 50
118.663681998798296
 51
177.7950202283398937
  0
ARC
  5
EB44
  8
0
 10
4161.9777713065295757
 20
248.6969752424456885
 30
0.0
 40
0.0385404512653389
 50
200.3199793758001022
 51
339.2725705177300028
  0
ARC
  5
EB45
  8
0
 10
4161.9862765889847651
 20
248.6837988426601953
 30
0.0
 40
0.0705086135676627
 50
33.0503666370435312
 51
84.739769479619909
  0
ARC
  5
EB46
  8
0
 10
4161.9801635617131979
 20
248.6657356457272954
 30
0.0
 40
0.0891663546883711
 50
81.8911941831922547
 51
120.0820796103869981
  0
ARC
  5
EB47
  8
0
 10
4162.1374266164348228
 20
249.5153755230545869
 30
0.0
 40
0.7984468076897115
 50
234.7081598230763007
 51
239.751296310888705
  0
ARC
  5
EB48
  8
0
 10
4162.1374266164348228
 20
249.5153755230545869
 30
0.0
 40
0.7984468076897115
 50
250.2066910384388052
 51
255.3486178665671105
  0
ARC
  5
EB49
  8
0
 10
4162.1374266164348228
 20
249.5153755230545869
 30
0.0
 40
0.7984468076897115
 50
263.37983744743741
 51
274.9404917367249936
  0
ARC
  5
EB4A
  8
0
 10
4162.1374746385290564
 20
249.4998229385041952
 30
0.0
 40
0.7970094832906751
 50
234.630755727575206
 51
239.6666203606525016
  0
ARC
  5
EB4B
  8
0
 10
4162.1374746385290564
 20
249.4998229385041952
 30
0.0
 40
0.7970094832906751
 50
250.1431084566793004
 51
255.2135182551201069
  0
ARC
  5
EB4C
  8
0
 10
4162.1374746385290564
 20
249.4998229385041952
 30
0.0
 40
0.7970094832906751
 50
263.6321580570149763
 51
274.7544114960799106
  0
ARC
  5
EB4D
  8
0
 10
4162.1355908746709247
 20
249.511056688133209
 30
0.0
 40
0.8491998463041358
 50
236.1487376789062012
 51
240.0525576955892006
  0
ARC
  5
EB4E
  8
0
 10
4162.1324958477416658
 20
249.5058899514500013
 30
0.0
 40
0.8431779053656843
 50
250.2945183834586089
 51
254.244794079965601
  0
ARC
  5
EB4F
  8
0
 10
4162.1324958477407563
 20
249.5058899514478981
 30
0.0
 40
0.8431779053633945
 50
264.8020654588822822
 51
275.0019996323683813
  0
ARC
  5
EB50
  8
0
 10
4161.7819375552517158
 20
248.7563536876245962
 30
0.0
 40
0.07276522395013
 50
130.2104878196155084
 51
164.9574784080452901
  0
LINE
  5
EB51
  8
0
 10
4161.734960509494158
 20
248.8119228786248982
 30
0.0
 11
4161.7352054977618536
 21
248.8256397211686988
 31
0.0
  0
ARC
  5
EB52
  8
0
 10
4161.9727192043146715
 20
248.6645497377978984
 30
0.0
 40
0.0753317440202529
 50
120.8729577224597023
 51
156.6644776898222915
  0
LINE
  5
EB53
  8
0
 10
4161.9340637588338723
 20
248.7292075153021926
 30
0.0
 11
4161.9354698074430416
 21
248.742892026783295
 31
0.0
  0
LINE
  5
EB54
  8
0
 10
4162.0453763075511233
 20
248.7222525531790893
 30
0.0
 11
4162.0490774013369446
 21
248.7077307437996865
 31
0.0
  0
ARC
  5
EB55
  8
0
 10
4161.9454037681598493
 20
248.6688282863574955
 30
0.0
 40
0.1107322148739188
 50
358.6850556367227796
 51
20.5680821633093309
  0
ARC
  5
EB56
  8
0
 10
4162.4871286256429812
 20
248.4619567152782054
 30
0.0
 40
0.0838189349424475
 50
45.8146975461124697
 51
107.4501293166290026
  0
ARC
  5
EB57
  8
0
 10
4162.4664630694041989
 20
248.4744882022376089
 30
0.0
 40
0.0597404898921677
 50
142.9134842307385043
 51
183.0425690954994877
  0
ARC
  5
EB58
  8
0
 10
4163.0769854465297612
 20
249.0416681038018965
 30
0.0
 40
0.7924425855893713
 50
213.4575557104072061
 51
219.0977242914235887
  0
LINE
  5
EB59
  8
0
 10
4162.5455488456236708
 20
248.522062386825894
 30
0.0
 11
4162.5586475259942745
 21
248.5231584671099085
 31
0.0
  0
ARC
  5
EB5A
  8
0
 10
4161.8596190385396767
 20
248.4822421827001904
 30
0.0
 40
0.7007368063079472
 50
314.4245169284807844
 51
357.181785338708778
  0
LINE
  5
EB5B
  8
0
 10
4162.5595083437929134
 20
248.4477888504098928
 30
0.0
 11
4162.5451401159943998
 21
248.4465879185098913
 31
0.0
  0
ARC
  5
EB5C
  8
0
 10
4162.4746159031683419
 20
248.5023688295810871
 30
0.0
 40
0.0899175991373239
 50
261.9093076745897974
 51
321.6578728425523082
  0
LINE
  5
EB5D
  8
0
 10
4162.5451401159943998
 20
248.51036859560989
 30
0.0
 11
4162.5455488456236708
 21
248.522062386825894
 31
0.0
  0
LINE
  5
EB5E
  8
0
 10
4162.461960864194225
 20
248.5303066331098876
 30
0.0
 11
4162.4619933753210717
 21
248.5419181625267981
 31
0.0
  0
ARC
  5
EB5F
  8
0
 10
4161.9771405500323453
 20
248.2066078458425977
 30
0.0
 40
0.0779969061452228
 50
173.889233827069404
 51
186.8397192269341929
  0
ARC
  5
EB60
  8
0
 10
4161.9738226482786558
 20
248.1815843207681098
 30
0.0
 40
0.0757755593896574
 50
84.6584174491642187
 51
168.0154058846675866
  0
ARC
  5
EB61
  8
0
 10
4161.9830817058682442
 20
248.1809472063222017
 30
0.0
 40
0.0761155520284217
 50
15.7071881075711097
 51
91.6599402181670655
  0
ARC
  5
EB62
  8
0
 10
4161.9944277376262107
 20
248.1954949878357013
 30
0.0
 40
0.0622228329240283
 50
288.156854658105317
 51
5.5874438906078581
  0
ARC
  5
EB63
  8
0
 10
4161.9785676020119354
 20
248.2226318406019914
 30
0.0
 40
0.0931858053248283
 50
233.97546826298111
 51
292.2269538054368923
  0
ARC
  5
EB64
  8
0
 10
4161.957675082771857
 20
248.1943811209144997
 30
0.0
 40
0.0580507393103484
 50
177.0990741660990011
 51
234.253804899315611
  0
ARC
  5
EB65
  8
0
 10
4161.9782291881101628
 20
248.1854729455951087
 30
0.0
 40
0.0466452535851338
 50
56.3791779487459479
 51
120.2326748442215063
  0
ARC
  5
EB66
  8
0
 10
4161.9875189411050087
 20
248.1994441298986089
 30
0.0
 40
0.0298674855104996
 50
349.1638023361156797
 51
56.3791779487459479
  0
ARC
  5
EB67
  8
0
 10
4161.9836414367191537
 20
248.2041109906872975
 30
0.0
 40
0.034767570704721
 50
285.3646608111246223
 51
342.7983560653294717
  0
ARC
  5
EB68
  8
0
 10
4161.9783742690333384
 20
248.2141355262398861
 30
0.0
 40
0.0458934123654104
 50
230.6851145499431937
 51
288.3908184101596817
  0
ARC
  5
EB69
  8
0
 10
4161.9678121694269066
 20
248.2008285756722046
 30
0.0
 40
0.0289073578222649
 50
181.2234412901360088
 51
230.1709566326746028
  0
ARC
  5
EB6A
  8
0
 10
4161.9693575587880332
 20
248.1990390880166046
 30
0.0
 40
0.0304687169845479
 50
118.663681998798296
 51
177.7950202283398937
  0
ARC
  5
EB6B
  8
0
 10
4161.9783150545099488
 20
248.2261830372003999
 30
0.0
 40
0.0385404512653389
 50
200.3199793758001022
 51
339.2725705177300028
  0
ARC
  5
EB6C
  8
0
 10
4161.996818875023564
 20
248.2174397858732959
 30
0.0
 40
0.0602405153643703
 50
17.6942492853853892
 51
76.2087945808638239
  0
ARC
  5
EB6D
  8
0
 10
4161.9830294553203203
 20
248.1820017452810134
 30
0.0
 40
0.0980687929651053
 50
73.3190794735678821
 51
127.6525091128188052
  0
ARC
  5
EB6E
  8
0
 10
4161.9562082492711852
 20
248.2136805178436134
 30
0.0
 40
0.0566347856602984
 50
125.7466613848198023
 51
178.7553749153240119
  0
ARC
  5
EB6F
  8
0
 10
4161.7873882320891425
 20
248.116108012322087
 30
0.0
 40
0.0779969061452228
 50
173.889233827069404
 51
186.8397192269341929
  0
ARC
  5
EB70
  8
0
 10
4161.784070330337272
 20
248.0910844872477128
 30
0.0
 40
0.0757755593896574
 50
84.6584174491642187
 51
168.0154058846675866
  0
ARC
  5
EB71
  8
0
 10
4161.7933293879241319
 20
248.090447372801691
 30
0.0
 40
0.0761155520284217
 50
15.7071881075711097
 51
91.6599402181670655
  0
ARC
  5
EB72
  8
0
 10
4161.8046754196830079
 20
248.1049951543151906
 30
0.0
 40
0.0622228329240283
 50
288.156854658105317
 51
5.5874438906078581
  0
ARC
  5
EB73
  8
0
 10
4161.7888152840696421
 20
248.1321320070815091
 30
0.0
 40
0.0931858053248283
 50
233.97546826298111
 51
292.2269538054368923
  0
ARC
  5
EB74
  8
0
 10
4161.7679227648295637
 20
248.1038812873939889
 30
0.0
 40
0.0580507393103484
 50
177.0990741660990011
 51
234.253804899315611
  0
ARC
  5
EB75
  8
0
 10
4161.7884768701660505
 20
248.0949731120747117
 30
0.0
 40
0.0466452535851338
 50
56.3791779487459479
 51
120.2326748442215063
  0
ARC
  5
EB76
  8
0
 10
4161.7977666231627154
 20
248.1089442963780982
 30
0.0
 40
0.0298674855104996
 50
349.1638023361156797
 51
56.3791779487459479
  0
ARC
  5
EB77
  8
0
 10
4161.7938891187759509
 20
248.1136111571667868
 30
0.0
 40
0.034767570704721
 50
285.3646608111246223
 51
342.7983560653294717
  0
ARC
  5
EB78
  8
0
 10
4161.7886219510892261
 20
248.1236356927194038
 30
0.0
 40
0.0458934123654104
 50
230.6851145499431937
 51
288.3908184101596817
  0
ARC
  5
EB79
  8
0
 10
4161.7780598514837038
 20
248.1103287421518075
 30
0.0
 40
0.0289073578222649
 50
181.2234412901360088
 51
230.1709566326746028
  0
ARC
  5
EB7A
  8
0
 10
4161.7796052408448304
 20
248.1085392544960939
 30
0.0
 40
0.0304687169845479
 50
118.663681998798296
 51
177.7950202283398937
  0
ARC
  5
EB7B
  8
0
 10
4161.7885627365658365
 20
248.1356832036800029
 30
0.0
 40
0.0385404512653389
 50
200.3199793758001022
 51
339.2725705177300028
  0
LINE
  5
EB7C
  8
0
 10
4161.8667660408209485
 20
248.1090492514832988
 30
0.0
 11
4161.8672687278231024
 21
248.129088982170714
 31
0.0
  0
ARC
  5
EB7D
  8
0
 10
4161.8070665570803612
 20
248.1269399523528136
 30
0.0
 40
0.0602405153643703
 50
2.0444126302486261
 51
4.3583200327057012
  0
ARC
  5
EB7E
  8
0
 10
4161.8070665570803612
 20
248.1269399523528136
 30
0.0
 40
0.0602405153643703
 50
53.2294964675600397
 51
76.2087945808638239
  0
ARC
  5
EB7F
  8
0
 10
4161.7932771373752985
 20
248.091501911760588
 30
0.0
 40
0.0980687929651053
 50
73.3190794735678821
 51
127.6525091128188052
  0
ARC
  5
EB80
  8
0
 10
4161.7664559313279824
 20
248.1231806843231027
 30
0.0
 40
0.0566347856602984
 50
125.7466613848198023
 51
178.7553749153240119
  0
ARC
  5
EB81
  8
0
 10
4161.5964077084772725
 20
248.0287152332045935
 30
0.0
 40
0.0779969061452228
 50
173.889233827069404
 51
186.8397192269341929
  0
ARC
  5
EB82
  8
0
 10
4161.593089806723583
 20
248.0036917081301908
 30
0.0
 40
0.0757755593896574
 50
84.6584174491642187
 51
168.0154058846675866
  0
ARC
  5
EB83
  8
0
 10
4161.6023488643122619
 20
248.0030545936841975
 30
0.0
 40
0.0761155520284217
 50
15.7071881075711097
 51
91.6599402181670655
  0
ARC
  5
EB84
  8
0
 10
4161.6136948960720474
 20
248.0176023751978107
 30
0.0
 40
0.0622228329240283
 50
288.156854658105317
 51
5.5874438906078581
  0
ARC
  5
EB85
  8
0
 10
4161.5978347604586816
 20
248.0447392279639871
 30
0.0
 40
0.0931858053248283
 50
233.97546826298111
 51
292.2269538054368923
  0
ARC
  5
EB86
  8
0
 10
4161.5769422412176937
 20
248.0164885082766091
 30
0.0
 40
0.0580507393103484
 50
177.0990741660990011
 51
234.253804899315611
  0
ARC
  5
EB87
  8
0
 10
4161.59749634655509
 20
248.0075803329571897
 30
0.0
 40
0.0466452535851338
 50
56.3791779487459479
 51
120.2326748442215063
  0
ARC
  5
EB88
  8
0
 10
4161.6067860995517549
 20
248.0215515172606899
 30
0.0
 40
0.0298674855104996
 50
349.1638023361156797
 51
56.3791779487459479
  0
ARC
  5
EB89
  8
0
 10
4161.6029085951649904
 20
248.0262183780492933
 30
0.0
 40
0.034767570704721
 50
285.3646608111246223
 51
342.7983560653294717
  0
ARC
  5
EB8A
  8
0
 10
4161.5976414274782655
 20
248.0362429136019955
 30
0.0
 40
0.0458934123654104
 50
230.6851145499431937
 51
288.3908184101596817
  0
ARC
  5
EB8B
  8
0
 10
4161.5870793278718338
 20
248.022935963034314
 30
0.0
 40
0.0289073578222649
 50
181.2234412901360088
 51
230.1709566326746028
  0
ARC
  5
EB8C
  8
0
 10
4161.5886247172338699
 20
248.0211464753787141
 30
0.0
 40
0.0304687169845479
 50
118.663681998798296
 51
177.7950202283398937
  0
ARC
  5
EB8D
  8
0
 10
4161.5975822129539665
 20
248.0482904245625093
 30
0.0
 40
0.0385404512653389
 50
200.3199793758001022
 51
339.2725705177300028
  0
LINE
  5
EB8E
  8
0
 10
4161.6757855172090785
 20
248.0216564723658053
 30
0.0
 11
4161.6759770876105904
 21
248.029293469627703
 31
0.0
  0
ARC
  5
EB8F
  8
0
 10
4161.6160860334675817
 20
248.0395471732354054
 30
0.0
 40
0.0602405153643703
 50
41.8625004094489768
 51
76.2087945808638239
  0
ARC
  5
EB90
  8
0
 10
4161.602296613764338
 20
248.0041091326430944
 30
0.0
 40
0.0980687929651053
 50
73.3190794735678821
 51
127.6525091128188052
  0
ARC
  5
EB91
  8
0
 10
4161.5754754077152029
 20
248.0357879052056091
 30
0.0
 40
0.0566347856602984
 50
125.7466613848198023
 51
178.7553749153240119
  0
ARC
  5
EB92
  8
0
 10
4161.093237174774913
 20
248.2619228303167915
 30
0.0
 40
0.0779969061452228
 50
173.889233827069404
 51
186.8397192269341929
  0
ARC
  5
EB93
  8
0
 10
4161.0899192730230425
 20
248.2368993052423036
 30
0.0
 40
0.0757755593896574
 50
84.6584174491642187
 51
168.0154058846675866
  0
ARC
  5
EB94
  8
0
 10
4161.0991783306108118
 20
248.2362621907963103
 30
0.0
 40
0.0761155520284217
 50
15.7071881075711097
 51
91.6599402181670655
  0
ARC
  5
EB95
  8
0
 10
4161.1105243623696879
 20
248.2508099723098951
 30
0.0
 40
0.0622228329240283
 50
288.156854658105317
 51
5.5874438906078581
  0
ARC
  5
EB96
  8
0
 10
4161.094664226756322
 20
248.2779468250760999
 30
0.0
 40
0.0931858053248283
 50
233.97546826298111
 51
292.2269538054368923
  0
ARC
  5
EB97
  8
0
 10
4161.0737717075171531
 20
248.2496961053886935
 30
0.0
 40
0.0580507393103484
 50
177.0990741660990011
 51
234.253804899315611
  0
ARC
  5
EB98
  8
0
 10
4161.0943258128527305
 20
248.2407879300693878
 30
0.0
 40
0.0466452535851338
 50
56.3791779487459479
 51
120.2326748442215063
  0
ARC
  5
EB99
  8
0
 10
4161.1036155658493954
 20
248.2547591143728027
 30
0.0
 40
0.0298674855104996
 50
349.1638023361156797
 51
56.3791779487459479
  0
ARC
  5
EB9A
  8
0
 10
4161.0997380614626309
 20
248.2594259751614061
 30
0.0
 40
0.034767570704721
 50
285.3646608111246223
 51
342.7983560653294717
  0
ARC
  5
EB9B
  8
0
 10
4161.0944708937768155
 20
248.2694505107141083
 30
0.0
 40
0.0458934123654104
 50
230.6851145499431937
 51
288.3908184101596817
  0
ARC
  5
EB9C
  8
0
 10
4161.0839087941712933
 20
248.2561435601463984
 30
0.0
 40
0.0289073578222649
 50
181.2234412901360088
 51
230.1709566326746028
  0
ARC
  5
EB9D
  8
0
 10
4161.0854541835324198
 20
248.2543540724907984
 30
0.0
 40
0.0304687169845479
 50
118.663681998798296
 51
177.7950202283398937
  0
ARC
  5
EB9E
  8
0
 10
4161.094411679253426
 20
248.2814980216745937
 30
0.0
 40
0.0385404512653389
 50
200.3199793758001022
 51
339.2725705177300028
  0
LINE
  5
EB9F
  8
0
 10
4161.1726149835076285
 20
248.2548640694780033
 30
0.0
 11
4161.1731176705097823
 21
248.2749038001653048
 31
0.0
  0
ARC
  5
EBA0
  8
0
 10
4161.1129154997661317
 20
248.2727547703474897
 30
0.0
 40
0.0602405153643703
 50
2.0444126302486261
 51
76.2087945808638239
  0
ARC
  5
EBA1
  8
0
 10
4161.0991260800619784
 20
248.2373167297552072
 30
0.0
 40
0.0980687929651053
 50
73.3190794735678821
 51
83.6662622956407063
  0
ARC
  5
EBA2
  8
0
 10
4161.0991260800619784
 20
248.2373167297552072
 30
0.0
 40
0.0980687929651053
 50
113.4787325578459019
 51
127.6525091128188052
  0
ARC
  5
EBA3
  8
0
 10
4161.0723048740137529
 20
248.2689955023178072
 30
0.0
 40
0.0566347856602984
 50
125.7466613848198023
 51
178.7553749153240119
  0
ARC
  5
EBA4
  8
0
 10
4161.0866191713312219
 20
248.4428593445296087
 30
0.0
 40
0.0779969061452228
 50
173.889233827069404
 51
186.8397192269341929
  0
ARC
  5
EBA5
  8
0
 10
4161.0833012695766229
 20
248.4178358194552061
 30
0.0
 40
0.0757755593896574
 50
84.6584174491642187
 51
168.0154058846675866
  0
ARC
  5
EBA6
  8
0
 10
4161.0925603271653017
 20
248.417198705009298
 30
0.0
 40
0.0761155520284217
 50
15.7071881075711097
 51
91.6599402181670655
  0
ARC
  5
EBA7
  8
0
 10
4161.1039063589241778
 20
248.4317464865227123
 30
0.0
 40
0.0622228329240283
 50
288.156854658105317
 51
5.5874438906078581
  0
ARC
  5
EBA8
  8
0
 10
4161.0880462233108119
 20
248.4588833392890024
 30
0.0
 40
0.0931858053248283
 50
233.97546826298111
 51
292.2269538054368923
  0
ARC
  5
EBA9
  8
0
 10
4161.067153704069824
 20
248.4306326196015959
 30
0.0
 40
0.0580507393103484
 50
177.0990741660990011
 51
234.253804899315611
  0
ARC
  5
EBAA
  8
0
 10
4161.0877078094081298
 20
248.421724444282205
 30
0.0
 40
0.0466452535851338
 50
56.3791779487459479
 51
120.2326748442215063
  0
ARC
  5
EBAB
  8
0
 10
4161.0969975624029757
 20
248.4356956285857052
 30
0.0
 40
0.0298674855104996
 50
349.1638023361156797
 51
56.3791779487459479
  0
ARC
  5
EBAC
  8
0
 10
4161.0931200580171208
 20
248.4403624893743086
 30
0.0
 40
0.034767570704721
 50
285.3646608111246223
 51
342.7983560653294717
  0
ARC
  5
EBAD
  8
0
 10
4161.0878528903313054
 20
248.4503870249270108
 30
0.0
 40
0.0458934123654104
 50
230.6851145499431937
 51
288.3908184101596817
  0
ARC
  5
EBAE
  8
0
 10
4161.0772907907239642
 20
248.4370800743593009
 30
0.0
 40
0.0289073578222649
 50
181.2234412901360088
 51
230.1709566326746028
  0
ARC
  5
EBAF
  8
0
 10
4161.0788361800860002
 20
248.4352905867037009
 30
0.0
 40
0.0304687169845479
 50
118.663681998798296
 51
177.7950202283398937
  0
ARC
  5
EBB0
  8
0
 10
4161.0877936758070064
 20
248.4624345358874962
 30
0.0
 40
0.0385404512653389
 50
200.3199793758001022
 51
339.2725705177300028
  0
LINE
  5
EBB1
  8
0
 10
4161.1659969800612089
 20
248.4358005836909058
 30
0.0
 11
4161.1664996670633627
 21
248.4558403143782925
 31
0.0
  0
ARC
  5
EBB2
  8
0
 10
4161.1062974963197121
 20
248.4536912845603922
 30
0.0
 40
0.0602405153643703
 50
2.0444126302486261
 51
76.2087945808638239
  0
ARC
  5
EBB3
  8
0
 10
4161.0925080766155588
 20
248.4182532439681097
 30
0.0
 40
0.0980687929651053
 50
73.3190794735678821
 51
76.3592998054265166
  0
ARC
  5
EBB4
  8
0
 10
4161.0925080766155588
 20
248.4182532439681097
 30
0.0
 40
0.0980687929651053
 50
105.0468195471084982
 51
127.6525091128188052
  0
ARC
  5
EBB5
  8
0
 10
4161.0656868705691522
 20
248.449932016530596
 30
0.0
 40
0.0566347856602984
 50
125.7466613848198023
 51
178.7553749153240119
  0
ARC
  5
EBB6
  8
0
 10
4161.090975440965849
 20
248.6201742761377034
 30
0.0
 40
0.0779969061452228
 50
173.889233827069404
 51
186.8397192269341929
  0
ARC
  5
EBB7
  8
0
 10
4161.0876575392139785
 20
248.5951507510633007
 30
0.0
 40
0.0757755593896574
 50
84.6584174491642187
 51
168.0154058846675866
  0
ARC
  5
EBB8
  8
0
 10
4161.0969165968008383
 20
248.5945136366173074
 30
0.0
 40
0.0761155520284217
 50
15.7071881075711097
 51
91.6599402181670655
  0
ARC
  5
EBB9
  8
0
 10
4161.1082626285606239
 20
248.6090614181308069
 30
0.0
 40
0.0622228329240283
 50
288.156854658105317
 51
5.5874438906078581
  0
ARC
  5
EBBA
  8
0
 10
4161.092402492947258
 20
248.636198270897097
 30
0.0
 40
0.0931858053248283
 50
233.97546826298111
 51
292.2269538054368923
  0
ARC
  5
EBBB
  8
0
 10
4161.0715099737071796
 20
248.6079475512096053
 30
0.0
 40
0.0580507393103484
 50
177.0990741660990011
 51
234.253804899315611
  0
ARC
  5
EBBC
  8
0
 10
4161.0920640790445759
 20
248.5990393758902997
 30
0.0
 40
0.0466452535851338
 50
56.3791779487459479
 51
120.2326748442215063
  0
ARC
  5
EBBD
  8
0
 10
4161.1013538320403313
 20
248.6130105601937998
 30
0.0
 40
0.0298674855104996
 50
349.1638023361156797
 51
56.3791779487459479
  0
ARC
  5
EBBE
  8
0
 10
4161.0974763276526573
 20
248.6176774209824032
 30
0.0
 40
0.034767570704721
 50
285.3646608111246223
 51
342.7983560653294717
  0
ARC
  5
EBBF
  8
0
 10
4161.0922091599659325
 20
248.6277019565349917
 30
0.0
 40
0.0458934123654104
 50
230.6851145499431937
 51
288.3908184101596817
  0
ARC
  5
EBC0
  8
0
 10
4161.0816470603613197
 20
248.6143950059673955
 30
0.0
 40
0.0289073578222649
 50
181.2234412901360088
 51
230.1709566326746028
  0
ARC
  5
EBC1
  8
0
 10
4161.0831924497224463
 20
248.6126055183117103
 30
0.0
 40
0.0304687169845479
 50
118.663681998798296
 51
177.7950202283398937
  0
ARC
  5
EBC2
  8
0
 10
4161.0921499454434525
 20
248.6397494674955908
 30
0.0
 40
0.0385404512653389
 50
200.3199793758001022
 51
339.2725705177300028
  0
LINE
  5
EBC3
  8
0
 10
4161.1703532496985645
 20
248.6131155152988867
 30
0.0
 11
4161.1708559367007183
 21
248.6331552459863019
 31
0.0
  0
ARC
  5
EBC4
  8
0
 10
4161.1106537659570677
 20
248.6310062161684016
 30
0.0
 40
0.0602405153643703
 50
2.0444126302486261
 51
76.2087945808638239
  0
ARC
  5
EBC5
  8
0
 10
4161.0968643462538239
 20
248.5955681755762043
 30
0.0
 40
0.0980687929651053
 50
73.3190794735678821
 51
106.9142407267348034
  0
ARC
  5
EBC6
  8
0
 10
4161.0700431402046888
 20
248.6272469481386906
 30
0.0
 40
0.0566347856602984
 50
137.7328364020862921
 51
178.7553749153240119
  0
ARC
  5
EBC7
  8
0
 10
4160.9100434057527309
 20
248.8913957366879117
 30
0.0
 40
0.1307033241075983
 50
103.7123835193726933
 51
134.565771758940798
  0
ARC
  5
EBC8
  8
0
 10
4160.9070035944805568
 20
248.9002391769367932
 30
0.0
 40
0.1223364621502301
 50
136.4582268263262108
 51
195.9317628418166066
  0
ARC
  5
EBC9
  8
0
 10
4160.909761179729685
 20
248.9086413374841129
 30
0.0
 40
0.1275048909555202
 50
199.2240194827720927
 51
273.8259164365512106
  0
ARC
  5
EBCA
  8
0
 10
4160.9172961601689167
 20
248.8648343629496935
 30
0.0
 40
0.0848405799117859
 50
54.4928582906560806
 51
143.0944207783448121
  0
ARC
  5
EBCB
  8
0
 10
4160.8964786658652883
 20
248.888370984704494
 30
0.0
 40
0.0544287955943765
 50
149.7619735020882956
 51
242.3282828798355126
  0
ARC
  5
EBCC
  8
0
 10
4160.9102147647972743
 20
248.8603730192311048
 30
0.0
 40
0.133416026159747
 50
92.6353507398124236
 51
145.4080866904085099
  0
ARC
  5
EBCD
  8
0
 10
4160.874892900683335
 20
248.8886944818310099
 30
0.0
 40
0.0883198510123077
 50
147.52440212243161
 51
194.4478751759401973
  0
LINE
  5
EBCE
  8
0
 10
4160.912530240135311
 20
248.9480303015365905
 30
0.0
 11
4160.9243412637360962
 21
248.9480303015365905
 31
0.0
  0
LINE
  5
EBCF
  8
0
 10
4160.9243412637360962
 20
248.9480303015365905
 30
0.0
 11
4160.9243412637360962
 21
248.9291078272364928
 31
0.0
  0
LINE
  5
EBD0
  8
0
 10
4160.9243412637360962
 20
248.9291078272364928
 30
0.0
 11
4160.912530240135311
 21
248.9291078272364928
 31
0.0
  0
LINE
  5
EBD1
  8
0
 10
4160.912530240135311
 20
248.9291078272364928
 30
0.0
 11
4160.912530240135311
 21
248.9480303015365905
 31
0.0
  0
LINE
  5
EBD2
  8
0
 10
4160.912530240135311
 20
248.9323633865365082
 30
0.0
 11
4160.9243412637360962
 21
248.9323633865365082
 31
0.0
  0
LINE
  5
EBD3
  8
0
 10
4160.8887707241028693
 20
248.9447356989649052
 30
0.0
 11
4160.8894722887853277
 21
248.9286453066438014
 31
0.0
  0
LINE
  5
EBD4
  8
0
 10
4160.8894722887853277
 20
248.9286453066438014
 30
0.0
 11
4160.8854875791093946
 21
248.9284715674631911
 31
0.0
  0
LINE
  5
EBD5
  8
0
 10
4160.8775432488637307
 20
248.9311141909932985
 30
0.0
 11
4160.8771737748911619
 21
248.9395880799100098
 31
0.0
  0
LINE
  5
EBD6
  8
0
 10
4160.889330590543068
 20
248.9318951570924128
 30
0.0
 11
4160.877529841201067
 21
248.9314216958727002
 31
0.0
  0
ARC
  5
EBD7
  8
0
 10
4160.9389503182310364
 20
248.889657141591897
 30
0.0
 40
0.0521558269405727
 50
320.8322349223108745
 51
58.0216964982262482
  0
ARC
  5
EBD8
  8
0
 10
4160.9152340995324266
 20
248.914210022828712
 30
0.0
 40
0.0861460200966316
 50
239.2603927327944007
 51
318.1330262593144766
  0
LINE
  5
EBD9
  8
0
 10
4160.9480597290466903
 20
248.9439009603825923
 30
0.0
 11
4160.9473945601912419
 21
248.9286453066438014
 31
0.0
  0
LINE
  5
EBDA
  8
0
 10
4160.9473945601912419
 20
248.9286453066438014
 30
0.0
 11
4160.947977392030225
 21
248.9286198943215993
 31
0.0
  0
LINE
  5
EBDB
  8
0
 10
4160.9593924741830051
 20
248.9326938184354958
 30
0.0
 11
4160.959639222516671
 21
248.9383529937227024
 31
0.0
  0
LINE
  5
EBDC
  8
0
 10
4160.9475362584316827
 20
248.9318951570924128
 30
0.0
 11
4160.9565198892278204
 21
248.9315347222868979
 31
0.0
  0
ARC
  5
EBDD
  8
0
 10
4160.9149367007148612
 20
248.8803179077663117
 30
0.0
 40
0.1426412300706971
 50
61.9898527853609167
 51
104.5671236886623063
  0
ARC
  5
EBDE
  8
0
 10
4160.925654090556236
 20
248.8977547091147926
 30
0.0
 40
0.1224374295904077
 50
348.3456831360927026
 51
1.2021168861737761
  0
ARC
  5
EBDF
  8
0
 10
4160.9156213256255796
 20
248.8888310061977904
 30
0.0
 40
0.1357786026604995
 50
27.9521368331633511
 51
37.7587306114802104
  0
ARC
  5
EBE0
  8
0
 10
4160.9240833070707595
 20
248.9075945467388067
 30
0.0
 40
0.1263078381141446
 50
267.3615683089226991
 51
344.1142463136745278
  0
ARC
  5
EBE1
  8
0
 10
4160.9193741962171771
 20
248.8550063075392984
 30
0.0
 40
0.1394826292475497
 50
34.7690717381237704
 51
96.2949502175381156
  0
ARC
  5
EBE2
  8
0
 10
4160.958501942386647
 20
248.8896321340234863
 30
0.0
 40
0.0878090318866278
 50
341.3475131349418916
 51
30.7658038954048294
  0
ARC
  5
EBE3
  8
0
 10
4160.9164800306107281
 20
249.0349045071930902
 30
0.0
 40
0.110853519157603
 50
244.7116774918436022
 51
295.8382182055610201
  0
ARC
  5
EBE4
  8
0
 10
4160.9554759210232078
 20
248.9056979310772988
 30
0.0
 40
0.0927445112290581
 50
356.6778367491559152
 51
30.2892170359789397
  0
ARC
  5
EBE5
  8
0
 10
4162.3371732722898741
 20
248.2017310251821129
 30
0.0
 40
0.1472436069846795
 50
115.1490873197783031
 51
131.7211397540187932
  0
ARC
  5
EBE6
  8
0
 10
4162.3042802046693396
 20
248.2348627571892905
 30
0.0
 40
0.100654893406351
 50
130.296901695825909
 51
195.7141184153497022
  0
ARC
  5
EBE7
  8
0
 10
4162.3277823008911582
 20
248.2495842031619873
 30
0.0
 40
0.1275048909555202
 50
199.2240194827720927
 51
273.8259164365512106
  0
ARC
  5
EBE8
  8
0
 10
4162.33531728133039
 20
248.2057772286275963
 30
0.0
 40
0.0848405799117859
 50
54.4928582906560806
 51
143.0944207783448121
  0
ARC
  5
EBE9
  8
0
 10
4162.3144997870258521
 20
248.2293138503823968
 30
0.0
 40
0.0544287955943765
 50
149.7619735020882956
 51
242.3282828798355126
  0
ARC
  5
EBEA
  8
0
 10
4162.3282358859587475
 20
248.2013158849090075
 30
0.0
 40
0.133416026159747
 50
92.6353507398124236
 51
145.4080866904085099
  0
ARC
  5
EBEB
  8
0
 10
4162.2929140218438988
 20
248.2296373475087989
 30
0.0
 40
0.0883198510123077
 50
147.52440212243161
 51
194.4478751759401973
  0
LINE
  5
EBEC
  8
0
 10
4162.3305513612967843
 20
248.288973167214408
 30
0.0
 11
4162.3423623848966599
 21
248.288973167214408
 31
0.0
  0
LINE
  5
EBED
  8
0
 10
4162.3423623848966599
 20
248.288973167214408
 30
0.0
 11
4162.3423623848966599
 21
248.2700506929143955
 31
0.0
  0
LINE
  5
EBEE
  8
0
 10
4162.3423623848966599
 20
248.2700506929143955
 30
0.0
 11
4162.3305513612967843
 21
248.2700506929143955
 31
0.0
  0
LINE
  5
EBEF
  8
0
 10
4162.3305513612967843
 20
248.2700506929143955
 30
0.0
 11
4162.3305513612967843
 21
248.288973167214408
 31
0.0
  0
LINE
  5
EBF0
  8
0
 10
4162.3305513612967843
 20
248.273306252214411
 30
0.0
 11
4162.3423623848966599
 21
248.273306252214411
 31
0.0
  0
LINE
  5
EBF1
  8
0
 10
4162.3067918452643426
 20
248.2856785646426943
 30
0.0
 11
4162.307493409944982
 21
248.2695881723215905
 31
0.0
  0
LINE
  5
EBF2
  8
0
 10
4162.307493409944982
 20
248.2695881723215905
 30
0.0
 11
4162.3035087002708678
 21
248.2694144331410939
 31
0.0
  0
LINE
  5
EBF3
  8
0
 10
4162.295564370025204
 20
248.2720570566712013
 30
0.0
 11
4162.2951948960517257
 21
248.2805309455877989
 31
0.0
  0
LINE
  5
EBF4
  8
0
 10
4162.3073517117054507
 20
248.2728380227702019
 30
0.0
 11
4162.2955509623634498
 21
248.272364561550603
 31
0.0
  0
ARC
  5
EBF5
  8
0
 10
4162.3569714393934191
 20
248.2306000072696861
 30
0.0
 40
0.0521558269405727
 50
320.8322349223108745
 51
58.0216964982262482
  0
ARC
  5
EBF6
  8
0
 10
4162.3332552206929904
 20
248.2551528885065011
 30
0.0
 40
0.0861460200966316
 50
239.2603927327944007
 51
318.1330262593144766
  0
LINE
  5
EBF7
  8
0
 10
4162.3660808502090731
 20
248.2848438260604951
 30
0.0
 11
4162.3654156813518057
 21
248.2695881723215905
 31
0.0
  0
LINE
  5
EBF8
  8
0
 10
4162.3654156813518057
 20
248.2695881723215905
 30
0.0
 11
4162.3659985131907888
 21
248.2695627599993884
 31
0.0
  0
LINE
  5
EBF9
  8
0
 10
4162.3774135953435689
 20
248.2736366841133133
 30
0.0
 11
4162.3776603436781443
 21
248.2792958594004915
 31
0.0
  0
LINE
  5
EBFA
  8
0
 10
4162.3655573795940654
 20
248.2728380227702019
 30
0.0
 11
4162.3745410103892937
 21
248.2724775879648007
 31
0.0
  0
ARC
  5
EBFB
  8
0
 10
4162.3430967004769627
 20
248.1966887598254914
 30
0.0
 40
0.1543587703346822
 50
58.5640166735909773
 51
64.2092134578136324
  0
ARC
  5
EBFC
  8
0
 10
4162.3430967004769627
 20
248.1966887598254914
 30
0.0
 40
0.1543587703346822
 50
83.1118434592877549
 51
116.3440505819043977
  0
ARC
  5
EBFD
  8
0
 10
4162.3606259415328168
 20
248.2388441679198081
 30
0.0
 40
0.1094744174984869
 50
23.4853737264855411
 51
54.8823879547600271
  0
ARC
  5
EBFE
  8
0
 10
4162.3421044282322327
 20
248.2485374124167095
 30
0.0
 40
0.1263078381141481
 50
267.3615683089226991
 51
338.6198042803317207
  0
ARC
  5
EBFF
  8
0
 10
4162.3373953173777409
 20
248.1959491732172012
 30
0.0
 40
0.1394826292475497
 50
34.7690717381237704
 51
96.2949502175381156
  0
ARC
  5
EC00
  8
0
 10
4162.3765230635481203
 20
248.2305749997013891
 30
0.0
 40
0.0878090318866278
 50
341.3475131349418916
 51
30.7658038954048294
  0
ARC
  5
EC01
  8
0
 10
4162.3345011517722014
 20
248.3758473728709077
 30
0.0
 40
0.110853519157603
 50
244.7116774918436022
 51
295.8382182055610201
  0
ARC
  5
EC02
  8
0
 10
4162.3605879046435803
 20
248.2548950972347939
 30
0.0
 40
0.1041604826861868
 50
352.1011715471248067
 51
15.3519700137486304
  0
ARC
  5
EC03
  8
0
 10
4161.9736478771947077
 20
247.8508058416821029
 30
0.0
 40
0.1472436069846795
 50
115.1490873197783031
 51
131.7211397540187932
  0
ARC
  5
EC04
  8
0
 10
4161.9407548095732636
 20
247.8839375736893089
 30
0.0
 40
0.100654893406351
 50
130.296901695825909
 51
195.7141184153497022
  0
ARC
  5
EC05
  8
0
 10
4161.9642569057950823
 20
247.8986590196620057
 30
0.0
 40
0.1275048909555202
 50
199.2240194827720927
 51
273.8259164365512106
  0
ARC
  5
EC06
  8
0
 10
4161.971791886234314
 20
247.8548520451275863
 30
0.0
 40
0.0848405799117859
 50
54.4928582906560806
 51
143.0944207783448121
  0
ARC
  5
EC07
  8
0
 10
4161.9509743919297762
 20
247.8783886668823868
 30
0.0
 40
0.0544287955943765
 50
149.7619735020882956
 51
242.3282828798355126
  0
ARC
  5
EC08
  8
0
 10
4161.9647104908617621
 20
247.8503907014089975
 30
0.0
 40
0.133416026159747
 50
92.6353507398124236
 51
145.4080866904085099
  0
ARC
  5
EC09
  8
0
 10
4161.9293886267478229
 20
247.8787121640087889
 30
0.0
 40
0.0883198510123077
 50
147.52440212243161
 51
194.4478751759401973
  0
LINE
  5
EC0A
  8
0
 10
4161.9670259662007084
 20
247.938047983714398
 30
0.0
 11
4161.978836989802403
 21
247.938047983714398
 31
0.0
  0
LINE
  5
EC0B
  8
0
 10
4161.978836989802403
 20
247.938047983714398
 30
0.0
 11
4161.978836989802403
 21
247.919125509414414
 31
0.0
  0
LINE
  5
EC0C
  8
0
 10
4161.978836989802403
 20
247.919125509414414
 30
0.0
 11
4161.9670259662007084
 21
247.919125509414414
 31
0.0
  0
LINE
  5
EC0D
  8
0
 10
4161.9670259662007084
 20
247.919125509414414
 30
0.0
 11
4161.9670259662007084
 21
247.938047983714398
 31
0.0
  0
LINE
  5
EC0E
  8
0
 10
4161.9670259662007084
 20
247.922381068714401
 30
0.0
 11
4161.978836989802403
 21
247.922381068714401
 31
0.0
  0
LINE
  5
EC0F
  8
0
 10
4161.9432664501682666
 20
247.9347533811427127
 30
0.0
 11
4161.943968014850725
 21
247.9186629888216089
 31
0.0
  0
LINE
  5
EC10
  8
0
 10
4161.943968014850725
 20
247.9186629888216089
 30
0.0
 11
4161.9399833051747919
 21
247.9184892496411123
 31
0.0
  0
LINE
  5
EC11
  8
0
 10
4161.9320389749300375
 20
247.9211318731711913
 30
0.0
 11
4161.9316695009556497
 21
247.9296057620877889
 31
0.0
  0
LINE
  5
EC12
  8
0
 10
4161.9438263166075558
 20
247.9219128392703055
 30
0.0
 11
4161.9320255672655549
 21
247.9214393780505929
 31
0.0
  0
ARC
  5
EC13
  8
0
 10
4161.9934460442982527
 20
247.8796748237697045
 30
0.0
 40
0.0521558269405727
 50
320.8322349223108745
 51
58.0216964982262482
  0
ARC
  5
EC14
  8
0
 10
4161.9697298255978239
 20
247.9042277050064911
 30
0.0
 40
0.0861460200966316
 50
239.2603927327944007
 51
318.1330262593144766
  0
LINE
  5
EC15
  8
0
 10
4162.0025554551129972
 20
247.9339186425605135
 30
0.0
 11
4162.0018902862566392
 21
247.9186629888216089
 31
0.0
  0
LINE
  5
EC16
  8
0
 10
4162.0018902862566392
 20
247.9186629888216089
 30
0.0
 11
4162.0024731180956223
 21
247.9186375764994068
 31
0.0
  0
LINE
  5
EC17
  8
0
 10
4162.0138882002484024
 20
247.9227115006133033
 30
0.0
 11
4162.0141349485829778
 21
247.9283706759005952
 31
0.0
  0
LINE
  5
EC18
  8
0
 10
4162.0020319844979895
 20
247.9219128392703055
 30
0.0
 11
4162.0110156152932177
 21
247.9215524044647907
 31
0.0
  0
ARC
  5
EC19
  8
0
 10
4161.9795713053817963
 20
247.8457635763255098
 30
0.0
 40
0.1543587703346822
 50
58.5640166735909773
 51
116.3440505819043977
  0
ARC
  5
EC1A
  8
0
 10
4161.9971005464385598
 20
247.8879189844197981
 30
0.0
 40
0.1094744174984869
 50
42.7088943431486427
 51
54.8823879547600271
  0
ARC
  5
EC1B
  8
0
 10
4161.9785790331361568
 20
247.8976122289166995
 30
0.0
 40
0.1263078381141481
 50
267.3615683089226991
 51
338.6198042803317207
  0
ARC
  5
EC1C
  8
0
 10
4161.9738699222825744
 20
247.8450239897171059
 30
0.0
 40
0.1394826292475497
 50
34.7690717381237704
 51
96.2949502175381156
  0
ARC
  5
EC1D
  8
0
 10
4162.0129976684520443
 20
247.8796498162014075
 30
0.0
 40
0.0878090318866278
 50
341.3475131349418916
 51
30.7658038954048294
  0
ARC
  5
EC1E
  8
0
 10
4161.9709757566761255
 20
248.0249221893710114
 30
0.0
 40
0.110853519157603
 50
244.7116774918436022
 51
295.8382182055610201
  0
ARC
  5
EC1F
  8
0
 10
4161.9970625095484138
 20
247.9039699137348123
 30
0.0
 40
0.1041604826861868
 50
352.1011715471248067
 51
9.0440807934666481
  0
ARC
  5
EC20
  8
0
 10
4161.4166724838942173
 20
247.7712575579820964
 30
0.0
 40
0.1472436069846795
 50
115.1490873197783031
 51
131.7211397540187932
  0
ARC
  5
EC21
  8
0
 10
4161.3837794162718637
 20
247.8043892899893024
 30
0.0
 40
0.100654893406351
 50
130.296901695825909
 51
195.7141184153497022
  0
ARC
  5
EC22
  8
0
 10
4161.4072815124936824
 20
247.8191107359619991
 30
0.0
 40
0.1275048909555202
 50
199.2240194827720927
 51
273.8259164365512106
  0
ARC
  5
EC23
  8
0
 10
4161.4148164929347331
 20
247.7753037614276082
 30
0.0
 40
0.0848405799117859
 50
54.4928582906560806
 51
143.0944207783448121
  0
ARC
  5
EC24
  8
0
 10
4161.3939989986292858
 20
247.7988403831824087
 30
0.0
 40
0.0544287955943765
 50
149.7619735020882956
 51
242.3282828798355126
  0
ARC
  5
EC25
  8
0
 10
4161.4077350975630907
 20
247.770842417708991
 30
0.0
 40
0.133416026159747
 50
92.6353507398124236
 51
145.4080866904085099
  0
ARC
  5
EC26
  8
0
 10
4161.3724132334491514
 20
247.7991638803088961
 30
0.0
 40
0.0883198510123077
 50
147.52440212243161
 51
194.4478751759401973
  0
LINE
  5
EC27
  8
0
 10
4161.4100505729020369
 20
247.8584997000143915
 30
0.0
 11
4161.4218615965019126
 21
247.8584997000143915
 31
0.0
  0
LINE
  5
EC28
  8
0
 10
4161.4218615965019126
 20
247.8584997000143915
 30
0.0
 11
4161.4218615965019126
 21
247.8395772257144074
 31
0.0
  0
LINE
  5
EC29
  8
0
 10
4161.4218615965019126
 20
247.8395772257144074
 30
0.0
 11
4161.4100505729020369
 21
247.8395772257144074
 31
0.0
  0
LINE
  5
EC2A
  8
0
 10
4161.4100505729020369
 20
247.8395772257144074
 30
0.0
 11
4161.4100505729020369
 21
247.8584997000143915
 31
0.0
  0
LINE
  5
EC2B
  8
0
 10
4161.4100505729020369
 20
247.8428327850143944
 30
0.0
 11
4161.4218615965019126
 21
247.8428327850143944
 31
0.0
  0
LINE
  5
EC2C
  8
0
 10
4161.3862910568677762
 20
247.8552050974427061
 30
0.0
 11
4161.3869926215502346
 21
247.8391147051216024
 31
0.0
  0
LINE
  5
EC2D
  8
0
 10
4161.3869926215502346
 20
247.8391147051216024
 30
0.0
 11
4161.383007911875211
 21
247.8389409659411058
 31
0.0
  0
LINE
  5
EC2E
  8
0
 10
4161.3750635816286376
 20
247.8415835894712131
 30
0.0
 11
4161.3746941076569783
 21
247.850057478387896
 31
0.0
  0
LINE
  5
EC2F
  8
0
 10
4161.3868509233088844
 20
247.8423645555702137
 30
0.0
 11
4161.375050173965974
 21
247.8418910943505011
 31
0.0
  0
ARC
  5
EC30
  8
0
 10
4161.4364706509959433
 20
247.800126540069698
 30
0.0
 40
0.0521558269405727
 50
320.8322349223108745
 51
58.0216964982262482
  0
ARC
  5
EC31
  8
0
 10
4161.412754432298243
 20
247.8246794213065129
 30
0.0
 40
0.0861460200966316
 50
239.2603927327944007
 51
318.1330262593144766
  0
LINE
  5
EC32
  8
0
 10
4161.4455800618143257
 20
247.8543703588603933
 30
0.0
 11
4161.4449148929570583
 21
247.8391147051216024
 31
0.0
  0
LINE
  5
EC33
  8
0
 10
4161.4449148929570583
 20
247.8391147051216024
 30
0.0
 11
4161.4454977247960414
 21
247.8390892927994003
 31
0.0
  0
LINE
  5
EC34
  8
0
 10
4161.456912806947912
 20
247.8431632169132968
 30
0.0
 11
4161.4571595552833969
 21
247.8488223922005034
 31
0.0
  0
LINE
  5
EC35
  8
0
 10
4161.4450565911984086
 20
247.8423645555702137
 30
0.0
 11
4161.4540402219927273
 21
247.8420041207648126
 31
0.0
  0
ARC
  5
EC36
  8
0
 10
4161.4225959120813059
 20
247.7662152926255033
 30
0.0
 40
0.1543587703346822
 50
73.7145832834970065
 51
116.3440505819043977
  0
ARC
  5
EC37
  8
0
 10
4161.4401251531380694
 20
247.8083707007197063
 30
0.0
 40
0.1094744174984869
 50
23.4853737264855411
 51
47.9863839467437785
  0
ARC
  5
EC38
  8
0
 10
4161.4216036398356664
 20
247.8180639452166929
 30
0.0
 40
0.1263078381141481
 50
267.3615683089226991
 51
338.6198042803317207
  0
ARC
  5
EC39
  8
0
 10
4161.4168945289829935
 20
247.765475706017213
 30
0.0
 40
0.1394826292475497
 50
34.7690717381237704
 51
52.7722953136858024
  0
ARC
  5
EC3A
  8
0
 10
4161.4168945289829935
 20
247.765475706017213
 30
0.0
 40
0.1394826292475497
 50
72.7818969238590938
 51
96.2949502175381156
  0
ARC
  5
EC3B
  8
0
 10
4161.4560222751515539
 20
247.8001015325014009
 30
0.0
 40
0.0878090318866278
 50
341.3475131349418916
 51
30.7658038954048294
  0
ARC
  5
EC3C
  8
0
 10
4161.4140003633756351
 20
247.9453739056710049
 30
0.0
 40
0.110853519157603
 50
244.7116774918436022
 51
295.8382182055610201
  0
ARC
  5
EC3D
  8
0
 10
4161.4400871162488329
 20
247.8244216300348057
 30
0.0
 40
0.1041604826861868
 50
352.1011715471248067
 51
15.3519700137486304
  0
ARC
  5
EC3E
  8
0
 10
4160.7218751418804459
 20
248.4614462533643859
 30
0.0
 40
0.1307033241075983
 50
103.7123835193726933
 51
134.565771758940798
  0
ARC
  5
EC3F
  8
0
 10
4160.7188353306082718
 20
248.4702896936132959
 30
0.0
 40
0.1223364621502301
 50
136.4582268263262108
 51
195.9317628418166066
  0
ARC
  5
EC40
  8
0
 10
4160.7215929158546714
 20
248.4786918541605871
 30
0.0
 40
0.1275048909555202
 50
199.2240194827720927
 51
273.8259164365512106
  0
ARC
  5
EC41
  8
0
 10
4160.7291278962957222
 20
248.4348848796261962
 30
0.0
 40
0.0848405799117859
 50
54.4928582906560806
 51
143.0944207783448121
  0
ARC
  5
EC42
  8
0
 10
4160.7083104019911843
 20
248.4584215013811104
 30
0.0
 40
0.0544287955943765
 50
149.7619735020882956
 51
242.3282828798355126
  0
ARC
  5
EC43
  8
0
 10
4160.7220465009231702
 20
248.4304235359076074
 30
0.0
 40
0.133416026159747
 50
92.6353507398124236
 51
145.4080866904085099
  0
ARC
  5
EC44
  8
0
 10
4160.686724636809231
 20
248.4587449985075125
 30
0.0
 40
0.0883198510123077
 50
147.52440212243161
 51
194.4478751759401973
  0
LINE
  5
EC45
  8
0
 10
4160.7243619762621165
 20
248.5180808182130079
 30
0.0
 11
4160.7361729998629016
 21
248.5180808182130079
 31
0.0
  0
LINE
  5
EC46
  8
0
 10
4160.7361729998629016
 20
248.5180808182130079
 30
0.0
 11
4160.7361729998629016
 21
248.4991583439129954
 31
0.0
  0
LINE
  5
EC47
  8
0
 10
4160.7361729998629016
 20
248.4991583439129954
 30
0.0
 11
4160.7243619762621165
 21
248.4991583439129954
 31
0.0
  0
LINE
  5
EC48
  8
0
 10
4160.7243619762621165
 20
248.4991583439129954
 30
0.0
 11
4160.7243619762621165
 21
248.5180808182130079
 31
0.0
  0
LINE
  5
EC49
  8
0
 10
4160.7243619762621165
 20
248.5024139032130108
 30
0.0
 11
4160.7361729998629016
 21
248.5024139032130108
 31
0.0
  0
LINE
  5
EC4A
  8
0
 10
4160.7006024602296748
 20
248.5147862156412941
 30
0.0
 11
4160.7013040249112237
 21
248.498695823320304
 31
0.0
  0
LINE
  5
EC4B
  8
0
 10
4160.7013040249112237
 20
248.498695823320304
 30
0.0
 11
4160.6973193152352906
 21
248.4985220841396938
 31
0.0
  0
LINE
  5
EC4C
  8
0
 10
4160.6893749849914457
 20
248.5011647076698011
 30
0.0
 11
4160.6890055110170579
 21
248.5096385965865124
 31
0.0
  0
LINE
  5
EC4D
  8
0
 10
4160.7011623266689639
 20
248.501945673768887
 30
0.0
 11
4160.689361577326963
 21
248.5014722125492028
 31
0.0
  0
ARC
  5
EC4E
  8
0
 10
4160.7507820543578418
 20
248.459707658268286
 30
0.0
 40
0.0521558269405727
 50
320.8322349223108745
 51
58.0216964982262482
  0
ARC
  5
EC4F
  8
0
 10
4160.7270658356592321
 20
248.484260539505101
 30
0.0
 40
0.0861460200966316
 50
239.2603927327944007
 51
318.1330262593144766
  0
LINE
  5
EC50
  8
0
 10
4160.7598914651753148
 20
248.5139514770590949
 30
0.0
 11
4160.7592262963180474
 21
248.498695823320304
 31
0.0
  0
LINE
  5
EC51
  8
0
 10
4160.7592262963180474
 20
248.498695823320304
 30
0.0
 11
4160.759809128156121
 21
248.4986704109981019
 31
0.0
  0
LINE
  5
EC52
  8
0
 10
4160.7712242103089011
 20
248.5027443351119132
 30
0.0
 11
4160.771470958644386
 21
248.5084035103992051
 31
0.0
  0
LINE
  5
EC53
  8
0
 10
4160.7593679945593976
 20
248.501945673768887
 30
0.0
 11
4160.7683516253537164
 21
248.5015852389634006
 31
0.0
  0
ARC
  5
EC54
  8
0
 10
4160.7267684368398477
 20
248.4503684244427006
 30
0.0
 40
0.1426412300706971
 50
49.9045139838655487
 51
82.9914902561727956
  0
ARC
  5
EC55
  8
0
 10
4160.7267684368398477
 20
248.4503684244427006
 30
0.0
 40
0.1426412300706971
 50
102.3093284487482038
 51
104.5671236886623063
  0
ARC
  5
EC56
  8
0
 10
4160.737485826682132
 20
248.4678052257912952
 30
0.0
 40
0.1224374295904077
 50
348.3456831360927026
 51
1.2021168861737761
  0
ARC
  5
EC57
  8
0
 10
4160.7274530617523851
 20
248.4588815228742931
 30
0.0
 40
0.1357786026604995
 50
27.9521368331633511
 51
47.8113443842272403
  0
ARC
  5
EC58
  8
0
 10
4160.735915043195746
 20
248.4776450634153946
 30
0.0
 40
0.1263078381141446
 50
267.3615683089226991
 51
344.1142463136745278
  0
ARC
  5
EC59
  8
0
 10
4160.7312059323439826
 20
248.425056824215801
 30
0.0
 40
0.1394826292475497
 50
34.7690717381237704
 51
96.2949502175381156
  0
ARC
  5
EC5A
  8
0
 10
4160.7703336785134525
 20
248.4596826506999889
 30
0.0
 40
0.0878090318866278
 50
341.3475131349418916
 51
30.7658038954048294
  0
ARC
  5
EC5B
  8
0
 10
4160.7283117667384431
 20
248.6049550238695929
 30
0.0
 40
0.110853519157603
 50
244.7116774918436022
 51
295.8382182055610201
  0
ARC
  5
EC5C
  8
0
 10
4160.7673076571500133
 20
248.4757484477538867
 30
0.0
 40
0.0927445112290581
 50
356.6778367491559152
 51
30.2892170359789397
  0
ARC
  5
EC5D
  8
0
 10
4160.9035204343117584
 20
248.0210985881120962
 30
0.0
 40
0.1242958197571892
 50
97.3492813364377838
 51
113.6824934385262935
  0
ARC
  5
EC5E
  8
0
 10
4160.9037522601738601
 20
248.0393433025872127
 30
0.0
 40
0.1129061955545768
 50
144.1792678945699038
 51
197.2061306278490065
  0
ARC
  5
EC5F
  8
0
 10
4160.9162940044452625
 20
248.0479270727138896
 30
0.0
 40
0.1275048909555202
 50
199.2240194827720927
 51
273.8259164365512106
  0
ARC
  5
EC60
  8
0
 10
4160.9238289848835848
 20
248.0041200981794134
 30
0.0
 40
0.0848405799117859
 50
54.4928582906560806
 51
143.0944207783448121
  0
ARC
  5
EC61
  8
0
 10
4160.9030114905799564
 20
248.0276567199342992
 30
0.0
 40
0.0544287955943765
 50
149.7619735020882956
 51
242.3282828798355126
  0
ARC
  5
EC62
  8
0
 10
4160.9167475895128518
 20
247.9996587544607962
 30
0.0
 40
0.133416026159747
 50
92.6353507398124236
 51
145.4080866904085099
  0
ARC
  5
EC63
  8
0
 10
4160.8814257253980031
 20
248.0279802170607866
 30
0.0
 40
0.0883198510123077
 50
147.52440212243161
 51
194.4478751759401973
  0
LINE
  5
EC64
  8
0
 10
4160.9190630648508886
 20
248.0873160367663104
 30
0.0
 11
4160.9308740884507642
 21
248.0873160367663104
 31
0.0
  0
LINE
  5
EC65
  8
0
 10
4160.9308740884507642
 20
248.0873160367663104
 30
0.0
 11
4160.9308740884507642
 21
248.0683935624662979
 31
0.0
  0
LINE
  5
EC66
  8
0
 10
4160.9308740884507642
 20
248.0683935624662979
 30
0.0
 11
4160.9190630648508886
 21
248.0683935624662979
 31
0.0
  0
LINE
  5
EC67
  8
0
 10
4160.9190630648508886
 20
248.0683935624662979
 30
0.0
 11
4160.9190630648508886
 21
248.0873160367663104
 31
0.0
  0
LINE
  5
EC68
  8
0
 10
4160.9190630648508886
 20
248.0716491217663133
 30
0.0
 11
4160.9308740884507642
 21
248.0716491217663133
 31
0.0
  0
LINE
  5
EC69
  8
0
 10
4160.8953035488184469
 20
248.0840214341945966
 30
0.0
 11
4160.8960051134990863
 21
248.0679310418734929
 31
0.0
  0
LINE
  5
EC6A
  8
0
 10
4160.8960051134990863
 20
248.0679310418734929
 30
0.0
 11
4160.8920204038240627
 21
248.0677573026929963
 31
0.0
  0
LINE
  5
EC6B
  8
0
 10
4160.8840760735802178
 20
248.0703999262231036
 30
0.0
 11
4160.8837065996067395
 21
248.0788738151397013
 31
0.0
  0
LINE
  5
EC6C
  8
0
 10
4160.8958634152577361
 20
248.0711808923221042
 30
0.0
 11
4160.8840626659166446
 21
248.0707074311025053
 31
0.0
  0
ARC
  5
EC6D
  8
0
 10
4160.945483142946614
 20
248.0289428768215885
 30
0.0
 40
0.0521558269405727
 50
320.8322349223108745
 51
58.0216964982262482
  0
ARC
  5
EC6E
  8
0
 10
4160.9217669242480042
 20
248.0534957580584035
 30
0.0
 40
0.0861460200966316
 50
239.2603927327944007
 51
318.1330262593144766
  0
LINE
  5
EC6F
  8
0
 10
4160.9545925537631774
 20
248.0831866956123122
 30
0.0
 11
4160.95392738490591
 21
248.0679310418734929
 31
0.0
  0
LINE
  5
EC70
  8
0
 10
4160.95392738490591
 20
248.0679310418734929
 30
0.0
 11
4160.9545102167458026
 21
248.0679056295512908
 31
0.0
  0
LINE
  5
EC71
  8
0
 10
4160.9659252988976732
 20
248.0719795536651873
 30
0.0
 11
4160.9661720472331581
 21
248.0776387289523939
 31
0.0
  0
LINE
  5
EC72
  8
0
 10
4160.9540690831481697
 20
248.0711808923221042
 30
0.0
 11
4160.9630527139443075
 21
248.0708204575167031
 31
0.0
  0
ARC
  5
EC73
  8
0
 10
4160.9130742460765759
 20
247.981281358710703
 30
0.0
 40
0.1650662182396112
 50
53.066672737160161
 51
98.8704853413857592
  0
ARC
  5
EC74
  8
0
 10
4160.9321869152699946
 20
248.0370404443445977
 30
0.0
 40
0.1224374295904077
 50
348.3456831360927026
 51
1.2021168861737761
  0
ARC
  5
EC75
  8
0
 10
4160.9383384454222323
 20
248.0175069577692
 30
0.0
 40
0.1209391618845776
 50
37.7111409403261177
 51
52.3214966454551274
  0
ARC
  5
EC76
  8
0
 10
4160.9306161317863371
 20
248.0468802819686118
 30
0.0
 40
0.1263078381141446
 50
267.3615683089226991
 51
344.1142463136745278
  0
ARC
  5
EC77
  8
0
 10
4160.9259070209318452
 20
247.9942920427689899
 30
0.0
 40
0.1394826292475497
 50
34.7690717381237704
 51
96.2949502175381156
  0
ARC
  5
EC78
  8
0
 10
4160.9650347671022246
 20
248.0289178692532914
 30
0.0
 40
0.0878090318866278
 50
341.3475131349418916
 51
30.7658038954048294
  0
ARC
  5
EC79
  8
0
 10
4160.9230128553263057
 20
248.1741902424228954
 30
0.0
 40
0.110853519157603
 50
244.7116774918436022
 51
295.8382182055610201
  0
ARC
  5
EC7A
  8
0
 10
4160.9460022199873492
 20
248.0265396625459005
 30
0.0
 40
0.1093788044018581
 50
6.8625471151198969
 51
36.4234453626190202
  0
ARC
  5
EC7B
  8
0
 10
4163.3212837588916955
 20
247.7739176080675065
 30
0.0
 40
1.1134304822434851
 50
143.8173718047488876
 51
149.5314704032055886
  0
ARC
  5
EC7C
  8
0
 10
4163.3290237814080683
 20
247.7801317968252022
 30
0.0
 40
1.073665968036924
 50
143.8594141927142118
 51
149.3734895929055995
  0
ARC
  5
EC7D
  8
0
 10
4162.3480732838706899
 20
248.198059188161011
 30
0.0
 40
0.141090892254817
 50
66.1478434205301795
 51
84.4946586063257428
  0
ARC
  5
EC7E
  8
0
 10
4162.6198350942140678
 20
248.3442194990296059
 30
0.0
 40
0.2582891047684017
 50
178.7323945450220037
 51
181.2690124339474949
  0
ARC
  5
EC7F
  8
0
 10
4163.2784071189425958
 20
247.8146612335281134
 30
0.0
 40
1.0616189101350619
 50
144.1503024874702987
 51
149.7214950292741094
  0
ARC
  5
EC80
  8
0
 10
4163.0446415767501094
 20
247.9071269026202913
 30
0.0
 40
0.760770608108989
 50
163.5378202990432044
 51
169.5509450242832088
  0
ARC
  5
EC81
  8
0
 10
4162.2876116595307394
 20
247.9940294398496121
 30
0.0
 40
0.0518372001466134
 50
353.4042187562159825
 51
80.1413060130673642
  0
LINE
  5
EC82
  8
0
 10
4162.3391057609578638
 20
247.9880752113309086
 30
0.0
 11
4162.3501130801605541
 21
247.9817947161292864
 31
0.0
  0
ARC
  5
EC83
  8
0
 10
4163.0321703236540998
 20
247.9023036592315066
 30
0.0
 40
0.7957506902835185
 50
162.9759443258257079
 51
169.5893452270821058
  0
ARC
  5
EC84
  8
0
 10
4162.2594982552500369
 20
247.9765223068291959
 30
0.0
 40
0.0702871044174497
 50
98.162040336294524
 51
169.8184917430783116
  0
ARC
  5
EC85
  8
0
 10
4162.2689014282468634
 20
247.9779930938555026
 30
0.0
 40
0.0512395966330001
 50
69.9691063176029786
 51
147.509852542102692
  0
ARC
  5
EC86
  8
0
 10
4162.2774457405866997
 20
247.9965707612543895
 30
0.0
 40
0.0309039089840935
 50
304.9724894392144279
 51
73.055840562124061
  0
ARC
  5
EC87
  8
0
 10
4162.2619341239987989
 20
248.048336838213487
 30
0.0
 40
0.050063340273229
 50
229.2193219000521083
 51
320.9483999121204079
  0
ARC
  5
EC88
  8
0
 10
4162.2612637259489929
 20
248.0103728971118926
 30
0.0
 40
0.0517660942811221
 50
248.1701818141416993
 51
310.9032756355784954
  0
ARC
  5
EC89
  8
0
 10
4162.2515516866451435
 20
247.990611365283911
 30
0.0
 40
0.0298567706596224
 50
150.0511146084884047
 51
251.3713686197837092
  0
ARC
  5
EC8A
  8
0
 10
4162.2861902892163926
 20
248.0020822469392101
 30
0.0
 40
0.0551029966544918
 50
356.3264403681035901
 51
77.0526430659395487
  0
ARC
  5
EC8B
  8
0
 10
4162.2498751210578121
 20
247.995179036885105
 30
0.0
 40
0.0597404898921677
 50
90.2440860764894239
 51
183.0425690954994877
  0
ARC
  5
EC8C
  8
0
 10
4163.0302223936278097
 20
247.9143818935939123
 30
0.0
 40
0.7937574796932929
 50
163.7257960657277067
 51
169.5374903989878987
  0
LINE
  5
EC8D
  8
0
 10
4162.3411800652929742
 20
247.9985516992097985
 30
0.0
 11
4162.3501130801942054
 21
247.9934558487099139
 31
0.0
  0
ARC
  5
EC8E
  8
0
 10
4161.6003573880061595
 20
248.7370984001476018
 30
0.0
 40
1.065587221229535
 50
279.1226010700821121
 51
311.0038301531761817
  0
LINE
  5
EC8F
  8
0
 10
4162.2994992644944432
 20
247.9329362507099006
 30
0.0
 11
4162.2884925633943567
 21
247.9392163940098897
 31
0.0
  0
ARC
  5
EC90
  8
0
 10
4162.2589905896620621
 20
248.0145774073899076
 30
0.0
 40
0.0809299004801196
 50
226.8804495087723865
 51
291.3791149406962973
  0
LINE
  5
EC91
  8
0
 10
4162.3391057609578638
 20
247.9880752113309086
 30
0.0
 11
4162.3411800652929742
 21
247.9985516992097985
 31
0.0
  0
LINE
  5
EC92
  8
0
 10
4162.2495193732929692
 20
248.0460974386099053
 30
0.0
 11
4162.2496619738940353
 21
248.0585219911098989
 31
0.0
  0
ARC
  5
EC93
  8
0
 10
4161.6149369670247324
 20
248.7312630486738101
 30
0.0
 40
1.0432290093276879
 50
278.7981137176353172
 51
310.4476299972512265
  0
ARC
  5
EC94
  8
0
 10
4162.7079643440893051
 20
246.2846541418861932
 30
0.0
 40
1.781171261477821
 50
106.895157827076801
 51
110.8863616359723068
  0
ARC
  5
EC95
  8
0
 10
4162.6997325382062627
 20
246.3212090414855027
 30
0.0
 40
1.7079215350187951
 50
106.8846736147029048
 51
110.7598544487257044
  0
ARC
  5
EC96
  8
0
 10
4162.0152387877760702
 20
247.8855585181717061
 30
0.0
 40
0.0856029480839223
 50
22.4457911793930798
 51
47.6109537709578206
  0
ARC
  5
EC97
  8
0
 10
4162.1351560809962393
 20
247.9546052790599902
 30
0.0
 40
0.0624789342263651
 50
174.6534365863608116
 51
185.346563413901805
  0
ARC
  5
EC98
  8
0
 10
4162.7100928193349318
 20
246.2903506047807127
 30
0.0
 40
1.7874863966375101
 50
106.902814668758495
 51
110.8821428428162932
  0
ARC
  5
EC99
  8
0
 10
4161.1738644633924196
 20
246.0594727820025014
 30
0.0
 40
1.779677940207598
 50
74.1006133691287374
 51
78.0016183434390626
  0
ARC
  5
EC9A
  8
0
 10
4161.718760824034689
 20
247.6934712811824966
 30
0.0
 40
0.0964928643322271
 50
69.78304189423352
 51
126.4699799517598962
  0
LINE
  5
EC9B
  8
0
 10
4161.7521064376942377
 20
247.7840192956099088
 30
0.0
 11
4161.8487153502619549
 21
247.8447364254847969
 31
0.0
  0
ARC
  5
EC9C
  8
0
 10
4161.1772905452926352
 20
246.1088699107062041
 30
0.0
 40
1.6954607902038119
 50
74.0748524709135978
 51
77.7648387080040777
  0
ARC
  5
EC9D
  8
0
 10
4161.7145902076999846
 20
247.7423720074627909
 30
0.0
 40
0.0721640220130196
 50
182.4711435075035979
 51
251.5563779063948004
  0
ARC
  5
EC9E
  8
0
 10
4161.7204234408645789
 20
247.7195782243805127
 30
0.0
 40
0.0512395966330001
 50
69.9691063176029786
 51
147.509852542102692
  0
ARC
  5
EC9F
  8
0
 10
4161.7289677532044152
 20
247.7381558917793996
 30
0.0
 40
0.0309039089840935
 50
304.9724894392144279
 51
73.055840562124061
  0
ARC
  5
ECA0
  8
0
 10
4161.7134561366183334
 20
247.7899219687384971
 30
0.0
 40
0.050063340273229
 50
229.2193219000521083
 51
320.9483999121204079
  0
ARC
  5
ECA1
  8
0
 10
4161.7127857385667085
 20
247.7519580276369027
 30
0.0
 40
0.0517660942811221
 50
248.1701818141416993
 51
310.9032756355784954
  0
ARC
  5
ECA2
  8
0
 10
4161.703073699262859
 20
247.7321964958088927
 30
0.0
 40
0.0298567706596224
 50
150.0511146084884047
 51
251.3713686197837092
  0
ARC
  5
ECA3
  8
0
 10
4161.718407342307728
 20
247.7017745527338093
 30
0.0
 40
0.0997583589293384
 50
70.2566648429268241
 51
125.5109303011051054
  0
ARC
  5
ECA4
  8
0
 10
4161.1761008489093001
 20
246.0800396069062117
 30
0.0
 40
1.770481825015169
 50
74.1228393554103633
 51
78.023246961889356
  0
LINE
  5
ECA5
  8
0
 10
4161.7521064376942377
 20
247.7956686481097961
 30
0.0
 11
4161.8446860704079882
 21
247.8543836027496923
 31
0.0
  0
ARC
  5
ECA6
  8
0
 10
4161.7456763531054094
 20
247.7357720082852097
 30
0.0
 40
0.0457005436295493
 50
297.5423574629468817
 51
31.3803450027230504
  0
LINE
  5
ECA7
  8
0
 10
4161.7668084779697892
 20
247.6952507424269925
 30
0.0
 11
4161.7693036346936424
 21
247.6849894268098922
 31
0.0
  0
LINE
  5
ECA8
  8
0
 10
4161.7521064376942377
 20
247.7840192956099088
 30
0.0
 11
4161.7521064376942377
 21
247.7956686481097961
 31
0.0
  0
LINE
  5
ECA9
  8
0
 10
4161.6614053182865973
 20
247.771067794167891
 30
0.0
 11
4161.6604618761439269
 21
247.7829783280598974
 31
0.0
  0
ARC
  5
ECAA
  8
0
 10
4161.5560846380321891
 20
248.8776099956043879
 30
0.0
 40
1.211317526208191
 50
247.3111831630654081
 51
276.4309707837750238
  0
ARC
  5
ECAB
  8
0
 10
4161.556804675755302
 20
248.9018238696149012
 30
0.0
 40
1.2236823156177881
 50
247.86157840391121
 51
275.4328334459739835
  0
ARC
  5
ECAC
  8
0
 10
4160.2281923195068885
 20
247.2843001770339129
 30
0.0
 40
1.041912238495496
 50
34.8409747185237819
 51
40.3898847312442015
  0
ARC
  5
ECAD
  8
0
 10
4161.0922397582862686
 20
247.7946653522139968
 30
0.0
 40
0.0853460823124996
 50
33.8807050887056818
 51
95.9908199466872674
  0
LINE
  5
ECAE
  8
0
 10
4161.1630940812938206
 20
247.8422428540098963
 30
0.0
 11
4161.2888528221619708
 21
247.8378609092715124
 31
0.0
  0
ARC
  5
ECAF
  8
0
 10
4161.6679979220616588
 20
248.3777492753544891
 30
0.0
 40
0.8170337521016428
 50
213.0590694286852909
 51
219.2319681086644039
  0
ARC
  5
ECB0
  8
0
 10
4161.0631703178823955
 20
247.8270682522552022
 30
0.0
 40
0.0440234778080239
 50
129.563458865706707
 51
216.6306560880337031
  0
ARC
  5
ECB1
  8
0
 10
4161.0980322761615753
 20
247.8124616045516859
 30
0.0
 40
0.0512395966330001
 50
69.9691063176029786
 51
147.509852542102692
  0
ARC
  5
ECB2
  8
0
 10
4161.1065765884995926
 20
247.8310392719506012
 30
0.0
 40
0.0309039089840935
 50
304.9724894392144279
 51
73.055840562124061
  0
ARC
  5
ECB3
  8
0
 10
4161.0910649719116918
 20
247.8828053489096135
 30
0.0
 40
0.050063340273229
 50
229.2193219000521083
 51
320.9483999121204079
  0
ARC
  5
ECB4
  8
0
 10
4161.0903945738627954
 20
247.8448414078081043
 30
0.0
 40
0.0517660942811221
 50
248.1701818141416993
 51
310.9032756355784954
  0
ARC
  5
ECB5
  8
0
 10
4161.0806825345589459
 20
247.8250798759800944
 30
0.0
 40
0.0298567706596224
 50
150.0511146084884047
 51
251.3713686197837092
  0
ARC
  5
ECB6
  8
0
 10
4161.0922895776639052
 20
247.8064177493268119
 30
0.0
 40
0.0852472979614205
 50
33.8418736886904412
 51
96.0314571225284936
  0
ARC
  5
ECB7
  8
0
 10
4161.079005968970705
 20
247.829647547581402
 30
0.0
 40
0.0597404898921677
 50
142.9134842307385043
 51
183.0425690954994877
  0
ARC
  5
ECB8
  8
0
 10
4160.2301510184615836
 20
247.2973675037239047
 30
0.0
 40
1.0394936904791841
 50
34.8384370072519829
 51
39.9659188577552271
  0
LINE
  5
ECB9
  8
0
 10
4161.1630940812938206
 20
247.853892206409796
 30
0.0
 11
4161.2932567128236769
 21
247.8484011943681082
 31
0.0
  0
LINE
  5
ECBA
  8
0
 10
4161.283134245484689
 20
247.8029903033535959
 30
0.0
 11
4161.1660506558937414
 21
247.8073139455098897
 31
0.0
  0
ARC
  5
ECBB
  8
0
 10
4161.1010732424929301
 20
247.8416473863514966
 30
0.0
 40
0.0734904715754553
 50
265.7196787199044934
 51
332.148457474137615
  0
LINE
  5
ECBC
  8
0
 10
4161.1630940812938206
 20
247.8422428540098963
 30
0.0
 11
4161.1630940812938206
 21
247.853892206409796
 31
0.0
  0
LINE
  5
ECBD
  8
0
 10
4161.0833322629941904
 20
247.8795453280253014
 30
0.0
 11
4161.0833322629941904
 21
247.8911931486098865
 31
0.0
  0
ARC
  5
ECBE
  8
0
 10
4161.3747887033359802
 20
248.546642742696605
 30
0.0
 40
0.8230405765415245
 50
206.8751056276917097
 51
244.5196971484486141
  0
ARC
  5
ECBF
  8
0
 10
419453.4341875376994722
 20
-335797.4178508031181991
 30
0.0
 40
534222.9607080586720258
 50
141.0209991507830978
 51
141.021000375675186
  0
ARC
  5
ECC0
  8
0
 10
4160.9827022264998959
 20
247.8528148302000034
 30
0.0
 40
0.1409806355900949
 50
318.8431158462697113
 51
323.1988782532565097
  0
ARC
  5
ECC1
  8
0
 10
4161.4202668739817454
 20
248.5996353050254015
 30
0.0
 40
0.9011584836284278
 50
208.3431151975877071
 51
243.6764462934397955
  0
ARC
  5
ECC2
  8
0
 10
4160.7452341069829345
 20
247.7977537261600105
 30
0.0
 40
0.2754850367007191
 50
358.7872597801716097
 51
1.2127402197925099
  0
ARC
  5
ECC3
  8
0
 10
4674.8732122733008509
 20
-168.0567019662161101
 30
0.0
 40
661.0478241400885508
 50
141.0164021629288129
 51
141.0167930152300926
  0
ARC
  5
ECC4
  8
0
 10
4160.0203019131959081
 20
248.457727070309403
 30
0.0
 40
0.7324704506973787
 50
344.633622079685324
 51
351.674529696188813
  0
ARC
  5
ECC5
  8
0
 10
4160.7035108086611217
 20
248.2111309046445058
 30
0.0
 40
0.0573465518485929
 50
342.1204188931242243
 51
66.2714069222809314
  0
LINE
  5
ECC6
  8
0
 10
4160.7580877444597718
 20
248.1935245112674977
 30
0.0
 11
4160.8537985579332599
 21
248.1239699305384931
 31
0.0
  0
ARC
  5
ECC7
  8
0
 10
4160.0086507892028749
 20
248.4598880009706932
 30
0.0
 40
0.6967091431381807
 50
344.6878538940948147
 51
351.220092025826375
  0
ARC
  5
ECC8
  8
0
 10
4160.6747325800961335
 20
248.2106384622468056
 30
0.0
 40
0.0655300255425255
 50
84.8385951459124357
 51
158.6234012087375902
  0
ARC
  5
ECC9
  8
0
 10
4160.6885432497101647
 20
248.2045995576368114
 30
0.0
 40
0.0512395966330001
 50
69.9691063176029786
 51
147.509852542102692
  0
ARC
  5
ECCA
  8
0
 10
4160.6970875620490915
 20
248.2231772250358119
 30
0.0
 40
0.0309039089840935
 50
304.9724894392144279
 51
73.055840562124061
  0
ARC
  5
ECCB
  8
0
 10
4160.6815759454611907
 20
248.2749433019947105
 30
0.0
 40
0.050063340273229
 50
229.2193219000521083
 51
320.9483999121204079
  0
ARC
  5
ECCC
  8
0
 10
4160.6809055474113848
 20
248.2369793608932866
 30
0.0
 40
0.0517660942811221
 50
248.1701818141416993
 51
310.9032756355784954
  0
ARC
  5
ECCD
  8
0
 10
4160.6711935081066258
 20
248.2172178290651914
 30
0.0
 40
0.0298567706596224
 50
150.0511146084884047
 51
251.3713686197837092
  0
ARC
  5
ECCE
  8
0
 10
4160.6987718436794239
 20
248.2175937519384092
 30
0.0
 40
0.0638495391249762
 50
346.9695163369652278
 51
61.4499159511029021
  0
ARC
  5
ECCF
  8
0
 10
4160.6764544571806255
 20
248.2189699270317078
 30
0.0
 40
0.0683912837209004
 50
86.5598197887896674
 51
156.552228952549001
  0
ARC
  5
ECD0
  8
0
 10
4159.7143634243066117
 20
248.5376526087534899
 30
0.0
 40
0.9981183139849296
 50
345.463289606349008
 51
349.3914925674492906
  0
LINE
  5
ECD1
  8
0
 10
4160.7609772727419113
 20
248.2031976329624001
 30
0.0
 11
4160.8535947834916442
 21
248.1349268807252031
 31
0.0
  0
ARC
  5
ECD2
  8
0
 10
4160.8746250999402037
 20
248.0542833304504882
 30
0.0
 40
0.0727321599011435
 50
106.6393049737404937
 51
140.5653036174348927
  0
LINE
  5
ECD3
  8
0
 10
4160.8184504845694391
 20
248.100482677543198
 30
0.0
 11
4160.7300316502942223
 21
248.1659954830099082
 31
0.0
  0
ARC
  5
ECD4
  8
0
 10
4160.6931640677321411
 20
248.2517095640567959
 30
0.0
 40
0.0933066039120714
 50
235.743148061368089
 51
293.2736436735672783
  0
LINE
  5
ECD5
  8
0
 10
4160.6806277738805875
 20
248.2759027782076089
 30
0.0
 11
4160.6805289955545959
 21
248.2871246509330092
 31
0.0
  0
ARC
  5
ECD6
  8
0
 10
4124.2574132451809419
 20
424.794446425215483
 30
0.0
 40
180.2642133039061889
 50
281.6310348959124212
 51
281.6354163282031209
  0
ARC
  5
ECD7
  8
0
 10
4160.6824872177112411
 20
247.9371483617721026
 30
0.0
 40
0.2411003811962519
 50
99.994968190961302
 51
103.2714766129015942
  0
ARC
  5
ECD8
  8
0
 10
4161.2229606935761694
 20
248.4796876077818979
 30
0.0
 40
0.670295149031886
 50
158.2889924700911024
 51
201.7095578985980069
  0
ARC
  5
ECD9
  8
0
 10
4156.892817281222051
 20
248.2374832517330958
 30
0.0
 40
3.7073961512345179
 50
359.9113070038970932
 51
0.0886932552017306
  0
ARC
  5
ECDA
  8
0
 10
4161.2543701175482056
 20
248.5009905378182964
 30
0.0
 40
0.7031153999550965
 50
184.7897701330304017
 51
201.5066233344203965
  0
ARC
  5
ECDB
  8
0
 10
4288.7005041517795689
 20
582.4932966900372548
 30
0.0
 40
357.4385117855626959
 50
249.0036312582485891
 51
249.0059494247803968
  0
ARC
  5
ECDC
  8
0
 10
4160.6814361139477114
 20
248.7058789383974045
 30
0.0
 40
0.086712118054848
 50
55.9092771570699085
 51
118.0589720205530995
  0
LINE
  5
ECDD
  8
0
 10
4160.730038681894257
 20
248.7776896744099133
 30
0.0
 11
4160.8097844284311577
 21
248.8295076125789933
 31
0.0
  0
ARC
  5
ECDE
  8
0
 10
4160.6341561929639283
 20
248.7959050590725099
 30
0.0
 40
0.0762311538322932
 50
243.561498028787895
 51
254.4480757967812963
  0
ARC
  5
ECDF
  8
0
 10
4160.6893295931122339
 20
248.7467114990049026
 30
0.0
 40
0.0794043475816324
 50
197.7795944634370073
 51
263.7269787663196894
  0
ARC
  5
ECE0
  8
0
 10
4160.6942087802335664
 20
248.7133410375375036
 30
0.0
 40
0.0512395966330001
 50
69.9691063176029786
 51
147.509852542102692
  0
ARC
  5
ECE1
  8
0
 10
4160.7027530925715837
 20
248.7319187049365041
 30
0.0
 40
0.0309039089840935
 50
304.9724894392144279
 51
73.055840562124061
  0
ARC
  5
ECE2
  8
0
 10
4160.6872414759845924
 20
248.7836847818954027
 30
0.0
 40
0.050063340273229
 50
229.2193219000521083
 51
320.9483999121204079
  0
ARC
  5
ECE3
  8
0
 10
4160.6865710779338769
 20
248.7457208407938936
 30
0.0
 40
0.0517660942811221
 50
248.1701818141416993
 51
310.9032756355784954
  0
ARC
  5
ECE4
  8
0
 10
4160.6768590386300275
 20
248.725959308965912
 30
0.0
 40
0.0298567706596224
 50
150.0511146084884047
 51
251.3713686197837092
  0
ARC
  5
ECE5
  8
0
 10
4160.68143048048114
 20
248.7175375332134877
 30
0.0
 40
0.0867105122128083
 50
55.9040639634713727
 51
118.0553194533973027
  0
ARC
  5
ECE6
  8
0
 10
4160.6773145278330048
 20
248.898253680607894
 30
0.0
 40
0.1104577992954649
 50
246.0156463977810972
 51
250.6130437357957987
  0
LINE
  5
ECE7
  8
0
 10
4160.730038681894257
 20
248.7893425169098123
 30
0.0
 11
4160.80428943408333
 21
248.8369949273306929
 31
0.0
  0
LINE
  5
ECE8
  8
0
 10
4160.8443257372782682
 20
248.7992077956020864
 30
0.0
 11
4160.7580940217258103
 21
248.7436019304242905
 31
0.0
  0
ARC
  5
ECE9
  8
0
 10
4160.706541472733079
 20
248.7242747538826109
 30
0.0
 40
0.055056380746009
 50
294.3826712337569234
 51
20.5511445688459489
  0
LINE
  5
ECEA
  8
0
 10
4160.730038681894257
 20
248.7776896744099133
 30
0.0
 11
4160.730038681894257
 21
248.7893425169098123
 31
0.0
  0
LINE
  5
ECEB
  8
0
 10
4160.6406484597937379
 20
248.7823992539098867
 30
0.0
 11
4160.6406484597937379
 21
248.7940590316098906
 31
0.0
  0
ARC
  5
ECEC
  8
0
 10
4159.8395308323251811
 20
248.4579278312994006
 30
0.0
 40
0.8669060793471958
 50
7.4795750997842481
 51
14.00893628328798
  0
ARC
  5
ECED
  8
0
 10
4160.1293564026773311
 20
248.5229021484097984
 30
0.0
 40
0.6186810766979497
 50
4.292419524459544
 51
14.14839618014555
  0
ARC
  5
ECEE
  8
0
 10
4160.7175005031722321
 20
248.4137936837960865
 30
0.0
 40
0.1580610007711244
 50
79.5010049915611035
 51
96.6995317297927102
  0
ARC
  5
ECEF
  8
0
 10
4161.2428188663770925
 20
249.2894723142862006
 30
0.0
 40
0.1783909603307046
 50
210.3440947628830031
 51
214.6404500125858874
  0
ARC
  5
ECF0
  8
0
 10
4161.09309638954619
 20
249.1107959119335931
 30
0.0
 40
0.0773310084771321
 50
19.3291397097055899
 51
87.8108451411917059
  0
LINE
  5
ECF1
  8
0
 10
4161.1660684605940332
 20
249.1363920389659086
 30
0.0
 11
4161.2810361512001691
 21
249.1339860384993017
 31
0.0
  0
ARC
  5
ECF2
  8
0
 10
4159.7158708057522745
 20
248.3285281911356037
 30
0.0
 40
1.551232263453975
 50
32.24527451545395
 51
32.7392668387523003
  0
ARC
  5
ECF3
  8
0
 10
4161.4087512219057317
 20
248.3716686665258919
 30
0.0
 40
0.8853747518246278
 50
115.9966620926011984
 51
151.9813932167230917
  0
ARC
  5
ECF4
  8
0
 10
4161.0801738297159318
 20
249.1247193366397994
 30
0.0
 40
0.0610457226439441
 50
148.9782814755843106
 51
230.1051128337514058
  0
ARC
  5
ECF5
  8
0
 10
4161.0971620545096812
 20
249.1048561148450062
 30
0.0
 40
0.0512395966330001
 50
69.9691063176029786
 51
147.509852542102692
  0
ARC
  5
ECF6
  8
0
 10
4161.105706366848608
 20
249.1234337822438931
 30
0.0
 40
0.0309039089840935
 50
304.9724894392144279
 51
73.055840562124061
  0
ARC
  5
ECF7
  8
0
 10
4161.0901947502597977
 20
249.1751998592029054
 30
0.0
 40
0.050063340273229
 50
229.2193219000521083
 51
320.9483999121204079
  0
ARC
  5
ECF8
  8
0
 10
4161.0895243522109013
 20
249.1372359181013962
 30
0.0
 40
0.0517660942811221
 50
248.1701818141416993
 51
310.9032756355784954
  0
ARC
  5
ECF9
  8
0
 10
4161.0798123129070518
 20
249.1174743862733862
 30
0.0
 40
0.0298567706596224
 50
150.0511146084884047
 51
251.3713686197837092
  0
ARC
  5
ECFA
  8
0
 10
4161.0931159095780458
 20
249.1224994725099009
 30
0.0
 40
0.0772865139736106
 50
19.2787574900148684
 51
87.824065754188041
  0
ARC
  5
ECFB
  8
0
 10
4161.0784473738658562
 20
249.1364249722693955
 30
0.0
 40
0.0595822846125763
 50
155.0254587222569
 51
186.9054771333526048
  0
ARC
  5
ECFC
  8
0
 10
4161.1286088043070777
 20
249.2219144022170951
 30
0.0
 40
0.0393978476367897
 50
210.7157414288423922
 51
214.2690742428366946
  0
LINE
  5
ECFD
  8
0
 10
4161.1660684605940332
 20
249.1480167322098112
 30
0.0
 11
4161.2820281730455463
 21
249.1456912748336094
 31
0.0
  0
LINE
  5
ECFE
  8
0
 10
4161.2871650268943995
 20
249.091832841888305
 30
0.0
 11
4161.1627132958246875
 21
249.0940372584136071
 31
0.0
  0
ARC
  5
ECFF
  8
0
 10
4161.0982628974670661
 20
249.1297126171650973
 30
0.0
 40
0.0736653586876312
 50
258.3203084568399959
 51
331.0340680002885847
  0
LINE
  5
ED00
  8
0
 10
4161.1660684605940332
 20
249.1363920389659086
 30
0.0
 11
4161.1660684605940332
 21
249.1480167322098112
 31
0.0
  0
LINE
  5
ED01
  8
0
 10
4161.0960503307942417
 20
249.1880704815098966
 30
0.0
 11
4161.0960503307942417
 21
249.1997302592099004
 31
0.0
  0
ARC
  5
ED02
  8
0
 10
4160.2883020902900171
 20
249.5493964057068865
 30
0.0
 40
0.8882054220001162
 50
321.2297338744821786
 51
327.936421229421228
  0
ARC
  5
ED03
  8
0
 10
4160.2997733295169382
 20
249.5462201584857098
 30
0.0
 40
0.9234549323951071
 50
321.1184423367985801
 51
328.0518519713313026
  0
ARC
  5
ED04
  8
0
 10
4093.7649366834921238
 20
153.5296147629609038
 30
0.0
 40
116.7530270708951008
 50
54.8279344307799832
 51
54.8506422213311424
  0
ARC
  5
ED05
  8
0
 10
4161.1486019734356887
 20
248.9990268286674109
 30
0.0
 40
0.1678999857025731
 50
178.0121556101181
 51
181.9878439665374117
  0
ARC
  5
ED06
  8
0
 10
4160.2881312980989605
 20
249.5611469838381993
 30
0.0
 40
0.8884027857787145
 50
321.2314760027811076
 51
327.376704484388199
  0
LINE
  5
ED07
  8
0
 10
4162.3501130801942054
 20
247.9817947161099028
 30
0.0
 11
4162.3501130801942054
 21
247.9934558487099139
 31
0.0
  0
ARC
  5
ED08
  8
0
 10
4161.8693089472153588
 20
248.5524196375502015
 30
0.0
 40
0.737301248828525
 50
310.7011444911879039
 51
318.6770251455110952
  0
LINE
  5
ED09
  8
0
 10
4161.784691146914156
 20
247.7595712495219118
 30
0.0
 11
4161.8697931918450195
 21
247.813019636406608
 31
0.0
  0
ARC
  5
ED0A
  8
0
 10
4162.2360856055047407
 20
247.2035802561501896
 30
0.0
 40
1.0480703691420949
 50
91.7019260284210702
 51
99.9933700433555543
  0
ARC
  5
ED0B
  8
0
 10
4162.2360856055047407
 20
247.2035802561501896
 30
0.0
 40
1.0480703691420949
 50
108.7235637921457965
 51
112.3111025766981044
  0
ARC
  5
ED0C
  8
0
 10
4162.2360856055047407
 20
247.2035802561501896
 30
0.0
 40
1.0480703691420949
 50
120.1520575397186974
 51
123.4957967713199025
  0
ARC
  5
ED0D
  8
0
 10
4162.2360856055047407
 20
247.2035802561501896
 30
0.0
 40
1.0480703691420949
 50
132.2118583919101127
 51
137.8932796421809996
  0
ARC
  5
ED0E
  8
0
 10
4162.2394241477913965
 20
247.1848817508999048
 30
0.0
 40
1.053542312968452
 50
91.9448966788574893
 51
100.0852052816642015
  0
ARC
  5
ED0F
  8
0
 10
4162.2394241477913965
 20
247.1848817508999048
 30
0.0
 40
1.053542312968452
 50
108.7458989080128049
 51
112.2035880500312999
  0
ARC
  5
ED10
  8
0
 10
4162.2394241477913965
 20
247.1848817508999048
 30
0.0
 40
1.053542312968452
 50
120.1408018955823991
 51
123.4345149959816013
  0
ARC
  5
ED11
  8
0
 10
4162.2394241477913965
 20
247.1848817508999048
 30
0.0
 40
1.053542312968452
 50
131.640787011712888
 51
137.9862632841534094
  0
ARC
  5
ED12
  8
0
 10
4162.2351094083087446
 20
247.2135761490415859
 30
0.0
 40
0.9889508072465185
 50
91.4889818558238659
 51
100.4375894195851942
  0
ARC
  5
ED13
  8
0
 10
4162.2351094083087446
 20
247.2135761490415859
 30
0.0
 40
0.9889508072465185
 50
108.618997020051296
 51
112.0205112390007969
  0
ARC
  5
ED14
  8
0
 10
4162.2351094083087446
 20
247.2135761490415859
 30
0.0
 40
0.9889508072465185
 50
120.8867770103370987
 51
124.428635114595707
  0
ARC
  5
ED15
  8
0
 10
4162.2351094083087446
 20
247.2135761490415859
 30
0.0
 40
0.9889508072465185
 50
131.5671172441329873
 51
138.1862101568775074
  0
ARC
  5
ED16
  8
0
 10
4161.4520258771699446
 20
247.820241511027092
 30
0.0
 40
0.0699389433461304
 50
48.870664643569377
 51
86.2019192073586566
  0
ARC
  5
ED17
  8
0
 10
4161.3947166257848949
 20
247.9053764525876034
 30
0.0
 40
0.0638155684072993
 50
346.0821327475711087
 51
0.8523310639517248
  0
ARC
  5
ED18
  8
0
 10
4161.6247989924941066
 20
248.0677153738031961
 30
0.0
 40
0.0343336982381484
 50
353.9215488605058226
 51
16.7212370069377414
  0
ARC
  5
ED19
  8
0
 10
4161.6152975024288025
 20
248.0211395859417109
 30
0.0
 40
0.0612249775589236
 50
7.6533357063362786
 51
44.5354826236467005
  0
ARC
  5
ED1A
  8
0
 10
4161.7168913362202147
 20
248.0407578376706965
 30
0.0
 40
0.1725281510201428
 50
31.2973490185381316
 51
43.8592181700485071
  0
ARC
  5
ED1B
  8
0
 10
4161.8044714289353578
 20
248.1582841885978894
 30
0.0
 40
0.0368755523262572
 50
3.134674052961572
 51
23.8389287357948305
  0
ARC
  5
ED1C
  8
0
 10
4161.9911556244924213
 20
248.2037987831882901
 30
0.0
 40
0.066366332746356
 50
350.3760021680241721
 51
16.0479267356620703
  0
ARC
  5
ED1D
  8
0
 10
4161.6936351012909654
 20
248.2096802230416017
 30
0.0
 40
0.3615155707736742
 50
1.9759344155471741
 51
4.1351913616419651
  0
LINE
  5
ED1E
  8
0
 10
4160.8537985579332599
 20
248.1239699305384931
 30
0.0
 11
4160.8535947834916442
 21
248.1349268807252031
 31
0.0
  0
LINE
  5
ED1F
  8
0
 10
4160.6002089904932291
 20
248.243222259116294
 30
0.0
 11
4160.6137107081940485
 21
248.2461837039099066
 31
0.0
  0
LINE
  5
ED20
  8
0
 10
4160.6137107081940485
 20
248.2461837039099066
 30
0.0
 11
4160.6137107081158319
 21
248.2345239261873928
 31
0.0
  0
ARC
  5
ED21
  8
0
 10
4160.4602632804826499
 20
248.4449438299454869
 30
0.0
 40
0.6589543710850791
 50
349.2827238276357775
 51
353.4390183820942752
  0
ARC
  5
ED22
  8
0
 10
4160.4602632804826499
 20
248.4449438299454869
 30
0.0
 40
0.6589543710850791
 50
5.5409222246004726
 51
8.7341775222180775
  0
ARC
  5
ED23
  8
0
 10
4160.4602632804826499
 20
248.4449438299454869
 30
0.0
 40
0.6589543710850791
 50
22.6642782608681799
 51
33.9012207492708271
  0
ARC
  5
ED24
  8
0
 10
4160.4400887677056744
 20
248.4243487445612004
 30
0.0
 40
0.6798892237677463
 50
6.0913443256083157
 51
10.1832714793747403
  0
ARC
  5
ED25
  8
0
 10
4160.4400887677056744
 20
248.4243487445610867
 30
0.0
 40
0.6798892237679232
 50
22.4762698000640704
 51
34.3332508022304523
  0
ARC
  5
ED26
  8
0
 10
4160.4728330407951944
 20
248.4423618321864922
 30
0.0
 40
0.5983946783561488
 50
348.1833011167718155
 51
352.8803495089571811
  0
ARC
  5
ED27
  8
0
 10
4160.4728330407951944
 20
248.4423618321864922
 30
0.0
 40
0.5983946783561488
 50
5.5174476264488241
 51
10.1857455834785799
  0
ARC
  5
ED28
  8
0
 10
4160.4728330407951944
 20
248.4423618321864922
 30
0.0
 40
0.5983946783561488
 50
21.3923784552809799
 51
35.1766043328278997
  0
ARC
  5
ED29
  8
0
 10
4161.103940255246016
 20
248.5836469574541923
 30
0.0
 40
0.1067385234051173
 50
109.487468160913707
 51
133.8453763883231034
  0
LINE
  5
ED2A
  8
0
 10
4161.0683322117938587
 20
248.6842709089777941
 30
0.0
 11
4161.0683322117938587
 21
248.6988592448878137
 31
0.0
  0
ARC
  5
ED2B
  8
0
 10
4161.0856562323961043
 20
248.4051215768253087
 30
0.0
 40
0.0963234861365441
 50
71.5506707561088717
 51
100.286726235146304
  0
LINE
  5
ED2C
  8
0
 10
4161.116138679893993
 20
248.4965004792952072
 30
0.0
 11
4161.116138679893993
 21
248.5085702679913027
 31
0.0
  0
ARC
  5
ED2D
  8
0
 10
4161.0885735470446889
 20
248.2174866936713897
 30
0.0
 40
0.1066494183522395
 50
79.6559545337722028
 51
106.3527441673791003
  0
ARC
  5
ED2E
  8
0
 10
4161.6715575533280571
 20
249.3019306350336137
 30
0.0
 40
2.4957284877284911
 50
269.2003731963607152
 51
313.6408809224358265
  0
ARC
  5
ED2F
  8
0
 10
4161.5869650340282533
 20
249.3983159534139986
 30
0.0
 40
2.4948179638778738
 50
271.6152309536373082
 51
303.8774879988733915
  0
ARC
  5
ED30
  8
0
 10
4161.5717200474928177
 20
249.4918140990679092
 30
0.0
 40
2.6035091947024389
 50
271.4355002872380851
 51
293.6822119502663213
  0
ARC
  5
ED31
  8
0
 10
4162.2358231889002127
 20
247.589584132296892
 30
0.0
 40
0.0163075007463187
 50
312.4321467855859282
 51
37.5996950543634014
  0
ARC
  5
ED32
  8
0
 10
4162.2286929422880348
 20
247.5972076108276951
 30
0.0
 40
0.0267453745575686
 50
217.5923314898466003
 51
312.6870406153090016
  0
ARC
  5
ED33
  8
0
 10
4162.2207841335030025
 20
247.5896409878172904
 30
0.0
 40
0.0159058808929741
 50
153.7770878470522007
 51
213.370753392602694
  0
ARC
  5
ED34
  8
0
 10
4162.2286886621332087
 20
247.5824872746973995
 30
0.0
 40
0.0263208626621462
 50
40.3647263624424113
 51
147.3972936572021979
  0
ARC
  5
ED35
  8
0
 10
4162.234785771513998
 20
247.6093396611956052
 30
0.0
 40
0.0638081396161144
 50
297.0523826459893826
 51
345.8703988503760911
  0
ARC
  5
ED36
  8
0
 10
4162.2281096308406632
 20
247.6401077591060869
 30
0.0
 40
0.0945892540384408
 50
239.1918360515415998
 51
292.1716863631227739
  0
ARC
  5
ED37
  8
0
 10
4162.2033197631553776
 20
247.5965070623109057
 30
0.0
 40
0.044456821179572
 50
189.4396215744071981
 51
237.8525666187902914
  0
LINE
  5
ED38
  8
0
 10
4162.1594649326179933
 20
247.5892157806763976
 30
0.0
 11
4162.1550858173441156
 21
247.6093792937803926
 31
0.0
  0
ARC
  5
ED39
  8
0
 10
4162.2051669983447937
 20
247.6118951004416999
 30
0.0
 40
0.0501443314197459
 50
121.4836442636170943
 51
182.8758115025869984
  0
ARC
  5
ED3A
  8
0
 10
4162.2428287918191927
 20
247.5642629304518891
 30
0.0
 40
0.1106707662852213
 50
86.165994162197336
 51
125.2353114832365009
  0
ARC
  5
ED3B
  8
0
 10
4162.2499057824898046
 20
247.6135086637860923
 30
0.0
 40
0.0611782005019706
 50
37.9295526475360916
 51
89.6973732047843555
  0
ARC
  5
ED3C
  8
0
 10
4162.2671587229478973
 20
247.6329824450673129
 30
0.0
 40
0.0359154315365556
 50
351.3163852515016856
 51
30.3215266097318512
  0
LINE
  5
ED3D
  8
0
 10
4162.3026624596077454
 20
247.6275600004491935
 30
0.0
 11
4162.2966634612821508
 21
247.5937630700971965
 31
0.0
  0
ARC
  5
ED3E
  8
0
 10
4162.2457676917319986
 20
247.5997723024817958
 30
0.0
 40
0.0512492949402101
 50
353.2662970031108216
 51
44.9297726543164728
  0
ARC
  5
ED3F
  8
0
 10
4162.2284713103708782
 20
247.5783107029675989
 30
0.0
 40
0.0787080853961828
 50
47.0987483063922525
 51
139.9811637228908978
  0
ARC
  5
ED40
  8
0
 10
4162.2114452215218989
 20
247.5986017637459895
 30
0.0
 40
0.0528208965833013
 50
144.9675257771328063
 51
190.23549990160069
  0
ARC
  5
ED41
  8
0
 10
4162.341420100700816
 20
247.4111397380997914
 30
0.0
 40
0.0163075007463187
 50
312.4321467855859282
 51
37.5996950543634014
  0
ARC
  5
ED42
  8
0
 10
4162.3342898540886381
 20
247.4187632166305946
 30
0.0
 40
0.0267453745575686
 50
217.5923314898466003
 51
312.6870406153090016
  0
ARC
  5
ED43
  8
0
 10
4162.3263810453026963
 20
247.4111965936201898
 30
0.0
 40
0.0159058808929741
 50
153.7770878470522007
 51
213.370753392602694
  0
ARC
  5
ED44
  8
0
 10
4162.334285573933812
 20
247.4040428805002989
 30
0.0
 40
0.0263208626621462
 50
40.3647263624424113
 51
147.3972936572021979
  0
ARC
  5
ED45
  8
0
 10
4162.3403826833146013
 20
247.4308952669985899
 30
0.0
 40
0.0638081396161144
 50
297.0523826459893826
 51
345.8703988503760911
  0
ARC
  5
ED46
  8
0
 10
4162.3337065426421759
 20
247.4616633649091
 30
0.0
 40
0.0945892540384408
 50
239.1918360515415998
 51
292.1716863631227739
  0
ARC
  5
ED47
  8
0
 10
4162.3089166749568903
 20
247.4180626681138904
 30
0.0
 40
0.044456821179572
 50
189.4396215744071981
 51
237.8525666187902914
  0
LINE
  5
ED48
  8
0
 10
4162.2650618444185966
 20
247.410771386479297
 30
0.0
 11
4162.2606827291447189
 21
247.430934899583292
 31
0.0
  0
ARC
  5
ED49
  8
0
 10
4162.3107639101463064
 20
247.433450706244713
 30
0.0
 40
0.0501443314197459
 50
121.4836442636170943
 51
182.8758115025869984
  0
ARC
  5
ED4A
  8
0
 10
4162.3484257036207055
 20
247.3858185362547886
 30
0.0
 40
0.1106707662852213
 50
86.165994162197336
 51
125.2353114832365009
  0
ARC
  5
ED4B
  8
0
 10
4162.3555026942922268
 20
247.4350642695889917
 30
0.0
 40
0.0611782005019706
 50
37.9295526475360916
 51
89.6973732047843555
  0
ARC
  5
ED4C
  8
0
 10
4162.3727556347494101
 20
247.4545380508702976
 30
0.0
 40
0.0359154315365556
 50
351.3163852515016856
 51
30.3215266097318512
  0
LINE
  5
ED4D
  8
0
 10
4162.4082593714092582
 20
247.4491156062520929
 30
0.0
 11
4162.4022603730836636
 21
247.415318675900096
 31
0.0
  0
ARC
  5
ED4E
  8
0
 10
4162.3513646035344209
 20
247.4213279082846952
 30
0.0
 40
0.0512492949402101
 50
353.2662970031108216
 51
44.9297726543164728
  0
ARC
  5
ED4F
  8
0
 10
4162.3340682221733005
 20
247.399866308770612
 30
0.0
 40
0.0787080853961828
 50
47.0987483063922525
 51
139.9811637228908978
  0
ARC
  5
ED50
  8
0
 10
4162.3170421333234117
 20
247.4201573695490026
 30
0.0
 40
0.0528208965833013
 50
144.9675257771328063
 51
190.23549990160069
  0
ARC
  5
ED51
  8
0
 10
4162.2600878579987693
 20
247.1697060530968884
 30
0.0
 40
0.0163075007463187
 50
312.4321467855859282
 51
37.5996950543634014
  0
ARC
  5
ED52
  8
0
 10
4162.2529576113884104
 20
247.1773295316276062
 30
0.0
 40
0.0267453745575686
 50
217.5923314898466003
 51
312.6870406153090016
  0
ARC
  5
ED53
  8
0
 10
4162.2450488026015591
 20
247.1697629086172867
 30
0.0
 40
0.0159058808929741
 50
153.7770878470522007
 51
213.370753392602694
  0
ARC
  5
ED54
  8
0
 10
4162.2529533312335843
 20
247.1626091954973958
 30
0.0
 40
0.0263208626621462
 50
40.3647263624424113
 51
147.3972936572021979
  0
ARC
  5
ED55
  8
0
 10
4162.2590504406143737
 20
247.1894615819956016
 30
0.0
 40
0.0638081396161144
 50
297.0523826459893826
 51
345.8703988503760911
  0
ARC
  5
ED56
  8
0
 10
4162.2523742999410388
 20
247.2202296799061116
 30
0.0
 40
0.0945892540384408
 50
239.1918360515415998
 51
292.1716863631227739
  0
ARC
  5
ED57
  8
0
 10
4162.2275844322557532
 20
247.176628983110902
 30
0.0
 40
0.044456821179572
 50
189.4396215744071981
 51
237.8525666187902914
  0
LINE
  5
ED58
  8
0
 10
4162.18372960171655
 20
247.1693377014763087
 30
0.0
 11
4162.1793504864454007
 21
247.1895012145803889
 31
0.0
  0
ARC
  5
ED59
  8
0
 10
4162.2294316674451693
 20
247.19201702124181
 30
0.0
 40
0.0501443314197459
 50
121.4836442636170943
 51
182.8758115025869984
  0
ARC
  5
ED5A
  8
0
 10
4162.2670934609186588
 20
247.1443848512519139
 30
0.0
 40
0.1106707662852213
 50
86.165994162197336
 51
125.2353114832365009
  0
ARC
  5
ED5B
  8
0
 10
4162.2741704515910897
 20
247.1936305845860034
 30
0.0
 40
0.0611782005019706
 50
37.9295526475360916
 51
89.6973732047843555
  0
ARC
  5
ED5C
  8
0
 10
4162.2914233920482729
 20
247.2131043658673946
 30
0.0
 40
0.0359154315365556
 50
351.3163852515016856
 51
30.3215266097318512
  0
LINE
  5
ED5D
  8
0
 10
4162.326927128708121
 20
247.2076819212491898
 30
0.0
 11
4162.3209281303834359
 21
247.1738849908971929
 31
0.0
  0
ARC
  5
ED5E
  8
0
 10
4162.2700323608323743
 20
247.1798942232817069
 30
0.0
 40
0.0512492949402101
 50
353.2662970031108216
 51
44.9297726543164728
  0
ARC
  5
ED5F
  8
0
 10
4162.2527359794712538
 20
247.1584326237675953
 30
0.0
 40
0.0787080853961828
 50
47.0987483063922525
 51
139.9811637228908978
  0
ARC
  5
ED60
  8
0
 10
4162.2357098906222745
 20
247.1787236845459859
 30
0.0
 40
0.0528208965833013
 50
144.9675257771328063
 51
190.23549990160069
  0
ARC
  5
ED61
  8
0
 10
4162.6808056668996869
 20
247.3570558038967988
 30
0.0
 40
0.0163075007463187
 50
312.4321467855859282
 51
37.5996950543634014
  0
ARC
  5
ED62
  8
0
 10
4162.673675420289328
 20
247.3646792824276019
 30
0.0
 40
0.0267453745575686
 50
217.5923314898466003
 51
312.6870406153090016
  0
ARC
  5
ED63
  8
0
 10
4162.6657666115015672
 20
247.3571126594173109
 30
0.0
 40
0.0159058808929741
 50
153.7770878470522007
 51
213.370753392602694
  0
ARC
  5
ED64
  8
0
 10
4162.6736711401326829
 20
247.3499589462973915
 30
0.0
 40
0.0263208626621462
 50
40.3647263624424113
 51
147.3972936572021979
  0
ARC
  5
ED65
  8
0
 10
4162.6797682495143818
 20
247.3768113327955973
 30
0.0
 40
0.0638081396161144
 50
297.0523826459893826
 51
345.8703988503760911
  0
ARC
  5
ED66
  8
0
 10
4162.6730921088410469
 20
247.4075794307061074
 30
0.0
 40
0.0945892540384408
 50
239.1918360515415998
 51
292.1716863631227739
  0
ARC
  5
ED67
  8
0
 10
4162.6483022411548518
 20
247.3639787339108977
 30
0.0
 40
0.044456821179572
 50
189.4396215744071981
 51
237.8525666187902914
  0
LINE
  5
ED68
  8
0
 10
4162.604447410616558
 20
247.3566874522763896
 30
0.0
 11
4162.6000682953435899
 21
247.3768509653804131
 31
0.0
  0
ARC
  5
ED69
  8
0
 10
4162.6501494763451774
 20
247.3793667720418057
 30
0.0
 40
0.0501443314197459
 50
121.4836442636170943
 51
182.8758115025869984
  0
ARC
  5
ED6A
  8
0
 10
4162.6878112698186669
 20
247.3317346020519096
 30
0.0
 40
0.1106707662852213
 50
86.165994162197336
 51
125.2353114832365009
  0
ARC
  5
ED6B
  8
0
 10
4162.6948882604910978
 20
247.3809803353859991
 30
0.0
 40
0.0611782005019706
 50
37.9295526475360916
 51
89.6973732047843555
  0
ARC
  5
ED6C
  8
0
 10
4162.712141200948281
 20
247.4004541166673903
 30
0.0
 40
0.0359154315365556
 50
351.3163852515016856
 51
30.3215266097318512
  0
LINE
  5
ED6D
  8
0
 10
4162.7476449376081291
 20
247.3950316720491003
 30
0.0
 11
4162.741645939281625
 21
247.3612347416971886
 31
0.0
  0
ARC
  5
ED6E
  8
0
 10
4162.6907501697332918
 20
247.3672439740817879
 30
0.0
 40
0.0512492949402101
 50
353.2662970031108216
 51
44.9297726543164728
  0
ARC
  5
ED6F
  8
0
 10
4162.6734537883712619
 20
247.345782374567591
 30
0.0
 40
0.0787080853961828
 50
47.0987483063922525
 51
139.9811637228908978
  0
ARC
  5
ED70
  8
0
 10
4162.6564276995231921
 20
247.36607343534601
 30
0.0
 40
0.0528208965833013
 50
144.9675257771328063
 51
190.23549990160069
  0
ARC
  5
ED71
  8
0
 10
4162.6618760435967488
 20
247.6027073499423068
 30
0.0
 40
0.0163075007463187
 50
312.4321467855859282
 51
37.5996950543634014
  0
ARC
  5
ED72
  8
0
 10
4162.6547457969863899
 20
247.6103308284731099
 30
0.0
 40
0.0267453745575686
 50
217.5923314898466003
 51
312.6870406153090016
  0
ARC
  5
ED73
  8
0
 10
4162.6468369882013576
 20
247.6027642054627051
 30
0.0
 40
0.0159058808929741
 50
153.7770878470522007
 51
213.370753392602694
  0
ARC
  5
ED74
  8
0
 10
4162.6547415168306543
 20
247.5956104923428995
 30
0.0
 40
0.0263208626621462
 50
40.3647263624424113
 51
147.3972936572021979
  0
ARC
  5
ED75
  8
0
 10
4162.6608386262123531
 20
247.6224628788411053
 30
0.0
 40
0.0638081396161144
 50
297.0523826459893826
 51
345.8703988503760911
  0
ARC
  5
ED76
  8
0
 10
4162.6541624855390182
 20
247.6532309767515869
 30
0.0
 40
0.0945892540384408
 50
239.1918360515415998
 51
292.1716863631227739
  0
ARC
  5
ED77
  8
0
 10
4162.6293726178528232
 20
247.6096302799564057
 30
0.0
 40
0.044456821179572
 50
189.4396215744071981
 51
237.8525666187902914
  0
LINE
  5
ED78
  8
0
 10
4162.5855177873163484
 20
247.6023389983218124
 30
0.0
 11
4162.5811386720433802
 21
247.6225025114258926
 31
0.0
  0
ARC
  5
ED79
  8
0
 10
4162.6312198530431488
 20
247.6250183180872
 30
0.0
 40
0.0501443314197459
 50
121.4836442636170943
 51
182.8758115025869984
  0
ARC
  5
ED7A
  8
0
 10
4162.6688816465166383
 20
247.5773861480973039
 30
0.0
 40
0.1106707662852213
 50
86.165994162197336
 51
125.2353114832365009
  0
ARC
  5
ED7B
  8
0
 10
4162.6759586371890691
 20
247.6266318814315071
 30
0.0
 40
0.0611782005019706
 50
37.9295526475360916
 51
89.6973732047843555
  0
ARC
  5
ED7C
  8
0
 10
4162.6932115776462524
 20
247.646105662712813
 30
0.0
 40
0.0359154315365556
 50
351.3163852515016856
 51
30.3215266097318512
  0
LINE
  5
ED7D
  8
0
 10
4162.7287153143061005
 20
247.6406832180946083
 30
0.0
 11
4162.7227163159814154
 21
247.6068862877426966
 31
0.0
  0
ARC
  5
ED7E
  8
0
 10
4162.6718205464312632
 20
247.6128955201272106
 30
0.0
 40
0.0512492949402101
 50
353.2662970031108216
 51
44.9297726543164728
  0
ARC
  5
ED7F
  8
0
 10
4162.6545241650701428
 20
247.591433920613099
 30
0.0
 40
0.0787080853961828
 50
47.0987483063922525
 51
139.9811637228908978
  0
ARC
  5
ED80
  8
0
 10
4162.637498076220254
 20
247.6117249813914043
 30
0.0
 40
0.0528208965833013
 50
144.9675257771328063
 51
190.23549990160069
  0
ARC
  5
ED81
  8
0
 10
4162.5111424416290902
 20
247.7605683609033065
 30
0.0
 40
0.0163075007463187
 50
312.4321467855859282
 51
37.5996950543634014
  0
ARC
  5
ED82
  8
0
 10
4162.5040121950169123
 20
247.7681918394341096
 30
0.0
 40
0.0267453745575686
 50
217.5923314898466003
 51
312.6870406153090016
  0
ARC
  5
ED83
  8
0
 10
4162.49610338623188
 20
247.7606252164237048
 30
0.0
 40
0.0159058808929741
 50
153.7770878470522007
 51
213.370753392602694
  0
ARC
  5
ED84
  8
0
 10
4162.5040079148629957
 20
247.753471503303814
 30
0.0
 40
0.0263208626621462
 50
40.3647263624424113
 51
147.3972936572021979
  0
ARC
  5
ED85
  8
0
 10
4162.510105024243785
 20
247.7803238898019913
 30
0.0
 40
0.0638081396161144
 50
297.0523826459893826
 51
345.8703988503760911
  0
ARC
  5
ED86
  8
0
 10
4162.5034288835704501
 20
247.8110919877125013
 30
0.0
 40
0.0945892540384408
 50
239.1918360515415998
 51
292.1716863631227739
  0
ARC
  5
ED87
  8
0
 10
4162.4786390158851646
 20
247.7674912909172917
 30
0.0
 40
0.044456821179572
 50
189.4396215744071981
 51
237.8525666187902914
  0
LINE
  5
ED88
  8
0
 10
4162.4347841853468708
 20
247.7602000092828121
 30
0.0
 11
4162.4304050700739026
 21
247.7803635223868071
 31
0.0
  0
ARC
  5
ED89
  8
0
 10
4162.4804862510745807
 20
247.7828793290481997
 30
0.0
 40
0.0501443314197459
 50
121.4836442636170943
 51
182.8758115025869984
  0
ARC
  5
ED8A
  8
0
 10
4162.5181480445489797
 20
247.7352471590583036
 30
0.0
 40
0.1106707662852213
 50
86.165994162197336
 51
125.2353114832365009
  0
ARC
  5
ED8B
  8
0
 10
4162.5252250352195915
 20
247.7844928923925067
 30
0.0
 40
0.0611782005019706
 50
37.9295526475360916
 51
89.6973732047843555
  0
ARC
  5
ED8C
  8
0
 10
4162.5424779756767748
 20
247.8039666736738127
 30
0.0
 40
0.0359154315365556
 50
351.3163852515016856
 51
30.3215266097318512
  0
LINE
  5
ED8D
  8
0
 10
4162.5779817123366229
 20
247.798544229055608
 30
0.0
 11
4162.5719827140119378
 21
247.764747298703611
 31
0.0
  0
ARC
  5
ED8E
  8
0
 10
4162.5210869444626951
 20
247.7707565310882103
 30
0.0
 40
0.0512492949402101
 50
353.2662970031108216
 51
44.9297726543164728
  0
ARC
  5
ED8F
  8
0
 10
4162.5037905631015747
 20
247.7492949315740987
 30
0.0
 40
0.0787080853961828
 50
47.0987483063922525
 51
139.9811637228908978
  0
ARC
  5
ED90
  8
0
 10
4162.4867644742507764
 20
247.769585992352404
 30
0.0
 40
0.0528208965833013
 50
144.9675257771328063
 51
190.23549990160069
  0
ARC
  5
ED91
  8
0
 10
4162.7228728822792618
 20
247.9847923807004122
 30
0.0
 40
0.0163075007463187
 50
312.4321467855859282
 51
37.5996950543634014
  0
ARC
  5
ED92
  8
0
 10
4162.7157426356679935
 20
247.9924158592311869
 30
0.0
 40
0.0267453745575686
 50
217.5923314898466003
 51
312.6870406153090016
  0
ARC
  5
ED93
  8
0
 10
4162.7078338268820517
 20
247.9848492362208106
 30
0.0
 40
0.0159058808929741
 50
153.7770878470522007
 51
213.370753392602694
  0
ARC
  5
ED94
  8
0
 10
4162.7157383555122578
 20
247.9776955231010049
 30
0.0
 40
0.0263208626621462
 50
40.3647263624424113
 51
147.3972936572021979
  0
ARC
  5
ED95
  8
0
 10
4162.7218354648930472
 20
248.004547909599097
 30
0.0
 40
0.0638081396161144
 50
297.0523826459893826
 51
345.8703988503760911
  0
ARC
  5
ED96
  8
0
 10
4162.7151593242188028
 20
248.0353160075096071
 30
0.0
 40
0.0945892540384408
 50
239.1918360515415998
 51
292.1716863631227739
  0
ARC
  5
ED97
  8
0
 10
4162.6903694565362457
 20
247.9917153107145111
 30
0.0
 40
0.044456821179572
 50
189.4396215744071981
 51
237.8525666187902914
  0
LINE
  5
ED98
  8
0
 10
4162.6465146259970425
 20
247.9844240290798894
 30
0.0
 11
4162.6421355107240743
 21
248.0045875421839128
 31
0.0
  0
ARC
  5
ED99
  8
0
 10
4162.6922166917229333
 20
248.0071033488453054
 30
0.0
 40
0.0501443314197459
 50
121.4836442636170943
 51
182.8758115025869984
  0
ARC
  5
ED9A
  8
0
 10
4162.7298784851991513
 20
247.9594711788554093
 30
0.0
 40
0.1106707662852213
 50
86.165994162197336
 51
125.2353114832365009
  0
ARC
  5
ED9B
  8
0
 10
4162.7369554758697632
 20
248.0087169121896125
 30
0.0
 40
0.0611782005019706
 50
37.9295526475360916
 51
89.6973732047843555
  0
ARC
  5
ED9C
  8
0
 10
4162.7542084163269465
 20
248.02819069347089
 30
0.0
 40
0.0359154315365556
 50
351.3163852515016856
 51
30.3215266097318512
  0
LINE
  5
ED9D
  8
0
 10
4162.7897121529867945
 20
248.0227682488527137
 30
0.0
 11
4162.7837131546612
 21
247.988971318500802
 31
0.0
  0
ARC
  5
ED9E
  8
0
 10
4162.7328173851110478
 20
247.9949805508852876
 30
0.0
 40
0.0512492949402101
 50
353.2662970031108216
 51
44.9297726543164728
  0
ARC
  5
ED9F
  8
0
 10
4162.7155210037499273
 20
247.9735189513712044
 30
0.0
 40
0.0787080853961828
 50
47.0987483063922525
 51
139.9811637228908978
  0
ARC
  5
EDA0
  8
0
 10
4162.6984949149009481
 20
247.9938100121495097
 30
0.0
 40
0.0528208965833013
 50
144.9675257771328063
 51
190.23549990160069
  0
ARC
  5
EDA1
  8
0
 10
4162.928883168631728
 20
247.8572254080046093
 30
0.0
 40
0.0163075007463187
 50
312.4321467855859282
 51
37.5996950543634014
  0
ARC
  5
EDA2
  8
0
 10
4162.9217529220213692
 20
247.8648488865354125
 30
0.0
 40
0.0267453745575686
 50
217.5923314898466003
 51
312.6870406153090016
  0
ARC
  5
EDA3
  8
0
 10
4162.9138441132354274
 20
247.8572822635250077
 30
0.0
 40
0.0159058808929741
 50
153.7770878470522007
 51
213.370753392602694
  0
ARC
  5
EDA4
  8
0
 10
4162.9217486418656335
 20
247.8501285504052021
 30
0.0
 40
0.0263208626621462
 50
40.3647263624424113
 51
147.3972936572021979
  0
ARC
  5
EDA5
  8
0
 10
4162.9278457512473324
 20
247.8769809369032942
 30
0.0
 40
0.0638081396161144
 50
297.0523826459893826
 51
345.8703988503760911
  0
ARC
  5
EDA6
  8
0
 10
4162.9211696105739975
 20
247.9077490348138895
 30
0.0
 40
0.0945892540384408
 50
239.1918360515415998
 51
292.1716863631227739
  0
ARC
  5
EDA7
  8
0
 10
4162.8963797428878024
 20
247.8641483380187083
 30
0.0
 40
0.044456821179572
 50
189.4396215744071981
 51
237.8525666187902914
  0
LINE
  5
EDA8
  8
0
 10
4162.8525249123504182
 20
247.8568570563842002
 30
0.0
 11
4162.84814579707745
 21
247.8770205694881099
 31
0.0
  0
ARC
  5
EDA9
  8
0
 10
4162.8982269780772185
 20
247.8795363761495025
 30
0.0
 40
0.0501443314197459
 50
121.4836442636170943
 51
182.8758115025869984
  0
ARC
  5
EDAA
  8
0
 10
4162.9358887715516175
 20
247.8319042061596065
 30
0.0
 40
0.1106707662852213
 50
86.165994162197336
 51
125.2353114832365009
  0
ARC
  5
EDAB
  8
0
 10
4162.9429657622240484
 20
247.8811499394938096
 30
0.0
 40
0.0611782005019706
 50
37.9295526475360916
 51
89.6973732047843555
  0
ARC
  5
EDAC
  8
0
 10
4162.9602187026812317
 20
247.9006237207750871
 30
0.0
 40
0.0359154315365556
 50
351.3163852515016856
 51
30.3215266097318512
  0
LINE
  5
EDAD
  8
0
 10
4162.9957224393410797
 20
247.8952012761569108
 30
0.0
 11
4162.9897234410136662
 21
247.8614043458049991
 31
0.0
  0
ARC
  5
EDAE
  8
0
 10
4162.9388276714662425
 20
247.8674135781895131
 30
0.0
 40
0.0512492949402101
 50
353.2662970031108216
 51
44.9297726543164728
  0
ARC
  5
EDAF
  8
0
 10
4162.921531290105122
 20
247.8459519786754015
 30
0.0
 40
0.0787080853961828
 50
47.0987483063922525
 51
139.9811637228908978
  0
ARC
  5
EDB0
  8
0
 10
4162.9045052012552333
 20
247.8662430394537921
 30
0.0
 40
0.0528208965833013
 50
144.9675257771328063
 51
190.23549990160069
  0
ARC
  5
EDB1
  8
0
 10
4163.2753170266723828
 20
247.9419682576221078
 30
0.0
 40
0.0163075007463187
 50
312.4321467855859282
 51
37.5996950543634014
  0
ARC
  5
EDB2
  8
0
 10
4163.2681867800611144
 20
247.9495917361527972
 30
0.0
 40
0.0267453745575686
 50
217.5923314898466003
 51
312.6870406153090016
  0
ARC
  5
EDB3
  8
0
 10
4163.2602779712751726
 20
247.9420251131425061
 30
0.0
 40
0.0159058808929741
 50
153.7770878470522007
 51
213.370753392602694
  0
ARC
  5
EDB4
  8
0
 10
4163.2681824999062883
 20
247.9348714000225868
 30
0.0
 40
0.0263208626621462
 50
40.3647263624424113
 51
147.3972936572021979
  0
ARC
  5
EDB5
  8
0
 10
4163.2742796092870776
 20
247.9617237865207926
 30
0.0
 40
0.0638081396161144
 50
297.0523826459893826
 51
345.8703988503760911
  0
ARC
  5
EDB6
  8
0
 10
4163.2676034686137427
 20
247.9924918844313027
 30
0.0
 40
0.0945892540384408
 50
239.1918360515415998
 51
292.1716863631227739
  0
ARC
  5
EDB7
  8
0
 10
4163.2428136009293667
 20
247.948891187636093
 30
0.0
 40
0.044456821179572
 50
189.4396215744071981
 51
237.8525666187902914
  0
LINE
  5
EDB8
  8
0
 10
4163.1989587703901634
 20
247.9415999060016134
 30
0.0
 11
4163.1945796551171952
 21
247.9617634191056084
 31
0.0
  0
ARC
  5
EDB9
  8
0
 10
4163.2446608361169638
 20
247.964279225767001
 30
0.0
 40
0.0501443314197459
 50
121.4836442636170943
 51
182.8758115025869984
  0
ARC
  5
EDBA
  8
0
 10
4163.2823226295922723
 20
247.9166470557771049
 30
0.0
 40
0.1106707662852213
 50
86.165994162197336
 51
125.2353114832365009
  0
ARC
  5
EDBB
  8
0
 10
4163.2893996202628841
 20
247.9658927891111944
 30
0.0
 40
0.0611782005019706
 50
37.9295526475360916
 51
89.6973732047843555
  0
ARC
  5
EDBC
  8
0
 10
4163.3066525607209769
 20
247.985366570392614
 30
0.0
 40
0.0359154315365556
 50
351.3163852515016856
 51
30.3215266097318512
  0
LINE
  5
EDBD
  8
0
 10
4163.342156297380825
 20
247.9799441257742956
 30
0.0
 11
4163.3361572990552304
 21
247.9461471954224123
 31
0.0
  0
ARC
  5
EDBE
  8
0
 10
4163.2852615295050782
 20
247.9521564278070116
 30
0.0
 40
0.0512492949402101
 50
353.2662970031108216
 51
44.9297726543164728
  0
ARC
  5
EDBF
  8
0
 10
4163.2679651481439578
 20
247.9306948282929
 30
0.0
 40
0.0787080853961828
 50
47.0987483063922525
 51
139.9811637228908978
  0
ARC
  5
EDC0
  8
0
 10
4163.250939059294069
 20
247.9509858890712053
 30
0.0
 40
0.0528208965833013
 50
144.9675257771328063
 51
190.23549990160069
  0
ARC
  5
EDC1
  8
0
 10
4163.0995818680621596
 20
248.1533746325374921
 30
0.0
 40
0.0163075007463187
 50
312.4321467855859282
 51
37.5996950543634014
  0
ARC
  5
EDC2
  8
0
 10
4163.0924516214518007
 20
248.1609981110682099
 30
0.0
 40
0.0267453745575686
 50
217.5923314898466003
 51
312.6870406153090016
  0
ARC
  5
EDC3
  8
0
 10
4163.0845428126667684
 20
248.1534314880578052
 30
0.0
 40
0.0159058808929741
 50
153.7770878470522007
 51
213.370753392602694
  0
ARC
  5
EDC4
  8
0
 10
4163.0924473412969746
 20
248.1462777749379995
 30
0.0
 40
0.0263208626621462
 50
40.3647263624424113
 51
147.3972936572021979
  0
ARC
  5
EDC5
  8
0
 10
4163.098544450677764
 20
248.1731301614362053
 30
0.0
 40
0.0638081396161144
 50
297.0523826459893826
 51
345.8703988503760911
  0
ARC
  5
EDC6
  8
0
 10
4163.0918683100026101
 20
248.2038982593466869
 30
0.0
 40
0.0945892540384408
 50
239.1918360515415998
 51
292.1716863631227739
  0
ARC
  5
EDC7
  8
0
 10
4163.067078442320053
 20
248.1602975625515057
 30
0.0
 40
0.044456821179572
 50
189.4396215744071981
 51
237.8525666187902914
  0
LINE
  5
EDC8
  8
0
 10
4163.0232236117817592
 20
248.1530062809169976
 30
0.0
 11
4163.0188444965078816
 21
248.1731697940209074
 31
0.0
  0
ARC
  5
EDC9
  8
0
 10
4163.0689256775076501
 20
248.1756856006823
 30
0.0
 40
0.0501443314197459
 50
121.4836442636170943
 51
182.8758115025869984
  0
ARC
  5
EDCA
  8
0
 10
4163.1065874709829586
 20
248.1280534306924039
 30
0.0
 40
0.1106707662852213
 50
86.165994162197336
 51
125.2353114832365009
  0
ARC
  5
EDCB
  8
0
 10
4163.1136644616535705
 20
248.1772991640266071
 30
0.0
 40
0.0611782005019706
 50
37.9295526475360916
 51
89.6973732047843555
  0
ARC
  5
EDCC
  8
0
 10
4163.1309174021116633
 20
248.196772945307913
 30
0.0
 40
0.0359154315365556
 50
351.3163852515016856
 51
30.3215266097318512
  0
LINE
  5
EDCD
  8
0
 10
4163.1664211387706018
 20
248.1913505006897083
 30
0.0
 11
4163.1604221404450072
 21
248.1575535703377113
 31
0.0
  0
ARC
  5
EDCE
  8
0
 10
4163.1095263708957646
 20
248.1635628027223106
 30
0.0
 40
0.0512492949402101
 50
353.2662970031108216
 51
44.9297726543164728
  0
ARC
  5
EDCF
  8
0
 10
4163.0922299895346441
 20
248.142101203208199
 30
0.0
 40
0.0787080853961828
 50
47.0987483063922525
 51
139.9811637228908978
  0
ARC
  5
EDD0
  8
0
 10
4163.0752039006856648
 20
248.1623922639865896
 30
0.0
 40
0.0528208965833013
 50
144.9675257771328063
 51
190.23549990160069
  0
ARC
  5
EDD1
  8
0
 10
4162.8553148433793467
 20
248.2459256777156895
 30
0.0
 40
0.0163075007463187
 50
312.4321467855859282
 51
37.5996950543634014
  0
ARC
  5
EDD2
  8
0
 10
4162.8481845967671688
 20
248.2535491562464927
 30
0.0
 40
0.0267453745575686
 50
217.5923314898466003
 51
312.6870406153090016
  0
ARC
  5
EDD3
  8
0
 10
4162.840275787981227
 20
248.2459825332360879
 30
0.0
 40
0.0159058808929741
 50
153.7770878470522007
 51
213.370753392602694
  0
ARC
  5
EDD4
  8
0
 10
4162.8481803166123427
 20
248.2388288201163107
 30
0.0
 40
0.0263208626621462
 50
40.3647263624424113
 51
147.3972936572021979
  0
ARC
  5
EDD5
  8
0
 10
4162.8542774259931321
 20
248.2656812066144028
 30
0.0
 40
0.0638081396161144
 50
297.0523826459893826
 51
345.8703988503760911
  0
ARC
  5
EDD6
  8
0
 10
4162.8476012853197972
 20
248.2964493045249128
 30
0.0
 40
0.0945892540384408
 50
239.1918360515415998
 51
292.1716863631227739
  0
ARC
  5
EDD7
  8
0
 10
4162.8228114176336021
 20
248.2528486077297885
 30
0.0
 40
0.044456821179572
 50
189.4396215744071981
 51
237.8525666187902914
  0
LINE
  5
EDD8
  8
0
 10
4162.7789565870962178
 20
248.2455573260951951
 30
0.0
 11
4162.7745774718232497
 21
248.2657208391991901
 31
0.0
  0
ARC
  5
EDD9
  8
0
 10
4162.8246586528239277
 20
248.2682366458606111
 30
0.0
 40
0.0501443314197459
 50
121.4836442636170943
 51
182.8758115025869984
  0
ARC
  5
EDDA
  8
0
 10
4162.8623204462983267
 20
248.2206044758706867
 30
0.0
 40
0.1106707662852213
 50
86.165994162197336
 51
125.2353114832365009
  0
ARC
  5
EDDB
  8
0
 10
4162.8693974369698481
 20
248.2698502092048898
 30
0.0
 40
0.0611782005019706
 50
37.9295526475360916
 51
89.6973732047843555
  0
ARC
  5
EDDC
  8
0
 10
4162.8866503774261218
 20
248.2893239904861957
 30
0.0
 40
0.0359154315365556
 50
351.3163852515016856
 51
30.3215266097318512
  0
LINE
  5
EDDD
  8
0
 10
4162.9221541140868794
 20
248.283901545867991
 30
0.0
 11
4162.9161551157621943
 21
248.2501046155161077
 31
0.0
  0
ARC
  5
EDDE
  8
0
 10
4162.8652593462120421
 20
248.2561138479005933
 30
0.0
 40
0.0512492949402101
 50
353.2662970031108216
 51
44.9297726543164728
  0
ARC
  5
EDDF
  8
0
 10
4162.8479629648509217
 20
248.2346522483865101
 30
0.0
 40
0.0787080853961828
 50
47.0987483063922525
 51
139.9811637228908978
  0
ARC
  5
EDE0
  8
0
 10
4162.8309368760019424
 20
248.254943309164787
 30
0.0
 40
0.0528208965833013
 50
144.9675257771328063
 51
190.23549990160069
  0
ARC
  5
EDE1
  8
0
 10
4163.4129701280407971
 20
248.3059296392482906
 30
0.0
 40
0.0163075007463187
 50
312.4321467855859282
 51
37.5996950543634014
  0
ARC
  5
EDE2
  8
0
 10
4163.4058398814304383
 20
248.3135531177790938
 30
0.0
 40
0.0267453745575686
 50
217.5923314898466003
 51
312.6870406153090016
  0
ARC
  5
EDE3
  8
0
 10
4163.3979310726426775
 20
248.305986494768689
 30
0.0
 40
0.0159058808929741
 50
153.7770878470522007
 51
213.370753392602694
  0
ARC
  5
EDE4
  8
0
 10
4163.4058356012747026
 20
248.2988327816489118
 30
0.0
 40
0.0263208626621462
 50
40.3647263624424113
 51
147.3972936572021979
  0
ARC
  5
EDE5
  8
0
 10
4163.4119327106545825
 20
248.3256851681470891
 30
0.0
 40
0.0638081396161144
 50
297.0523826459893826
 51
345.8703988503760911
  0
ARC
  5
EDE6
  8
0
 10
4163.4052565699830666
 20
248.3564532660575992
 30
0.0
 40
0.0945892540384408
 50
239.1918360515415998
 51
292.1716863631227739
  0
ARC
  5
EDE7
  8
0
 10
4163.3804667022968715
 20
248.3128525692623896
 30
0.0
 40
0.044456821179572
 50
189.4396215744071981
 51
237.8525666187902914
  0
LINE
  5
EDE8
  8
0
 10
4163.3366118717585778
 20
248.3055612876277962
 30
0.0
 11
4163.3322327564847001
 21
248.3257248007319049
 31
0.0
  0
ARC
  5
EDE9
  8
0
 10
4163.3823139374862876
 20
248.3282406073932123
 30
0.0
 40
0.0501443314197459
 50
121.4836442636170943
 51
182.8758115025869984
  0
ARC
  5
EDEA
  8
0
 10
4163.4199757309606866
 20
248.2806084374034015
 30
0.0
 40
0.1106707662852213
 50
86.165994162197336
 51
125.2353114832365009
  0
ARC
  5
EDEB
  8
0
 10
4163.427052721632208
 20
248.3298541707374909
 30
0.0
 40
0.0611782005019706
 50
37.9295526475360916
 51
89.6973732047843555
  0
ARC
  5
EDEC
  8
0
 10
4163.4443056620893913
 20
248.3493279520187969
 30
0.0
 40
0.0359154315365556
 50
351.3163852515016856
 51
30.3215266097318512
  0
LINE
  5
EDED
  8
0
 10
4163.4798093987492393
 20
248.3439055074005921
 30
0.0
 11
4163.4738104004227353
 21
248.3101085770487089
 31
0.0
  0
ARC
  5
EDEE
  8
0
 10
4163.4229146308744021
 20
248.3161178094333081
 30
0.0
 40
0.0512492949402101
 50
353.2662970031108216
 51
44.9297726543164728
  0
ARC
  5
EDEF
  8
0
 10
4163.4056182495132816
 20
248.2946562099191112
 30
0.0
 40
0.0787080853961828
 50
47.0987483063922525
 51
139.9811637228908978
  0
ARC
  5
EDF0
  8
0
 10
4163.3885921606633929
 20
248.3149472706975018
 30
0.0
 40
0.0528208965833013
 50
144.9675257771328063
 51
190.23549990160069
  0
ARC
  5
EDF1
  8
0
 10
4163.1674400797346607
 20
248.4742440035537925
 30
0.0
 40
0.0163075007463187
 50
312.4321467855859282
 51
37.5996950543634014
  0
ARC
  5
EDF2
  8
0
 10
4163.1603098331243018
 20
248.4818674820845956
 30
0.0
 40
0.0267453745575686
 50
217.5923314898466003
 51
312.6870406153090016
  0
ARC
  5
EDF3
  8
0
 10
4163.152401024340179
 20
248.4743008590741908
 30
0.0
 40
0.0159058808929741
 50
153.7770878470522007
 51
213.370753392602694
  0
ARC
  5
EDF4
  8
0
 10
4163.1603055529703852
 20
248.4671471459543
 30
0.0
 40
0.0263208626621462
 50
40.3647263624424113
 51
147.3972936572021979
  0
ARC
  5
EDF5
  8
0
 10
4163.166402662350265
 20
248.4939995324525057
 30
0.0
 40
0.0638081396161144
 50
297.0523826459893826
 51
345.8703988503760911
  0
ARC
  5
EDF6
  8
0
 10
4163.1597265216760206
 20
248.5247676303629873
 30
0.0
 40
0.0945892540384408
 50
239.1918360515415998
 51
292.1716863631227739
  0
ARC
  5
EDF7
  8
0
 10
4163.1349366539916446
 20
248.4811669335678062
 30
0.0
 40
0.044456821179572
 50
189.4396215744071981
 51
237.8525666187902914
  0
LINE
  5
EDF8
  8
0
 10
4163.0910818234551698
 20
248.4738756519332981
 30
0.0
 11
4163.0867027081803826
 21
248.4940391650372931
 31
0.0
  0
ARC
  5
EDF9
  8
0
 10
4163.1367838891810607
 20
248.4965549716987141
 30
0.0
 40
0.0501443314197459
 50
121.4836442636170943
 51
182.8758115025869984
  0
ARC
  5
EDFA
  8
0
 10
4163.1744456826545502
 20
248.4489228017087896
 30
0.0
 40
0.1106707662852213
 50
86.165994162197336
 51
125.2353114832365009
  0
ARC
  5
EDFB
  8
0
 10
4163.181522673326981
 20
248.4981685350429927
 30
0.0
 40
0.0611782005019706
 50
37.9295526475360916
 51
89.6973732047843555
  0
ARC
  5
EDFC
  8
0
 10
4163.1987756137841643
 20
248.5176423163242134
 30
0.0
 40
0.0359154315365556
 50
351.3163852515016856
 51
30.3215266097318512
  0
LINE
  5
EDFD
  8
0
 10
4163.2342793504440124
 20
248.512219871706094
 30
0.0
 11
4163.2282803521184178
 21
248.478422941354097
 31
0.0
  0
ARC
  5
EDFE
  8
0
 10
4163.1773845825691751
 20
248.484432173738611
 30
0.0
 40
0.0512492949402101
 50
353.2662970031108216
 51
44.9297726543164728
  0
ARC
  5
EDFF
  8
0
 10
4163.1600882012080547
 20
248.4629705742244994
 30
0.0
 40
0.0787080853961828
 50
47.0987483063922525
 51
139.9811637228908978
  0
ARC
  5
EE00
  8
0
 10
4163.1430621123590754
 20
248.48326163500289
 30
0.0
 40
0.0528208965833013
 50
144.9675257771328063
 51
190.23549990160069
  0
ARC
  5
EE01
  8
0
 10
4162.9029494778760636
 20
248.5276999269541989
 30
0.0
 40
0.0163075007463187
 50
312.4321467855859282
 51
37.5996950543634014
  0
ARC
  5
EE02
  8
0
 10
4162.8958192312647952
 20
248.5353234054848883
 30
0.0
 40
0.0267453745575686
 50
217.5923314898466003
 51
312.6870406153090016
  0
ARC
  5
EE03
  8
0
 10
4162.8879104224788534
 20
248.527756782474512
 30
0.0
 40
0.0159058808929741
 50
153.7770878470522007
 51
213.370753392602694
  0
ARC
  5
EE04
  8
0
 10
4162.8958149511090596
 20
248.5206030693547063
 30
0.0
 40
0.0263208626621462
 50
40.3647263624424113
 51
147.3972936572021979
  0
ARC
  5
EE05
  8
0
 10
4162.901912060489849
 20
248.5474554558529121
 30
0.0
 40
0.0638081396161144
 50
297.0523826459893826
 51
345.8703988503760911
  0
ARC
  5
EE06
  8
0
 10
4162.8952359198174236
 20
248.5782235537633937
 30
0.0
 40
0.0945892540384408
 50
239.1918360515415998
 51
292.1716863631227739
  0
ARC
  5
EE07
  8
0
 10
4162.8704460521312285
 20
248.5346228569682125
 30
0.0
 40
0.044456821179572
 50
189.4396215744071981
 51
237.8525666187902914
  0
LINE
  5
EE08
  8
0
 10
4162.8265912215938442
 20
248.5273315753337044
 30
0.0
 11
4162.822212106320876
 21
248.5474950884376995
 31
0.0
  0
ARC
  5
EE09
  8
0
 10
4162.8722932873197351
 20
248.5500108950990068
 30
0.0
 40
0.0501443314197459
 50
121.4836442636170943
 51
182.8758115025869984
  0
ARC
  5
EE0A
  8
0
 10
4162.9099550807950436
 20
248.502378725109196
 30
0.0
 40
0.1106707662852213
 50
86.165994162197336
 51
125.2353114832365009
  0
ARC
  5
EE0B
  8
0
 10
4162.9170320714683839
 20
248.5516244584433991
 30
0.0
 40
0.0611782005019706
 50
37.9295526475360916
 51
89.6973732047843555
  0
ARC
  5
EE0C
  8
0
 10
4162.9342850119246577
 20
248.5710982397245914
 30
0.0
 40
0.0359154315365556
 50
351.3163852515016856
 51
30.3215266097318512
  0
LINE
  5
EE0D
  8
0
 10
4162.9697887485854153
 20
248.5656757951065003
 30
0.0
 11
4162.9637897502580017
 21
248.5318788647545034
 31
0.0
  0
ARC
  5
EE0E
  8
0
 10
4162.912893980708759
 20
248.537888097138989
 30
0.0
 40
0.0512492949402101
 50
353.2662970031108216
 51
44.9297726543164728
  0
ARC
  5
EE0F
  8
0
 10
4162.8955975993467291
 20
248.5164264976249058
 30
0.0
 40
0.0787080853961828
 50
47.0987483063922525
 51
139.9811637228908978
  0
ARC
  5
EE10
  8
0
 10
4162.8785715104986593
 20
248.5367175584032964
 30
0.0
 40
0.0528208965833013
 50
144.9675257771328063
 51
190.23549990160069
  0
ARC
  5
EE11
  8
0
 10
4163.4544576792268344
 20
248.6916846570875919
 30
0.0
 40
0.0163075007463187
 50
312.4321467855859282
 51
37.5996950543634014
  0
ARC
  5
EE12
  8
0
 10
4163.4473274326146566
 20
248.699308135618395
 30
0.0
 40
0.0267453745575686
 50
217.5923314898466003
 51
312.6870406153090016
  0
ARC
  5
EE13
  8
0
 10
4163.4394186238296243
 20
248.6917415126079902
 30
0.0
 40
0.0159058808929741
 50
153.7770878470522007
 51
213.370753392602694
  0
ARC
  5
EE14
  8
0
 10
4163.4473231524598305
 20
248.6845877994880993
 30
0.0
 40
0.0263208626621462
 50
40.3647263624424113
 51
147.3972936572021979
  0
ARC
  5
EE15
  8
0
 10
4163.4534202618406198
 20
248.7114401859863904
 30
0.0
 40
0.0638081396161144
 50
297.0523826459893826
 51
345.8703988503760911
  0
ARC
  5
EE16
  8
0
 10
4163.4467441211681944
 20
248.7422082838969004
 30
0.0
 40
0.0945892540384408
 50
239.1918360515415998
 51
292.1716863631227739
  0
ARC
  5
EE17
  8
0
 10
4163.4219542534819993
 20
248.6986075871016055
 30
0.0
 40
0.044456821179572
 50
189.4396215744071981
 51
237.8525666187902914
  0
LINE
  5
EE18
  8
0
 10
4163.3780994229446151
 20
248.6913163054670974
 30
0.0
 11
4163.3737203076716469
 21
248.7114798185710924
 31
0.0
  0
ARC
  5
EE19
  8
0
 10
4163.4238014886723249
 20
248.7139956252325135
 30
0.0
 40
0.0501443314197459
 50
121.4836442636170943
 51
182.8758115025869984
  0
ARC
  5
EE1A
  8
0
 10
4163.4614632821458144
 20
248.666363455242589
 30
0.0
 40
0.1106707662852213
 50
86.165994162197336
 51
125.2353114832365009
  0
ARC
  5
EE1B
  8
0
 10
4163.4685402728182453
 20
248.7156091885767921
 30
0.0
 40
0.0611782005019706
 50
37.9295526475360916
 51
89.6973732047843555
  0
ARC
  5
EE1C
  8
0
 10
4163.4857932132754286
 20
248.7350829698580981
 30
0.0
 40
0.0359154315365556
 50
351.3163852515016856
 51
30.3215266097318512
  0
LINE
  5
EE1D
  8
0
 10
4163.5212969499361861
 20
248.7296605252398933
 30
0.0
 11
4163.5152979516096821
 21
248.6958635948880101
 31
0.0
  0
ARC
  5
EE1E
  8
0
 10
4163.4644021820604394
 20
248.7018728272724957
 30
0.0
 40
0.0512492949402101
 50
353.2662970031108216
 51
44.9297726543164728
  0
ARC
  5
EE1F
  8
0
 10
4163.4471058006993189
 20
248.6804112277584125
 30
0.0
 40
0.0787080853961828
 50
47.0987483063922525
 51
139.9811637228908978
  0
ARC
  5
EE20
  8
0
 10
4163.4300797118494302
 20
248.7007022885366894
 30
0.0
 40
0.0528208965833013
 50
144.9675257771328063
 51
190.23549990160069
  0
ARC
  5
EE21
  8
0
 10
4163.1513569336239016
 20
248.8032636371434876
 30
0.0
 40
0.0163075007463187
 50
312.4321467855859282
 51
37.5996950543634014
  0
ARC
  5
EE22
  8
0
 10
4163.1442266870117237
 20
248.8108871156742055
 30
0.0
 40
0.0267453745575686
 50
217.5923314898466003
 51
312.6870406153090016
  0
ARC
  5
EE23
  8
0
 10
4163.1363178782276009
 20
248.8033204926638859
 30
0.0
 40
0.0159058808929741
 50
153.7770878470522007
 51
213.370753392602694
  0
ARC
  5
EE24
  8
0
 10
4163.1442224068578071
 20
248.7961667795439951
 30
0.0
 40
0.0263208626621462
 50
40.3647263624424113
 51
147.3972936572021979
  0
ARC
  5
EE25
  8
0
 10
4163.1503195162385964
 20
248.8230191660422008
 30
0.0
 40
0.0638081396161144
 50
297.0523826459893826
 51
345.8703988503760911
  0
ARC
  5
EE26
  8
0
 10
4163.1436433755652615
 20
248.8537872639527109
 30
0.0
 40
0.0945892540384408
 50
239.1918360515415998
 51
292.1716863631227739
  0
ARC
  5
EE27
  8
0
 10
4163.1188535078808854
 20
248.8101865671575865
 30
0.0
 40
0.044456821179572
 50
189.4396215744071981
 51
237.8525666187902914
  0
LINE
  5
EE28
  8
0
 10
4163.0749986773416822
 20
248.8028952855229932
 30
0.0
 11
4163.070619562068714
 21
248.8230587986269882
 31
0.0
  0
ARC
  5
EE29
  8
0
 10
4163.120700743069392
 20
248.8255746052884092
 30
0.0
 40
0.0501443314197459
 50
121.4836442636170943
 51
182.8758115025869984
  0
ARC
  5
EE2A
  8
0
 10
4163.1583625365437911
 20
248.7779424352985131
 30
0.0
 40
0.1106707662852213
 50
86.165994162197336
 51
125.2353114832365009
  0
ARC
  5
EE2B
  8
0
 10
4163.1654395272153124
 20
248.8271881686326878
 30
0.0
 40
0.0611782005019706
 50
37.9295526475360916
 51
89.6973732047843555
  0
ARC
  5
EE2C
  8
0
 10
4163.1826924676715862
 20
248.8466619499139085
 30
0.0
 40
0.0359154315365556
 50
351.3163852515016856
 51
30.3215266097318512
  0
LINE
  5
EE2D
  8
0
 10
4163.2181962043323438
 20
248.8412395052957891
 30
0.0
 11
4163.2121972060058397
 21
248.8074425749437921
 31
0.0
  0
ARC
  5
EE2E
  8
0
 10
4163.161301436456597
 20
248.8134518073283914
 30
0.0
 40
0.0512492949402101
 50
353.2662970031108216
 51
44.9297726543164728
  0
ARC
  5
EE2F
  8
0
 10
4163.1440050550963861
 20
248.7919902078143082
 30
0.0
 40
0.0787080853961828
 50
47.0987483063922525
 51
139.9811637228908978
  0
ARC
  5
EE30
  8
0
 10
4163.1269789662474068
 20
248.8122812685926135
 30
0.0
 40
0.0528208965833013
 50
144.9675257771328063
 51
190.23549990160069
  0
ARC
  5
EE31
  8
0
 10
4162.8557590511418312
 20
248.807307937184305
 30
0.0
 40
0.0163075007463187
 50
312.4321467855859282
 51
37.5996950543634014
  0
ARC
  5
EE32
  8
0
 10
4162.8486288045305628
 20
248.8149314157149945
 30
0.0
 40
0.0267453745575686
 50
217.5923314898466003
 51
312.6870406153090016
  0
ARC
  5
EE33
  8
0
 10
4162.8407199957437115
 20
248.8073647927047034
 30
0.0
 40
0.0159058808929741
 50
153.7770878470522007
 51
213.370753392602694
  0
ARC
  5
EE34
  8
0
 10
4162.8486245243739177
 20
248.8002110795848125
 30
0.0
 40
0.0263208626621462
 50
40.3647263624424113
 51
147.3972936572021979
  0
ARC
  5
EE35
  8
0
 10
4162.8547216337556165
 20
248.8270634660829899
 30
0.0
 40
0.0638081396161144
 50
297.0523826459893826
 51
345.8703988503760911
  0
ARC
  5
EE36
  8
0
 10
4162.8480454930831911
 20
248.8578315639934999
 30
0.0
 40
0.0945892540384408
 50
239.1918360515415998
 51
292.1716863631227739
  0
ARC
  5
EE37
  8
0
 10
4162.823255625396996
 20
248.8142308671982903
 30
0.0
 40
0.044456821179572
 50
189.4396215744071981
 51
237.8525666187902914
  0
LINE
  5
EE38
  8
0
 10
4162.7794007948587023
 20
248.8069395855638106
 30
0.0
 11
4162.7750216795857341
 21
248.8271030986678056
 31
0.0
  0
ARC
  5
EE39
  8
0
 10
4162.8251028605864121
 20
248.8296189053291982
 30
0.0
 40
0.0501443314197459
 50
121.4836442636170943
 51
182.8758115025869984
  0
ARC
  5
EE3A
  8
0
 10
4162.8627646540608112
 20
248.7819867353393022
 30
0.0
 40
0.1106707662852213
 50
86.165994162197336
 51
125.2353114832365009
  0
ARC
  5
EE3B
  8
0
 10
4162.8698416447341515
 20
248.8312324686735053
 30
0.0
 40
0.0611782005019706
 50
37.9295526475360916
 51
89.6973732047843555
  0
ARC
  5
EE3C
  8
0
 10
4162.8870945851904253
 20
248.8507062499546976
 30
0.0
 40
0.0359154315365556
 50
351.3163852515016856
 51
30.3215266097318512
  0
LINE
  5
EE3D
  8
0
 10
4162.9225983218502734
 20
248.8452838053366065
 30
0.0
 11
4162.9165993235237693
 21
248.8114868749846096
 31
0.0
  0
ARC
  5
EE3E
  8
0
 10
4162.8657035539754361
 20
248.8174961073692089
 30
0.0
 40
0.0512492949402101
 50
353.2662970031108216
 51
44.9297726543164728
  0
ARC
  5
EE3F
  8
0
 10
4162.8484071726134061
 20
248.796034507855012
 30
0.0
 40
0.0787080853961828
 50
47.0987483063922525
 51
139.9811637228908978
  0
ARC
  5
EE40
  8
0
 10
4162.8313810837653364
 20
248.8163255686334026
 30
0.0
 40
0.0528208965833013
 50
144.9675257771328063
 51
190.23549990160069
  0
ARC
  5
EE41
  8
0
 10
4163.3633463463411317
 20
249.068076945828011
 30
0.0
 40
0.0163075007463187
 50
312.4321467855859282
 51
37.5996950543634014
  0
ARC
  5
EE42
  8
0
 10
4163.3562160997298633
 20
249.0757004243588142
 30
0.0
 40
0.0267453745575686
 50
217.5923314898466003
 51
312.6870406153090016
  0
ARC
  5
EE43
  8
0
 10
4163.3483072909439215
 20
249.0681338013484094
 30
0.0
 40
0.0159058808929741
 50
153.7770878470522007
 51
213.370753392602694
  0
ARC
  5
EE44
  8
0
 10
4163.3562118195741277
 20
249.0609800882286038
 30
0.0
 40
0.0263208626621462
 50
40.3647263624424113
 51
147.3972936572021979
  0
ARC
  5
EE45
  8
0
 10
4163.3623089289549171
 20
249.0878324747268096
 30
0.0
 40
0.0638081396161144
 50
297.0523826459893826
 51
345.8703988503760911
  0
ARC
  5
EE46
  8
0
 10
4163.3556327882834012
 20
249.1186005726372912
 30
0.0
 40
0.0945892540384408
 50
239.1918360515415998
 51
292.1716863631227739
  0
ARC
  5
EE47
  8
0
 10
4163.3308429205972061
 20
249.07499987584211
 30
0.0
 40
0.044456821179572
 50
189.4396215744071981
 51
237.8525666187902914
  0
LINE
  5
EE48
  8
0
 10
4163.2869880900589123
 20
249.0677085942074882
 30
0.0
 11
4163.2826089747850347
 21
249.0878721073115116
 31
0.0
  0
ARC
  5
EE49
  8
0
 10
4163.3326901557857127
 20
249.0903879139729042
 30
0.0
 40
0.0501443314197459
 50
121.4836442636170943
 51
182.8758115025869984
  0
ARC
  5
EE4A
  8
0
 10
4163.3703519492610212
 20
249.0427557439830082
 30
0.0
 40
0.1106707662852213
 50
86.165994162197336
 51
125.2353114832365009
  0
ARC
  5
EE4B
  8
0
 10
4163.3774289399334521
 20
249.0920014773172113
 30
0.0
 40
0.0611782005019706
 50
37.9295526475360916
 51
89.6973732047843555
  0
ARC
  5
EE4C
  8
0
 10
4163.3946818803888164
 20
249.1114752585984888
 30
0.0
 40
0.0359154315365556
 50
351.3163852515016856
 51
30.3215266097318512
  0
LINE
  5
EE4D
  8
0
 10
4163.4301856170486644
 20
249.1060528139803125
 30
0.0
 11
4163.4241866187239793
 21
249.0722558836284009
 31
0.0
  0
ARC
  5
EE4E
  8
0
 10
4163.3732908491738272
 20
249.0782651160128864
 30
0.0
 40
0.0512492949402101
 50
353.2662970031108216
 51
44.9297726543164728
  0
ARC
  5
EE4F
  8
0
 10
4163.3559944678136162
 20
249.0568035164988032
 30
0.0
 40
0.0787080853961828
 50
47.0987483063922525
 51
139.9811637228908978
  0
ARC
  5
EE50
  8
0
 10
4163.3389683789637274
 20
249.0770945772771938
 30
0.0
 40
0.0528208965833013
 50
144.9675257771328063
 51
190.23549990160069
  0
ARC
  5
EE51
  8
0
 10
4163.0197536384157502
 20
249.1136216811995041
 30
0.0
 40
0.0163075007463187
 50
312.4321467855859282
 51
37.5996950543634014
  0
ARC
  5
EE52
  8
0
 10
4163.0126233918053913
 20
249.1212451597303073
 30
0.0
 40
0.0267453745575686
 50
217.5923314898466003
 51
312.6870406153090016
  0
ARC
  5
EE53
  8
0
 10
4163.004714583020359
 20
249.1136785367199025
 30
0.0
 40
0.0159058808929741
 50
153.7770878470522007
 51
213.370753392602694
  0
ARC
  5
EE54
  8
0
 10
4163.0126191116496557
 20
249.1065248236000969
 30
0.0
 40
0.0263208626621462
 50
40.3647263624424113
 51
147.3972936572021979
  0
ARC
  5
EE55
  8
0
 10
4163.0187162210313545
 20
249.1333772100983026
 30
0.0
 40
0.0638081396161144
 50
297.0523826459893826
 51
345.8703988503760911
  0
ARC
  5
EE56
  8
0
 10
4163.0120400803580196
 20
249.1641453080088127
 30
0.0
 40
0.0945892540384408
 50
239.1918360515415998
 51
292.1716863631227739
  0
ARC
  5
EE57
  8
0
 10
4162.9872502126727341
 20
249.120544611213603
 30
0.0
 40
0.044456821179572
 50
189.4396215744071981
 51
237.8525666187902914
  0
LINE
  5
EE58
  8
0
 10
4162.9433953821353498
 20
249.1132533295790097
 30
0.0
 11
4162.9390162668605626
 21
249.1334168426830047
 31
0.0
  0
ARC
  5
EE59
  8
0
 10
4162.9890974478612407
 20
249.1359326493443973
 30
0.0
 40
0.0501443314197459
 50
121.4836442636170943
 51
182.8758115025869984
  0
ARC
  5
EE5A
  8
0
 10
4163.0267592413356397
 20
249.0883004793545012
 30
0.0
 40
0.1106707662852213
 50
86.165994162197336
 51
125.2353114832365009
  0
ARC
  5
EE5B
  8
0
 10
4163.0338362320080705
 20
249.1375462126887044
 30
0.0
 40
0.0611782005019706
 50
37.9295526475360916
 51
89.6973732047843555
  0
ARC
  5
EE5C
  8
0
 10
4163.0510891724652538
 20
249.1570199939700103
 30
0.0
 40
0.0359154315365556
 50
351.3163852515016856
 51
30.3215266097318512
  0
LINE
  5
EE5D
  8
0
 10
4163.0865929091251019
 20
249.1515975493518056
 30
0.0
 11
4163.0805939107985978
 21
249.1178006189998939
 31
0.0
  0
ARC
  5
EE5E
  8
0
 10
4163.0296981412502646
 20
249.1238098513844079
 30
0.0
 40
0.0512492949402101
 50
353.2662970031108216
 51
44.9297726543164728
  0
ARC
  5
EE5F
  8
0
 10
4163.0124017598891442
 20
249.1023482518702963
 30
0.0
 40
0.0787080853961828
 50
47.0987483063922525
 51
139.9811637228908978
  0
ARC
  5
EE60
  8
0
 10
4162.9953756710401649
 20
249.1226393126486016
 30
0.0
 40
0.0528208965833013
 50
144.9675257771328063
 51
190.23549990160069
  0
ARC
  5
EE61
  8
0
 10
4162.7201301722116114
 20
249.0683484830072985
 30
0.0
 40
0.0163075007463187
 50
312.4321467855859282
 51
37.5996950543634014
  0
ARC
  5
EE62
  8
0
 10
4162.7129999256012525
 20
249.0759719615379879
 30
0.0
 40
0.0267453745575686
 50
217.5923314898466003
 51
312.6870406153090016
  0
ARC
  5
EE63
  8
0
 10
4162.7050911168162202
 20
249.0684053385276115
 30
0.0
 40
0.0159058808929741
 50
153.7770878470522007
 51
213.370753392602694
  0
ARC
  5
EE64
  8
0
 10
4162.7129956454464264
 20
249.0612516254078059
 30
0.0
 40
0.0263208626621462
 50
40.3647263624424113
 51
147.3972936572021979
  0
ARC
  5
EE65
  8
0
 10
4162.7190927548263062
 20
249.0881040119060117
 30
0.0
 40
0.0638081396161144
 50
297.0523826459893826
 51
345.8703988503760911
  0
ARC
  5
EE66
  8
0
 10
4162.7124166141538808
 20
249.1188721098164933
 30
0.0
 40
0.0945892540384408
 50
239.1918360515415998
 51
292.1716863631227739
  0
ARC
  5
EE67
  8
0
 10
4162.6876267464676857
 20
249.0752714130213121
 30
0.0
 40
0.044456821179572
 50
189.4396215744071981
 51
237.8525666187902914
  0
LINE
  5
EE68
  8
0
 10
4162.643771915931211
 20
249.067980131386804
 30
0.0
 11
4162.6393928006573333
 21
249.088143644490799
 31
0.0
  0
ARC
  5
EE69
  8
0
 10
4162.6894739816571018
 20
249.0906594511521917
 30
0.0
 40
0.0501443314197459
 50
121.4836442636170943
 51
182.8758115025869984
  0
ARC
  5
EE6A
  8
0
 10
4162.7271357751324103
 20
249.0430272811622103
 30
0.0
 40
0.1106707662852213
 50
86.165994162197336
 51
125.2353114832365009
  0
ARC
  5
EE6B
  8
0
 10
4162.7342127658039317
 20
249.0922730144964987
 30
0.0
 40
0.0611782005019706
 50
37.9295526475360916
 51
89.6973732047843555
  0
ARC
  5
EE6C
  8
0
 10
4162.751465706261115
 20
249.111746795777691
 30
0.0
 40
0.0359154315365556
 50
351.3163852515016856
 51
30.3215266097318512
  0
LINE
  5
EE6D
  8
0
 10
4162.786969442920963
 20
249.1063243511595999
 30
0.0
 11
4162.7809704445953685
 21
249.072527420807603
 31
0.0
  0
ARC
  5
EE6E
  8
0
 10
4162.7300746750461258
 20
249.0785366531920886
 30
0.0
 40
0.0512492949402101
 50
353.2662970031108216
 51
44.9297726543164728
  0
ARC
  5
EE6F
  8
0
 10
4162.7127782936850053
 20
249.0570750536780054
 30
0.0
 40
0.0787080853961828
 50
47.0987483063922525
 51
139.9811637228908978
  0
ARC
  5
EE70
  8
0
 10
4162.6957522048360261
 20
249.077366114456396
 30
0.0
 40
0.0528208965833013
 50
144.9675257771328063
 51
190.23549990160069
  0
ARC
  5
EE71
  8
0
 10
4162.5098620882590694
 20
249.2935365596343047
 30
0.0
 40
0.0163075007463187
 50
312.4321467855859282
 51
37.5996950543634014
  0
ARC
  5
EE72
  8
0
 10
4162.5027318416468916
 20
249.3011600381651078
 30
0.0
 40
0.0267453745575686
 50
217.5923314898466003
 51
312.6870406153090016
  0
ARC
  5
EE73
  8
0
 10
4162.4948230328618592
 20
249.2935934151547031
 30
0.0
 40
0.0159058808929741
 50
153.7770878470522007
 51
213.370753392602694
  0
ARC
  5
EE74
  8
0
 10
4162.5027275614929749
 20
249.2864397020348974
 30
0.0
 40
0.0263208626621462
 50
40.3647263624424113
 51
147.3972936572021979
  0
ARC
  5
EE75
  8
0
 10
4162.5088246708728548
 20
249.3132920885329895
 30
0.0
 40
0.0638081396161144
 50
297.0523826459893826
 51
345.8703988503760911
  0
ARC
  5
EE76
  8
0
 10
4162.5021485302004294
 20
249.3440601864436132
 30
0.0
 40
0.0945892540384408
 50
239.1918360515415998
 51
292.1716863631227739
  0
ARC
  5
EE77
  8
0
 10
4162.4773586625151438
 20
249.3004594896484036
 30
0.0
 40
0.044456821179572
 50
189.4396215744071981
 51
237.8525666187902914
  0
LINE
  5
EE78
  8
0
 10
4162.4335038319768501
 20
249.2931682080138103
 30
0.0
 11
4162.4291247167038819
 21
249.3133317211178053
 31
0.0
  0
ARC
  5
EE79
  8
0
 10
4162.4792058977036504
 20
249.3158475277791979
 30
0.0
 40
0.0501443314197459
 50
121.4836442636170943
 51
182.8758115025869984
  0
ARC
  5
EE7A
  8
0
 10
4162.5168676911789589
 20
249.2682153577893018
 30
0.0
 40
0.1106707662852213
 50
86.165994162197336
 51
125.2353114832365009
  0
ARC
  5
EE7B
  8
0
 10
4162.5239446818495708
 20
249.317461091123505
 30
0.0
 40
0.0611782005019706
 50
37.9295526475360916
 51
89.6973732047843555
  0
ARC
  5
EE7C
  8
0
 10
4162.5411976223067541
 20
249.3369348724048109
 30
0.0
 40
0.0359154315365556
 50
351.3163852515016856
 51
30.3215266097318512
  0
LINE
  5
EE7D
  8
0
 10
4162.5767013589666021
 20
249.3315124277866062
 30
0.0
 11
4162.570702360641917
 21
249.2977154974346945
 31
0.0
  0
ARC
  5
EE7E
  8
0
 10
4162.5198065910926744
 20
249.3037247298192085
 30
0.0
 40
0.0512492949402101
 50
353.2662970031108216
 51
44.9297726543164728
  0
ARC
  5
EE7F
  8
0
 10
4162.5025102097315539
 20
249.2822631303050969
 30
0.0
 40
0.0787080853961828
 50
47.0987483063922525
 51
139.9811637228908978
  0
ARC
  5
EE80
  8
0
 10
4162.4854841208807557
 20
249.3025541910834875
 30
0.0
 40
0.0528208965833013
 50
144.9675257771328063
 51
190.23549990160069
  0
ARC
  5
EE81
  8
0
 10
4162.80854773709234
 20
249.3917826254127021
 30
0.0
 40
0.0163075007463187
 50
312.4321467855859282
 51
37.5996950543634014
  0
ARC
  5
EE82
  8
0
 10
4162.8014174904810716
 20
249.3994061039435053
 30
0.0
 40
0.0267453745575686
 50
217.5923314898466003
 51
312.6870406153090016
  0
ARC
  5
EE83
  8
0
 10
4162.7935086816951298
 20
249.3918394809331005
 30
0.0
 40
0.0159058808929741
 50
153.7770878470522007
 51
213.370753392602694
  0
ARC
  5
EE84
  8
0
 10
4162.801413210325336
 20
249.3846857678132096
 30
0.0
 40
0.0263208626621462
 50
40.3647263624424113
 51
147.3972936572021979
  0
ARC
  5
EE85
  8
0
 10
4162.8075103197070348
 20
249.411538154311387
 30
0.0
 40
0.0638081396161144
 50
297.0523826459893826
 51
345.8703988503760911
  0
ARC
  5
EE86
  8
0
 10
4162.8008341790336999
 20
249.4423062522220107
 30
0.0
 40
0.0945892540384408
 50
239.1918360515415998
 51
292.1716863631227739
  0
ARC
  5
EE87
  8
0
 10
4162.7760443113493238
 20
249.3987055554268011
 30
0.0
 40
0.044456821179572
 50
189.4396215744071981
 51
237.8525666187902914
  0
LINE
  5
EE88
  8
0
 10
4162.7321894808101206
 20
249.391414273792293
 30
0.0
 11
4162.7278103655371524
 21
249.4115777868962027
 31
0.0
  0
ARC
  5
EE89
  8
0
 10
4162.7778915465369209
 20
249.4140935935575953
 30
0.0
 40
0.0501443314197459
 50
121.4836442636170943
 51
182.8758115025869984
  0
ARC
  5
EE8A
  8
0
 10
4162.8155533400131389
 20
249.3664614235676993
 30
0.0
 40
0.1106707662852213
 50
86.165994162197336
 51
125.2353114832365009
  0
ARC
  5
EE8B
  8
0
 10
4162.8226303306828413
 20
249.4157071569019024
 30
0.0
 40
0.0611782005019706
 50
37.9295526475360916
 51
89.6973732047843555
  0
ARC
  5
EE8C
  8
0
 10
4162.8398832711400246
 20
249.4351809381832084
 30
0.0
 40
0.0359154315365556
 50
351.3163852515016856
 51
30.3215266097318512
  0
LINE
  5
EE8D
  8
0
 10
4162.8753870077998727
 20
249.4297584935650036
 30
0.0
 11
4162.8693880094742781
 21
249.3959615632130919
 31
0.0
  0
ARC
  5
EE8E
  8
0
 10
4162.8184922399241259
 20
249.401970795597606
 30
0.0
 40
0.0512492949402101
 50
353.2662970031108216
 51
44.9297726543164728
  0
ARC
  5
EE8F
  8
0
 10
4162.801195858563915
 20
249.3805091960834943
 30
0.0
 40
0.0787080853961828
 50
47.0987483063922525
 51
139.9811637228908978
  0
ARC
  5
EE90
  8
0
 10
4162.7841697697140262
 20
249.4008002568617997
 30
0.0
 40
0.0528208965833013
 50
144.9675257771328063
 51
190.23549990160069
  0
ARC
  5
EE91
  8
0
 10
4163.156946024242643
 20
249.414474943973886
 30
0.0
 40
0.0163075007463187
 50
312.4321467855859282
 51
37.5996950543634014
  0
ARC
  5
EE92
  8
0
 10
4163.1498157776313747
 20
249.4220984225046038
 30
0.0
 40
0.0267453745575686
 50
217.5923314898466003
 51
312.6870406153090016
  0
ARC
  5
EE93
  8
0
 10
4163.1419069688481613
 20
249.4145317994943127
 30
0.0
 40
0.0159058808929741
 50
153.7770878470522007
 51
213.370753392602694
  0
ARC
  5
EE94
  8
0
 10
4163.1498114974765485
 20
249.4073780863743934
 30
0.0
 40
0.0263208626621462
 50
40.3647263624424113
 51
147.3972936572021979
  0
ARC
  5
EE95
  8
0
 10
4163.1559086068582474
 20
249.4342304728725992
 30
0.0
 40
0.0638081396161144
 50
297.0523826459893826
 51
345.8703988503760911
  0
ARC
  5
EE96
  8
0
 10
4163.149232466184003
 20
249.4649985707831092
 30
0.0
 40
0.0945892540384408
 50
239.1918360515415998
 51
292.1716863631227739
  0
ARC
  5
EE97
  8
0
 10
4163.1244425984987174
 20
249.4213978739880133
 30
0.0
 40
0.044456821179572
 50
189.4396215744071981
 51
237.8525666187902914
  0
LINE
  5
EE98
  8
0
 10
4163.0805877679622427
 20
249.4141065923533915
 30
0.0
 11
4163.0762086526892745
 21
249.4342701054573865
 31
0.0
  0
ARC
  5
EE99
  8
0
 10
4163.126289833689043
 20
249.4367859121188076
 30
0.0
 40
0.0501443314197459
 50
121.4836442636170943
 51
182.8758115025869984
  0
ARC
  5
EE9A
  8
0
 10
4163.163951627163442
 20
249.3891537421289115
 30
0.0
 40
0.1106707662852213
 50
86.165994162197336
 51
125.2353114832365009
  0
ARC
  5
EE9B
  8
0
 10
4163.1710286178349634
 20
249.4383994754630862
 30
0.0
 40
0.0611782005019706
 50
37.9295526475360916
 51
89.6973732047843555
  0
ARC
  5
EE9C
  8
0
 10
4163.1882815582921467
 20
249.4578732567443069
 30
0.0
 40
0.0359154315365556
 50
351.3163852515016856
 51
30.3215266097318512
  0
LINE
  5
EE9D
  8
0
 10
4163.2237852949519947
 20
249.4524508121261874
 30
0.0
 11
4163.2177862966264001
 21
249.4186538817741905
 31
0.0
  0
ARC
  5
EE9E
  8
0
 10
4163.1668905270771575
 20
249.4246631141587898
 30
0.0
 40
0.0512492949402101
 50
353.2662970031108216
 51
44.9297726543164728
  0
ARC
  5
EE9F
  8
0
 10
4163.149594145716037
 20
249.4032015146447065
 30
0.0
 40
0.0787080853961828
 50
47.0987483063922525
 51
139.9811637228908978
  0
ARC
  5
EEA0
  8
0
 10
4163.1325680568661483
 20
249.4234925754230119
 30
0.0
 40
0.0528208965833013
 50
144.9675257771328063
 51
190.23549990160069
  0
ARC
  5
EEA1
  8
0
 10
4162.8572009789995718
 20
249.7109546072989019
 30
0.0
 40
0.0163075007463187
 50
312.4321467855859282
 51
37.5996950543634014
  0
ARC
  5
EEA2
  8
0
 10
4162.8500707323892129
 20
249.7185780858295914
 30
0.0
 40
0.0267453745575686
 50
217.5923314898466003
 51
312.6870406153090016
  0
ARC
  5
EEA3
  8
0
 10
4162.8421619236032711
 20
249.7110114628193003
 30
0.0
 40
0.0159058808929741
 50
153.7770878470522007
 51
213.370753392602694
  0
ARC
  5
EEA4
  8
0
 10
4162.8500664522343868
 20
249.7038577496994094
 30
0.0
 40
0.0263208626621462
 50
40.3647263624424113
 51
147.3972936572021979
  0
ARC
  5
EEA5
  8
0
 10
4162.8561635616151761
 20
249.7307101361975867
 30
0.0
 40
0.0638081396161144
 50
297.0523826459893826
 51
345.8703988503760911
  0
ARC
  5
EEA6
  8
0
 10
4162.8494874209409318
 20
249.7614782341080968
 30
0.0
 40
0.0945892540384408
 50
239.1918360515415998
 51
292.1716863631227739
  0
ARC
  5
EEA7
  8
0
 10
4162.8246975532565557
 20
249.7178775373130009
 30
0.0
 40
0.044456821179572
 50
189.4396215744071981
 51
237.8525666187902914
  0
LINE
  5
EEA8
  8
0
 10
4162.7808427227182619
 20
249.7105862556784075
 30
0.0
 11
4162.7764636074452937
 21
249.7307497687824025
 31
0.0
  0
ARC
  5
EEA9
  8
0
 10
4162.8265447884459718
 20
249.7332655754437951
 30
0.0
 40
0.0501443314197459
 50
121.4836442636170943
 51
182.8758115025869984
  0
ARC
  5
EEAA
  8
0
 10
4162.8642065819212803
 20
249.6856334054538991
 30
0.0
 40
0.1106707662852213
 50
86.165994162197336
 51
125.2353114832365009
  0
ARC
  5
EEAB
  8
0
 10
4162.8712835725918922
 20
249.7348791387881022
 30
0.0
 40
0.0611782005019706
 50
37.9295526475360916
 51
89.6973732047843555
  0
ARC
  5
EEAC
  8
0
 10
4162.8885365130490754
 20
249.7543529200692944
 30
0.0
 40
0.0359154315365556
 50
351.3163852515016856
 51
30.3215266097318512
  0
LINE
  5
EEAD
  8
0
 10
4162.924040249708014
 20
249.7489304754512034
 30
0.0
 11
4162.9180412513833289
 21
249.7151335450992065
 31
0.0
  0
ARC
  5
EEAE
  8
0
 10
4162.8671454818340862
 20
249.721142777483692
 30
0.0
 40
0.0512492949402101
 50
353.2662970031108216
 51
44.9297726543164728
  0
ARC
  5
EEAF
  8
0
 10
4162.8498491004729658
 20
249.6996811779696941
 30
0.0
 40
0.0787080853961828
 50
47.0987483063922525
 51
139.9811637228908978
  0
ARC
  5
EEB0
  8
0
 10
4162.832823011623077
 20
249.7199722387479994
 30
0.0
 40
0.0528208965833013
 50
144.9675257771328063
 51
190.23549990160069
  0
ARC
  5
EEB1
  8
0
 10
4162.512781807601641
 20
249.6160718982280002
 30
0.0
 40
0.0163075007463187
 50
312.4321467855859282
 51
37.5996950543634014
  0
ARC
  5
EEB2
  8
0
 10
4162.5056515609903727
 20
249.6236953767588034
 30
0.0
 40
0.0267453745575686
 50
217.5923314898466003
 51
312.6870406153090016
  0
ARC
  5
EEB3
  8
0
 10
4162.4977427522044309
 20
249.6161287537483986
 30
0.0
 40
0.0159058808929741
 50
153.7770878470522007
 51
213.370753392602694
  0
ARC
  5
EEB4
  8
0
 10
4162.5056472808346371
 20
249.608975040628593
 30
0.0
 40
0.0263208626621462
 50
40.3647263624424113
 51
147.3972936572021979
  0
ARC
  5
EEB5
  8
0
 10
4162.5117443902163359
 20
249.6358274271267135
 30
0.0
 40
0.0638081396161144
 50
297.0523826459893826
 51
345.8703988503760911
  0
ARC
  5
EEB6
  8
0
 10
4162.505068249543001
 20
249.6665955250371951
 30
0.0
 40
0.0945892540384408
 50
239.1918360515415998
 51
292.1716863631227739
  0
ARC
  5
EEB7
  8
0
 10
4162.4802783818577154
 20
249.6229948282420992
 30
0.0
 40
0.044456821179572
 50
189.4396215744071981
 51
237.8525666187902914
  0
LINE
  5
EEB8
  8
0
 10
4162.4364235513203312
 20
249.6157035466075058
 30
0.0
 11
4162.4320444360464535
 21
249.6358670597115008
 31
0.0
  0
ARC
  5
EEB9
  8
0
 10
4162.4821256170471315
 20
249.6383828663728934
 30
0.0
 40
0.0501443314197459
 50
121.4836442636170943
 51
182.8758115025869984
  0
ARC
  5
EEBA
  8
0
 10
4162.51978741052244
 20
249.5907506963829974
 30
0.0
 40
0.1106707662852213
 50
86.165994162197336
 51
125.2353114832365009
  0
ARC
  5
EEBB
  8
0
 10
4162.5268644011930519
 20
249.6399964297172005
 30
0.0
 40
0.0611782005019706
 50
37.9295526475360916
 51
89.6973732047843555
  0
ARC
  5
EEBC
  8
0
 10
4162.5441173416502352
 20
249.6594702109983928
 30
0.0
 40
0.0359154315365556
 50
351.3163852515016856
 51
30.3215266097318512
  0
LINE
  5
EEBD
  8
0
 10
4162.5796210783100832
 20
249.6540477663803017
 30
0.0
 11
4162.5736220799835792
 21
249.6202508360283048
 31
0.0
  0
ARC
  5
EEBE
  8
0
 10
4162.522726310435246
 20
249.626260068412904
 30
0.0
 40
0.0512492949402101
 50
353.2662970031108216
 51
44.9297726543164728
  0
ARC
  5
EEBF
  8
0
 10
4162.5054299290741255
 20
249.6047984688987924
 30
0.0
 40
0.0787080853961828
 50
47.0987483063922525
 51
139.9811637228908978
  0
ARC
  5
EEC0
  8
0
 10
4162.4884038402242368
 20
249.6250895296770977
 30
0.0
 40
0.0528208965833013
 50
144.9675257771328063
 51
190.23549990160069
  0
ARC
  5
EEC1
  8
0
 10
4162.4761390765052056
 20
249.9375196425463912
 30
0.0
 40
0.0163075007463187
 50
312.4321467855859282
 51
37.5996950543634014
  0
ARC
  5
EEC2
  8
0
 10
4162.4690088298939372
 20
249.9451431210771091
 30
0.0
 40
0.0267453745575686
 50
217.5923314898466003
 51
312.6870406153090016
  0
ARC
  5
EEC3
  8
0
 10
4162.4611000211098144
 20
249.9375764980667043
 30
0.0
 40
0.0159058808929741
 50
153.7770878470522007
 51
213.370753392602694
  0
ARC
  5
EEC4
  8
0
 10
4162.4690045497400206
 20
249.9304227849468987
 30
0.0
 40
0.0263208626621462
 50
40.3647263624424113
 51
147.3972936572021979
  0
ARC
  5
EEC5
  8
0
 10
4162.4751016591208099
 20
249.9572751714451044
 30
0.0
 40
0.0638081396161144
 50
297.0523826459893826
 51
345.8703988503760911
  0
ARC
  5
EEC6
  8
0
 10
4162.4684255184465655
 20
249.9880432693555861
 30
0.0
 40
0.0945892540384408
 50
239.1918360515415998
 51
292.1716863631227739
  0
ARC
  5
EEC7
  8
0
 10
4162.4436356507621895
 20
249.9444425725604049
 30
0.0
 40
0.044456821179572
 50
189.4396215744071981
 51
237.8525666187902914
  0
LINE
  5
EEC8
  8
0
 10
4162.3997808202248052
 20
249.9371512909258968
 30
0.0
 11
4162.3954017049509275
 21
249.9573148040298065
 31
0.0
  0
ARC
  5
EEC9
  8
0
 10
4162.4454828859516056
 20
249.9598306106911991
 30
0.0
 40
0.0501443314197459
 50
121.4836442636170943
 51
182.8758115025869984
  0
ARC
  5
EECA
  8
0
 10
4162.4831446794260046
 20
249.9121984407013031
 30
0.0
 40
0.1106707662852213
 50
86.165994162197336
 51
125.2353114832365009
  0
ARC
  5
EECB
  8
0
 10
4162.4902216700966164
 20
249.9614441740355062
 30
0.0
 40
0.0611782005019706
 50
37.9295526475360916
 51
89.6973732047843555
  0
ARC
  5
EECC
  8
0
 10
4162.5074746105547092
 20
249.9809179553168121
 30
0.0
 40
0.0359154315365556
 50
351.3163852515016856
 51
30.3215266097318512
  0
LINE
  5
EECD
  8
0
 10
4162.5429783472136478
 20
249.9754955106986074
 30
0.0
 11
4162.5369793488889627
 21
249.9416985803466957
 31
0.0
  0
ARC
  5
EECE
  8
0
 10
4162.48608357933972
 20
249.9477078127312097
 30
0.0
 40
0.0512492949402101
 50
353.2662970031108216
 51
44.9297726543164728
  0
ARC
  5
EECF
  8
0
 10
4162.4687871979785996
 20
249.9262462132170981
 30
0.0
 40
0.0787080853961828
 50
47.0987483063922525
 51
139.9811637228908978
  0
ARC
  5
EED0
  8
0
 10
4162.4517611091278013
 20
249.9465372739954887
 30
0.0
 40
0.0528208965833013
 50
144.9675257771328063
 51
190.23549990160069
  0
ARC
  5
EED1
  8
0
 10
4162.1600348353331356
 20
249.7747793745751039
 30
0.0
 40
0.0163075007463187
 50
312.4321467855859282
 51
37.5996950543634014
  0
ARC
  5
EED2
  8
0
 10
4162.1529045887218672
 20
249.7824028531057934
 30
0.0
 40
0.0267453745575686
 50
217.5923314898466003
 51
312.6870406153090016
  0
ARC
  5
EED3
  8
0
 10
4162.1449957799368349
 20
249.7748362300955023
 30
0.0
 40
0.0159058808929741
 50
153.7770878470522007
 51
213.370753392602694
  0
ARC
  5
EED4
  8
0
 10
4162.1529003085670411
 20
249.7676825169756114
 30
0.0
 40
0.0263208626621462
 50
40.3647263624424113
 51
147.3972936572021979
  0
ARC
  5
EED5
  8
0
 10
4162.1589974179478304
 20
249.7945349034737887
 30
0.0
 40
0.0638081396161144
 50
297.0523826459893826
 51
345.8703988503760911
  0
ARC
  5
EED6
  8
0
 10
4162.152321277275405
 20
249.8253030013842988
 30
0.0
 40
0.0945892540384408
 50
239.1918360515415998
 51
292.1716863631227739
  0
ARC
  5
EED7
  8
0
 10
4162.1275314095901194
 20
249.7817023045890892
 30
0.0
 40
0.044456821179572
 50
189.4396215744071981
 51
237.8525666187902914
  0
LINE
  5
EED8
  8
0
 10
4162.0836765790518257
 20
249.7744110229544958
 30
0.0
 11
4162.0792974637788575
 21
249.7945745360586045
 31
0.0
  0
ARC
  5
EED9
  8
0
 10
4162.1293786447777165
 20
249.7970903427199971
 30
0.0
 40
0.0501443314197459
 50
121.4836442636170943
 51
182.8758115025869984
  0
ARC
  5
EEDA
  8
0
 10
4162.1670404382539346
 20
249.7494581727301011
 30
0.0
 40
0.1106707662852213
 50
86.165994162197336
 51
125.2353114832365009
  0
ARC
  5
EEDB
  8
0
 10
4162.1741174289245464
 20
249.7987039060641905
 30
0.0
 40
0.0611782005019706
 50
37.9295526475360916
 51
89.6973732047843555
  0
ARC
  5
EEDC
  8
0
 10
4162.1913703693817297
 20
249.8181776873454965
 30
0.0
 40
0.0359154315365556
 50
351.3163852515016856
 51
30.3215266097318512
  0
LINE
  5
EEDD
  8
0
 10
4162.2268741060415778
 20
249.8127552427272917
 30
0.0
 11
4162.2208751077159832
 21
249.7789583123754085
 31
0.0
  0
ARC
  5
EEDE
  8
0
 10
4162.169979338165831
 20
249.7849675447600077
 30
0.0
 40
0.0512492949402101
 50
353.2662970031108216
 51
44.9297726543164728
  0
ARC
  5
EEDF
  8
0
 10
4162.1526829568047106
 20
249.7635059452458108
 30
0.0
 40
0.0787080853961828
 50
47.0987483063922525
 51
139.9811637228908978
  0
ARC
  5
EEE0
  8
0
 10
4162.1356568679557313
 20
249.7837970060242014
 30
0.0
 40
0.0528208965833013
 50
144.9675257771328063
 51
190.23549990160069
  0
ARC
  5
EEE1
  8
0
 10
4162.233479532606907
 20
249.4666436196939969
 30
0.0
 40
0.0163075007463187
 50
312.4321467855859282
 51
37.5996950543634014
  0
ARC
  5
EEE2
  8
0
 10
4162.2263492859956386
 20
249.4742670982248001
 30
0.0
 40
0.0267453745575686
 50
217.5923314898466003
 51
312.6870406153090016
  0
ARC
  5
EEE3
  8
0
 10
4162.2184404772096968
 20
249.4667004752143953
 30
0.0
 40
0.0159058808929741
 50
153.7770878470522007
 51
213.370753392602694
  0
ARC
  5
EEE4
  8
0
 10
4162.2263450058408125
 20
249.4595467620945897
 30
0.0
 40
0.0263208626621462
 50
40.3647263624424113
 51
147.3972936572021979
  0
ARC
  5
EEE5
  8
0
 10
4162.2324421152206924
 20
249.4863991485927954
 30
0.0
 40
0.0638081396161144
 50
297.0523826459893826
 51
345.8703988503760911
  0
ARC
  5
EEE6
  8
0
 10
4162.225765974548267
 20
249.5171672465033055
 30
0.0
 40
0.0945892540384408
 50
239.1918360515415998
 51
292.1716863631227739
  0
ARC
  5
EEE7
  8
0
 10
4162.2009761068638909
 20
249.4735665497080959
 30
0.0
 40
0.044456821179572
 50
189.4396215744071981
 51
237.8525666187902914
  0
LINE
  5
EEE8
  8
0
 10
4162.1571212763246876
 20
249.4662752680735025
 30
0.0
 11
4162.15274216105081
 21
249.4864387811774975
 31
0.0
  0
ARC
  5
EEE9
  8
0
 10
4162.2028233420523975
 20
249.4889545878388901
 30
0.0
 40
0.0501443314197459
 50
121.4836442636170943
 51
182.8758115025869984
  0
ARC
  5
EEEA
  8
0
 10
4162.2404851355267965
 20
249.4413224178489941
 30
0.0
 40
0.1106707662852213
 50
86.165994162197336
 51
125.2353114832365009
  0
ARC
  5
EEEB
  8
0
 10
4162.2475621261983179
 20
249.4905681511831972
 30
0.0
 40
0.0611782005019706
 50
37.9295526475360916
 51
89.6973732047843555
  0
ARC
  5
EEEC
  8
0
 10
4162.2648150666545916
 20
249.5100419324645031
 30
0.0
 40
0.0359154315365556
 50
351.3163852515016856
 51
30.3215266097318512
  0
LINE
  5
EEED
  8
0
 10
4162.3003188033153492
 20
249.5046194878462984
 30
0.0
 11
4162.2943198049888451
 21
249.4708225574943867
 31
0.0
  0
ARC
  5
EEEE
  8
0
 10
4162.2434240354396024
 20
249.4768317898789007
 30
0.0
 40
0.0512492949402101
 50
353.2662970031108216
 51
44.9297726543164728
  0
ARC
  5
EEEF
  8
0
 10
4162.2261276540793915
 20
249.4553701903647891
 30
0.0
 40
0.0787080853961828
 50
47.0987483063922525
 51
139.9811637228908978
  0
ARC
  5
EEF0
  8
0
 10
4162.2091015652304122
 20
249.4756612511430944
 30
0.0
 40
0.0528208965833013
 50
144.9675257771328063
 51
190.23549990160069
  0
ARC
  5
EEF1
  8
0
 10
4162.0359158349547215
 20
250.0791636248474958
 30
0.0
 40
0.0163075007463187
 50
312.4321467855859282
 51
37.5996950543634014
  0
ARC
  5
EEF2
  8
0
 10
4162.0287855883443626
 20
250.0867871033782137
 30
0.0
 40
0.0267453745575686
 50
217.5923314898466003
 51
312.6870406153090016
  0
ARC
  5
EEF3
  8
0
 10
4162.0208767795584208
 20
250.0792204803678942
 30
0.0
 40
0.0159058808929741
 50
153.7770878470522007
 51
213.370753392602694
  0
ARC
  5
EEF4
  8
0
 10
4162.028781308188627
 20
250.0720667672480033
 30
0.0
 40
0.0263208626621462
 50
40.3647263624424113
 51
147.3972936572021979
  0
ARC
  5
EEF5
  8
0
 10
4162.0348784175703258
 20
250.0989191537462091
 30
0.0
 40
0.0638081396161144
 50
297.0523826459893826
 51
345.8703988503760911
  0
ARC
  5
EEF6
  8
0
 10
4162.028202276895172
 20
250.1296872516566907
 30
0.0
 40
0.0945892540384408
 50
239.1918360515415998
 51
292.1716863631227739
  0
ARC
  5
EEF7
  8
0
 10
4162.0034124092117054
 20
250.0860865548615948
 30
0.0
 40
0.044456821179572
 50
189.4396215744071981
 51
237.8525666187902914
  0
LINE
  5
EEF8
  8
0
 10
4161.9595575786734116
 20
250.0787952732270014
 30
0.0
 11
4161.9551784634004434
 21
250.0989587863309964
 31
0.0
  0
ARC
  5
EEF9
  8
0
 10
4162.0211366372841439
 20
250.1077949403459968
 30
0.0
 40
0.0665474140741958
 50
134.6250747412883868
 51
187.6302574724263934
  0
ARC
  5
EEFA
  8
0
 10
4162.029317892725885
 20
250.102987377046901
 30
0.0
 40
0.0757555749814085
 50
72.2536789815870861
 51
136.4750699060973034
  0
ARC
  5
EEFB
  8
0
 10
4162.0294231112056877
 20
250.0968123940475039
 30
0.0
 40
0.0816287273726788
 50
32.5186748683424582
 51
73.645252421818725
  0
ARC
  5
EEFC
  8
0
 10
4162.0672513690033156
 20
250.1225619376178884
 30
0.0
 40
0.0359154315365556
 50
351.3163852515016856
 51
30.3215266097318512
  0
LINE
  5
EEFD
  8
0
 10
4162.1027551056631637
 20
250.1171394929997973
 30
0.0
 11
4162.0967561073366596
 21
250.0833425626478004
 31
0.0
  0
ARC
  5
EEFE
  8
0
 10
4162.0458603377883264
 20
250.089351795032286
 30
0.0
 40
0.0512492949402101
 50
353.2662970031108216
 51
44.9297726543164728
  0
ARC
  5
EEFF
  8
0
 10
4162.028563956427206
 20
250.067890195518288
 30
0.0
 40
0.0787080853961828
 50
47.0987483063922525
 51
139.9811637228908978
  0
ARC
  5
EF00
  8
0
 10
4162.0115378675782267
 20
250.0881812562965933
 30
0.0
 40
0.0528208965833013
 50
144.9675257771328063
 51
190.23549990160069
  0
ARC
  5
EF01
  8
0
 10
4161.7652103313212137
 20
249.8557902576914103
 30
0.0
 40
0.0163075007463187
 50
312.4321467855859282
 51
37.5996950543634014
  0
ARC
  5
EF02
  8
0
 10
4161.7580800847099454
 20
249.8634137362220997
 30
0.0
 40
0.0267453745575686
 50
217.5923314898466003
 51
312.6870406153090016
  0
ARC
  5
EF03
  8
0
 10
4161.7501712759240036
 20
249.8558471132118086
 30
0.0
 40
0.0159058808929741
 50
153.7770878470522007
 51
213.370753392602694
  0
ARC
  5
EF04
  8
0
 10
4161.7580758045551192
 20
249.8486934000918893
 30
0.0
 40
0.0263208626621462
 50
40.3647263624424113
 51
147.3972936572021979
  0
ARC
  5
EF05
  8
0
 10
4161.7641729139359086
 20
249.8755457865900951
 30
0.0
 40
0.0638081396161144
 50
297.0523826459893826
 51
345.8703988503760911
  0
ARC
  5
EF06
  8
0
 10
4161.7574967732625737
 20
249.9063138845006051
 30
0.0
 40
0.0945892540384408
 50
239.1918360515415998
 51
292.1716863631227739
  0
ARC
  5
EF07
  8
0
 10
4161.7327069055772881
 20
249.8627131877053955
 30
0.0
 40
0.044456821179572
 50
189.4396215744071981
 51
237.8525666187902914
  0
LINE
  5
EF08
  8
0
 10
4161.6888520750389944
 20
249.8554219060708874
 30
0.0
 11
4161.6844729597651167
 21
249.8755854191749108
 31
0.0
  0
ARC
  5
EF09
  8
0
 10
4161.7504311336506362
 20
249.8844215731899112
 30
0.0
 40
0.0665474140741958
 50
134.6250747412883868
 51
187.6302574724263934
  0
ARC
  5
EF0A
  8
0
 10
4161.7586123890923773
 20
249.879614009890787
 30
0.0
 40
0.0757555749814085
 50
72.2536789815870861
 51
136.4750699060973034
  0
ARC
  5
EF0B
  8
0
 10
4161.7587176075730895
 20
249.8734390268913046
 30
0.0
 40
0.0816287273726788
 50
32.5186748683424582
 51
73.645252421818725
  0
ARC
  5
EF0C
  8
0
 10
4161.7965458653698079
 20
249.8991885704618028
 30
0.0
 40
0.0359154315365556
 50
351.3163852515016856
 51
30.3215266097318512
  0
LINE
  5
EF0D
  8
0
 10
4161.8320496020287464
 20
249.8937661258437117
 30
0.0
 11
4161.8260506037031519
 21
249.8599691954916864
 31
0.0
  0
ARC
  5
EF0E
  8
0
 10
4161.7751548341548187
 20
249.8659784278763141
 30
0.0
 40
0.0512492949402101
 50
353.2662970031108216
 51
44.9297726543164728
  0
ARC
  5
EF0F
  8
0
 10
4161.7578584527927887
 20
249.8445168283620887
 30
0.0
 40
0.0787080853961828
 50
47.0987483063922525
 51
139.9811637228908978
  0
ARC
  5
EF10
  8
0
 10
4161.7408323639429
 20
249.8648078891405078
 30
0.0
 40
0.0528208965833013
 50
144.9675257771328063
 51
190.23549990160069
  0
ARC
  5
EF11
  8
0
 10
4161.9038105161052954
 20
249.5749638891367113
 30
0.0
 40
0.0163075007463187
 50
312.4321467855859282
 51
37.5996950543634014
  0
ARC
  5
EF12
  8
0
 10
4161.896680269494027
 20
249.5825873676674007
 30
0.0
 40
0.0267453745575686
 50
217.5923314898466003
 51
312.6870406153090016
  0
ARC
  5
EF13
  8
0
 10
4161.8887714607080852
 20
249.5750207446571096
 30
0.0
 40
0.0159058808929741
 50
153.7770878470522007
 51
213.370753392602694
  0
ARC
  5
EF14
  8
0
 10
4161.8966759893382914
 20
249.5678670315371903
 30
0.0
 40
0.0263208626621462
 50
40.3647263624424113
 51
147.3972936572021979
  0
ARC
  5
EF15
  8
0
 10
4161.9027730987190807
 20
249.5947194180353961
 30
0.0
 40
0.0638081396161144
 50
297.0523826459893826
 51
345.8703988503760911
  0
ARC
  5
EF16
  8
0
 10
4161.8960969580466553
 20
249.6254875159459061
 30
0.0
 40
0.0945892540384408
 50
239.1918360515415998
 51
292.1716863631227739
  0
ARC
  5
EF17
  8
0
 10
4161.8713070903613698
 20
249.5818868191508102
 30
0.0
 40
0.044456821179572
 50
189.4396215744071981
 51
237.8525666187902914
  0
LINE
  5
EF18
  8
0
 10
4161.827452259823076
 20
249.5745955375161884
 30
0.0
 11
4161.8230731445501078
 21
249.5947590506202118
 31
0.0
  0
ARC
  5
EF19
  8
0
 10
4161.8890313184338083
 20
249.6035952046352122
 30
0.0
 40
0.0665474140741958
 50
134.6250747412883868
 51
187.6302574724263934
  0
ARC
  5
EF1A
  8
0
 10
4161.8972125738755494
 20
249.598787641336088
 30
0.0
 40
0.0757555749814085
 50
72.2536789815870861
 51
136.4750699060973034
  0
ARC
  5
EF1B
  8
0
 10
4161.8973177923571711
 20
249.5926126583366909
 30
0.0
 40
0.0816287273726788
 50
32.5186748683424582
 51
73.645252421818725
  0
ARC
  5
EF1C
  8
0
 10
4161.93514605015298
 20
249.618362201907189
 30
0.0
 40
0.0359154315365556
 50
351.3163852515016856
 51
30.3215266097318512
  0
LINE
  5
EF1D
  8
0
 10
4161.9706497868128281
 20
249.6129397572890127
 30
0.0
 11
4161.964650788488143
 21
249.5791428269369874
 31
0.0
  0
ARC
  5
EF1E
  8
0
 10
4161.9137550189389003
 20
249.5851520593215866
 30
0.0
 40
0.0512492949402101
 50
353.2662970031108216
 51
44.9297726543164728
  0
ARC
  5
EF1F
  8
0
 10
4161.8964586375777799
 20
249.5636904598075034
 30
0.0
 40
0.0787080853961828
 50
47.0987483063922525
 51
139.9811637228908978
  0
ARC
  5
EF20
  8
0
 10
4161.8794325487278911
 20
249.5839815205858088
 30
0.0
 40
0.0528208965833013
 50
144.9675257771328063
 51
190.23549990160069
  0
ARC
  5
EF21
  8
0
 10
4161.9094653426300283
 20
247.4796618872308045
 30
0.0
 40
0.0163075007463187
 50
312.4321467855859282
 51
37.5996950543634014
  0
ARC
  5
EF22
  8
0
 10
4161.9023350960178504
 20
247.4872853657614939
 30
0.0
 40
0.0267453745575686
 50
217.5923314898466003
 51
312.6870406153090016
  0
ARC
  5
EF23
  8
0
 10
4161.8944262872319086
 20
247.4797187427510892
 30
0.0
 40
0.0159058808929741
 50
153.7770878470522007
 51
213.370753392602694
  0
ARC
  5
EF24
  8
0
 10
4161.9023308158639338
 20
247.472565029631312
 30
0.0
 40
0.0263208626621462
 50
40.3647263624424113
 51
147.3972936572021979
  0
ARC
  5
EF25
  8
0
 10
4161.9084279252438137
 20
247.4994174161294893
 30
0.0
 40
0.0638081396161144
 50
297.0523826459893826
 51
345.8703988503760911
  0
ARC
  5
EF26
  8
0
 10
4161.9017517845713883
 20
247.5301855140399994
 30
0.0
 40
0.0945892540384408
 50
239.1918360515415998
 51
292.1716863631227739
  0
ARC
  5
EF27
  8
0
 10
4161.8769619168861027
 20
247.4865848172447897
 30
0.0
 40
0.044456821179572
 50
189.4396215744071981
 51
237.8525666187902914
  0
LINE
  5
EF28
  8
0
 10
4161.8331070863468995
 20
247.4792935356101964
 30
0.0
 11
4161.8287279710748408
 21
247.4994570487141914
 31
0.0
  0
ARC
  5
EF29
  8
0
 10
4161.8788091520746093
 20
247.5019728553756124
 30
0.0
 40
0.0501443314197459
 50
121.4836442636170943
 51
182.8758115025869984
  0
ARC
  5
EF2A
  8
0
 10
4161.9164709455490083
 20
247.4543406853856879
 30
0.0
 40
0.1106707662852213
 50
86.165994162197336
 51
125.2353114832365009
  0
ARC
  5
EF2B
  8
0
 10
4161.9235479362214392
 20
247.5035864187198911
 30
0.0
 40
0.0611782005019706
 50
37.9295526475360916
 51
89.6973732047843555
  0
ARC
  5
EF2C
  8
0
 10
4161.9408008766786224
 20
247.523060200001197
 30
0.0
 40
0.0359154315365556
 50
351.3163852515016856
 51
30.3215266097318512
  0
LINE
  5
EF2D
  8
0
 10
4161.97630461333938
 20
247.5176377553829923
 30
0.0
 11
4161.9703056150128759
 21
247.483840825031109
 31
0.0
  0
ARC
  5
EF2E
  8
0
 10
4161.9194098454627238
 20
247.4898500574155946
 30
0.0
 40
0.0512492949402101
 50
353.2662970031108216
 51
44.9297726543164728
  0
ARC
  5
EF2F
  8
0
 10
4161.9021134641006938
 20
247.4683884579015114
 30
0.0
 40
0.0787080853961828
 50
47.0987483063922525
 51
139.9811637228908978
  0
ARC
  5
EF30
  8
0
 10
4161.8850873752517145
 20
247.488679518679902
 30
0.0
 40
0.0528208965833013
 50
144.9675257771328063
 51
190.23549990160069
  0
ARC
  5
EF31
  8
0
 10
4161.96435048125295
 20
247.2905786226866951
 30
0.0
 40
0.0163075007463187
 50
312.4321467855859282
 51
37.5996950543634014
  0
ARC
  5
EF32
  8
0
 10
4161.9572202346416816
 20
247.298202101217413
 30
0.0
 40
0.0267453745575686
 50
217.5923314898466003
 51
312.6870406153090016
  0
ARC
  5
EF33
  8
0
 10
4161.9493114258557398
 20
247.2906354782070082
 30
0.0
 40
0.0159058808929741
 50
153.7770878470522007
 51
213.370753392602694
  0
ARC
  5
EF34
  8
0
 10
4161.957215954485946
 20
247.2834817650872026
 30
0.0
 40
0.0263208626621462
 50
40.3647263624424113
 51
147.3972936572021979
  0
ARC
  5
EF35
  8
0
 10
4161.9633130638667353
 20
247.3103341515854083
 30
0.0
 40
0.0638081396161144
 50
297.0523826459893826
 51
345.8703988503760911
  0
ARC
  5
EF36
  8
0
 10
4161.9566369231952194
 20
247.34110224949589
 30
0.0
 40
0.0945892540384408
 50
239.1918360515415998
 51
292.1716863631227739
  0
ARC
  5
EF37
  8
0
 10
4161.9318470555090244
 20
247.2975015527007088
 30
0.0
 40
0.044456821179572
 50
189.4396215744071981
 51
237.8525666187902914
  0
LINE
  5
EF38
  8
0
 10
4161.8879922249707306
 20
247.2902102710662007
 30
0.0
 11
4161.8836131096968529
 21
247.3103737841701957
 31
0.0
  0
ARC
  5
EF39
  8
0
 10
4161.9336942906984405
 20
247.312889590831503
 30
0.0
 40
0.0501443314197459
 50
121.4836442636170943
 51
182.8758115025869984
  0
ARC
  5
EF3A
  8
0
 10
4161.9713560841728395
 20
247.265257420841607
 30
0.0
 40
0.1106707662852213
 50
86.165994162197336
 51
125.2353114832365009
  0
ARC
  5
EF3B
  8
0
 10
4161.9784330748443608
 20
247.3145031541758101
 30
0.0
 40
0.0611782005019706
 50
37.9295526475360916
 51
89.6973732047843555
  0
ARC
  5
EF3C
  8
0
 10
4161.9956860153006346
 20
247.3339769354570876
 30
0.0
 40
0.0359154315365556
 50
351.3163852515016856
 51
30.3215266097318512
  0
LINE
  5
EF3D
  8
0
 10
4162.0311897519613922
 20
247.3285544908389113
 30
0.0
 11
4162.0251907536339786
 21
247.294757560486886
 31
0.0
  0
ARC
  5
EF3E
  8
0
 10
4161.9742949840847359
 20
247.3007667928715136
 30
0.0
 40
0.0512492949402101
 50
353.2662970031108216
 51
44.9297726543164728
  0
ARC
  5
EF3F
  8
0
 10
4161.9569986027236155
 20
247.279305193357402
 30
0.0
 40
0.0787080853961828
 50
47.0987483063922525
 51
139.9811637228908978
  0
ARC
  5
EF40
  8
0
 10
4161.9399725138746362
 20
247.2995962541357926
 30
0.0
 40
0.0528208965833013
 50
144.9675257771328063
 51
190.23549990160069
  0
ARC
  5
EF41
  8
0
 10
4161.8035259408052298
 20
247.0743654069366926
 30
0.0
 40
0.0163075007463187
 50
312.4321467855859282
 51
37.5996950543634014
  0
ARC
  5
EF42
  8
0
 10
4161.7963956941939614
 20
247.0819888854674957
 30
0.0
 40
0.0267453745575686
 50
217.5923314898466003
 51
312.6870406153090016
  0
ARC
  5
EF43
  8
0
 10
4161.7884868854080196
 20
247.0744222624570909
 30
0.0
 40
0.0159058808929741
 50
153.7770878470522007
 51
213.370753392602694
  0
ARC
  5
EF44
  8
0
 10
4161.7963914140382258
 20
247.0672685493373137
 30
0.0
 40
0.0263208626621462
 50
40.3647263624424113
 51
147.3972936572021979
  0
ARC
  5
EF45
  8
0
 10
4161.8024885234190151
 20
247.0941209358354058
 30
0.0
 40
0.0638081396161144
 50
297.0523826459893826
 51
345.8703988503760911
  0
ARC
  5
EF46
  8
0
 10
4161.7958123827456802
 20
247.1248890337458874
 30
0.0
 40
0.0945892540384408
 50
239.1918360515415998
 51
292.1716863631227739
  0
ARC
  5
EF47
  8
0
 10
4161.7710225150613041
 20
247.0812883369507915
 30
0.0
 40
0.044456821179572
 50
189.4396215744071981
 51
237.8525666187902914
  0
LINE
  5
EF48
  8
0
 10
4161.7271676845230104
 20
247.0739970553161982
 30
0.0
 11
4161.7227885692500422
 21
247.0941605684201932
 31
0.0
  0
ARC
  5
EF49
  8
0
 10
4161.7728697502498107
 20
247.0966763750816142
 30
0.0
 40
0.0501443314197459
 50
121.4836442636170943
 51
182.8758115025869984
  0
ARC
  5
EF4A
  8
0
 10
4161.8105315437251193
 20
247.0490442050916897
 30
0.0
 40
0.1106707662852213
 50
86.165994162197336
 51
125.2353114832365009
  0
ARC
  5
EF4B
  8
0
 10
4161.8176085343966406
 20
247.0982899384258928
 30
0.0
 40
0.0611782005019706
 50
37.9295526475360916
 51
89.6973732047843555
  0
ARC
  5
EF4C
  8
0
 10
4161.8348614748529144
 20
247.1177637197071988
 30
0.0
 40
0.0359154315365556
 50
351.3163852515016856
 51
30.3215266097318512
  0
LINE
  5
EF4D
  8
0
 10
4161.8703652115127625
 20
247.1123412750889941
 30
0.0
 11
4161.8643662131880774
 21
247.0785443447371108
 31
0.0
  0
ARC
  5
EF4E
  8
0
 10
4161.8134704436388347
 20
247.0845535771215964
 30
0.0
 40
0.0512492949402101
 50
353.2662970031108216
 51
44.9297726543164728
  0
ARC
  5
EF4F
  8
0
 10
4161.7961740622768048
 20
247.0630919776075132
 30
0.0
 40
0.0787080853961828
 50
47.0987483063922525
 51
139.9811637228908978
  0
ARC
  5
EF50
  8
0
 10
4161.7791479734278255
 20
247.0833830383857901
 30
0.0
 40
0.0528208965833013
 50
144.9675257771328063
 51
190.23549990160069
  0
ARC
  5
EF51
  8
0
 10
4161.5634766849052539
 20
247.4427121995394998
 30
0.0
 40
0.0163075007463187
 50
312.4321467855859282
 51
37.5996950543634014
  0
ARC
  5
EF52
  8
0
 10
4161.5563464382939856
 20
247.4503356780701893
 30
0.0
 40
0.0267453745575686
 50
217.5923314898466003
 51
312.6870406153090016
  0
ARC
  5
EF53
  8
0
 10
4161.5484376295080438
 20
247.4427690550598129
 30
0.0
 40
0.0159058808929741
 50
153.7770878470522007
 51
213.370753392602694
  0
ARC
  5
EF54
  8
0
 10
4161.5563421581391594
 20
247.4356153419400073
 30
0.0
 40
0.0263208626621462
 50
40.3647263624424113
 51
147.3972936572021979
  0
ARC
  5
EF55
  8
0
 10
4161.5624392675199488
 20
247.462467728438213
 30
0.0
 40
0.0638081396161144
 50
297.0523826459893826
 51
345.8703988503760911
  0
ARC
  5
EF56
  8
0
 10
4161.5557631268457044
 20
247.4932358263486947
 30
0.0
 40
0.0945892540384408
 50
239.1918360515415998
 51
292.1716863631227739
  0
ARC
  5
EF57
  8
0
 10
4161.5309732591613283
 20
247.4496351295535987
 30
0.0
 40
0.044456821179572
 50
189.4396215744071981
 51
237.8525666187902914
  0
LINE
  5
EF58
  8
0
 10
4161.4871184286230346
 20
247.4423438479190054
 30
0.0
 11
4161.4827393133500664
 21
247.4625073610230004
 31
0.0
  0
ARC
  5
EF59
  8
0
 10
4161.5328204943498349
 20
247.4650231676843077
 30
0.0
 40
0.0501443314197459
 50
121.4836442636170943
 51
182.8758115025869984
  0
ARC
  5
EF5A
  8
0
 10
4161.5704822878251434
 20
247.4173909976944117
 30
0.0
 40
0.1106707662852213
 50
86.165994162197336
 51
125.2353114832365009
  0
ARC
  5
EF5B
  8
0
 10
4161.5775592784966648
 20
247.4666367310287001
 30
0.0
 40
0.0611782005019706
 50
37.9295526475360916
 51
89.6973732047843555
  0
ARC
  5
EF5C
  8
0
 10
4161.5948122189529386
 20
247.4861105123098923
 30
0.0
 40
0.0359154315365556
 50
351.3163852515016856
 51
30.3215266097318512
  0
LINE
  5
EF5D
  8
0
 10
4161.6303159556136961
 20
247.4806880676918013
 30
0.0
 11
4161.6243169572881015
 21
247.4468911373398043
 31
0.0
  0
ARC
  5
EF5E
  8
0
 10
4161.5734211877379494
 20
247.4529003697242899
 30
0.0
 40
0.0512492949402101
 50
353.2662970031108216
 51
44.9297726543164728
  0
ARC
  5
EF5F
  8
0
 10
4161.5561248063768289
 20
247.4314387702102067
 30
0.0
 40
0.0787080853961828
 50
47.0987483063922525
 51
139.9811637228908978
  0
ARC
  5
EF60
  8
0
 10
4161.5390987175278497
 20
247.4517298309885973
 30
0.0
 40
0.0528208965833013
 50
144.9675257771328063
 51
190.23549990160069
  0
ARC
  5
EF61
  8
0
 10
4161.5634742454049047
 20
247.2494647143367104
 30
0.0
 40
0.0163075007463187
 50
312.4321467855859282
 51
37.5996950543634014
  0
ARC
  5
EF62
  8
0
 10
4161.5563439987936363
 20
247.2570881928675135
 30
0.0
 40
0.0267453745575686
 50
217.5923314898466003
 51
312.6870406153090016
  0
ARC
  5
EF63
  8
0
 10
4161.548435190008604
 20
247.2495215698571087
 30
0.0
 40
0.0159058808929741
 50
153.7770878470522007
 51
213.370753392602694
  0
ARC
  5
EF64
  8
0
 10
4161.5563397186388102
 20
247.2423678567371894
 30
0.0
 40
0.0263208626621462
 50
40.3647263624424113
 51
147.3972936572021979
  0
ARC
  5
EF65
  8
0
 10
4161.56243682801869
 20
247.2692202432355089
 30
0.0
 40
0.0638081396161144
 50
297.0523826459893826
 51
345.8703988503760911
  0
ARC
  5
EF66
  8
0
 10
4161.5557606873462646
 20
247.2999883411459052
 30
0.0
 40
0.0945892540384408
 50
239.1918360515415998
 51
292.1716863631227739
  0
ARC
  5
EF67
  8
0
 10
4161.530970819660979
 20
247.2563876443508093
 30
0.0
 40
0.044456821179572
 50
189.4396215744071981
 51
237.8525666187902914
  0
LINE
  5
EF68
  8
0
 10
4161.4871159891235948
 20
247.2490963627161875
 30
0.0
 11
4161.4827368738506266
 21
247.2692598758202109
 31
0.0
  0
ARC
  5
EF69
  8
0
 10
4161.5328180548503951
 20
247.2717756824816036
 30
0.0
 40
0.0501443314197459
 50
121.4836442636170943
 51
182.8758115025869984
  0
ARC
  5
EF6A
  8
0
 10
4161.5704798483247941
 20
247.2241435124917075
 30
0.0
 40
0.1106707662852213
 50
86.165994162197336
 51
125.2353114832365009
  0
ARC
  5
EF6B
  8
0
 10
4161.577556838997225
 20
247.2733892458259106
 30
0.0
 40
0.0611782005019706
 50
37.9295526475360916
 51
89.6973732047843555
  0
ARC
  5
EF6C
  8
0
 10
4161.5948097794544083
 20
247.2928630271071881
 30
0.0
 40
0.0359154315365556
 50
351.3163852515016856
 51
30.3215266097318512
  0
LINE
  5
EF6D
  8
0
 10
4161.6303135161133469
 20
247.2874405824890118
 30
0.0
 11
4161.6243145177868428
 21
247.2536436521369865
 31
0.0
  0
ARC
  5
EF6E
  8
0
 10
4161.5734187482394191
 20
247.2596528845216142
 30
0.0
 40
0.0512492949402101
 50
353.2662970031108216
 51
44.9297726543164728
  0
ARC
  5
EF6F
  8
0
 10
4161.5561223668773891
 20
247.2381912850075025
 30
0.0
 40
0.0787080853961828
 50
47.0987483063922525
 51
139.9811637228908978
  0
ARC
  5
EF70
  8
0
 10
4161.5390962780284099
 20
247.2584823457858079
 30
0.0
 40
0.0528208965833013
 50
144.9675257771328063
 51
190.23549990160069
  0
ARC
  5
EF71
  8
0
 10
4161.6287289931124178
 20
248.4413163734012073
 30
0.0
 40
0.1930069620831833
 50
319.5906313813912902
 51
60.0890701757675529
  0
ARC
  5
EF72
  8
0
 10
4146.5262414186008755
 20
245.0650267761884891
 30
0.0
 40
15.6521638436268002
 50
0.2609941622744933
 51
6.5093432337332242
  0
ARC
  5
EF73
  8
0
 10
4145.0993837475316468
 20
245.3723809052717115
 30
0.0
 40
17.0804903677279398
 50
352.2463985600190881
 51
359.2081365677786948
  0
ARC
  5
EF74
  8
0
 10
4163.6666233557389205
 20
242.8062625939080874
 30
0.0
 40
1.663627042729938
 50
170.9481845357547058
 51
181.2282618442889941
  0
ARC
  5
EF75
  8
0
 10
4161.9312616615643492
 20
242.569579071765304
 30
0.0
 40
0.213567281263567
 50
355.8650023592268212
 51
70.2645523249174033
  0
ARC
  5
EF76
  8
0
 10
4161.8704920668051273
 20
242.6600236738464105
 30
0.0
 40
0.2935285453481649
 50
284.3434418818350196
 51
338.8634036533898097
  0
ARC
  5
EF77
  8
0
 10
4162.0351918087790182
 20
242.4654194120371073
 30
0.0
 40
0.0961547421731392
 50
5.8483646847849489
 51
26.175522623254821
  0
LINE
  5
EF78
  8
0
 10
4162.1308460703703531
 20
242.4752172016802092
 30
0.0
 11
4162.132137590644561
 21
241.6315151558233936
 31
0.0
  0
ARC
  5
EF79
  8
0
 10
4161.9054297549400872
 20
241.7040402564915951
 30
0.0
 40
0.2380259082484819
 50
278.3009056715416136
 51
342.2602360940343829
  0
ARC
  5
EF7A
  8
0
 10
4161.9257318752843275
 20
241.4943126105468991
 30
0.0
 40
0.0293874091206042
 50
179.3362152946434946
 51
298.5880206072588976
  0
LINE
  5
EF7B
  8
0
 10
4161.8963464382941311
 20
241.4946530627846073
 30
0.0
 11
4161.8960233522921044
 21
242.3290639160398996
 31
0.0
  0
ARC
  5
EF7C
  8
0
 10
4161.9345019522261282
 20
242.3175758498682058
 30
0.0
 40
0.0401569211634597
 50
101.7177775666800983
 51
163.3766222797331977
  0
ARC
  5
EF7D
  8
0
 10
4161.8468197354641234
 20
242.6778727216486971
 30
0.0
 40
0.3306820527784764
 50
283.9156365666270858
 51
327.3234157760841185
  0
ARC
  5
EF7E
  8
0
 10
4161.5925807867133699
 20
247.1307770802083041
 30
0.0
 40
0.0444683327100375
 50
351.2738774603362231
 51
83.4130497510524123
  0
ARC
  5
EF7F
  8
0
 10
4124.9211233574187645
 20
246.9428555114052983
 30
0.0
 40
36.7158580423379703
 50
359.239622098841096
 51
0.2827284363469276
  0
ARC
  5
EF80
  8
0
 10
4161.5935866837999129
 20
246.4555993928132125
 30
0.0
 40
0.0401615289116891
 50
270.4243723889524063
 51
0.0152271673173346
  0
ARC
  5
EF81
  8
0
 10
4161.6612498873082586
 20
246.8756581304637905
 30
0.0
 40
0.0291021835647095
 50
97.8256168723529953
 51
146.6296123725838925
  0
ARC
  5
EF82
  8
0
 10
4160.8031861815034063
 20
248.7721731099144904
 30
0.0
 40
1.6504609106862129
 50
159.4771489171396013
 51
179.593739396891209
  0
ARC
  5
EF83
  8
0
 10
4160.9269966503998148
 20
248.7951076312087935
 30
0.0
 40
1.774265441902416
 50
180.362710072569314
 51
227.0790983394713862
  0
ARC
  5
EF84
  8
0
 10
4161.4895979231332603
 20
248.0305422173506997
 30
0.0
 40
2.4148958986006068
 50
102.0788021767392024
 51
123.1253325540631067
  0
ARC
  5
EF85
  8
0
 10
4161.1787667607331969
 20
248.4873753052781069
 30
0.0
 40
1.8624785417684779
 50
122.7971681025458963
 51
151.9855189978609928
  0
ARC
  5
EF86
  8
0
 10
4160.8384017321341162
 20
248.6782738897449008
 30
0.0
 40
1.4723558868678699
 50
152.3226413511357862
 51
187.2636868752395003
  0
ARC
  5
EF87
  8
0
 10
4161.06295642403893
 20
248.7586937379599021
 30
0.0
 40
1.7060503807259111
 50
188.989577203607098
 51
237.0518119358241051
  0
ARC
  5
EF88
  8
0
 10
4161.4826634740702502
 20
248.0377634609037898
 30
0.0
 40
2.4218215753272472
 50
103.2315300522568009
 51
123.5073558866212977
  0
ARC
  5
EF89
  8
0
 10
4161.0700361791650721
 20
248.5951583013726065
 30
0.0
 40
1.729650951946285
 50
122.3032065189468938
 51
162.964671332837014
  0
ARC
  5
EF8A
  8
0
 10
4160.7768905269313109
 20
248.6627534783659996
 30
0.0
 40
1.4297224420857939
 50
162.1130136081783917
 51
208.7064637272941923
  0
ARC
  5
EF8B
  8
0
 10
4161.2657960834039841
 20
248.9488313044157053
 30
0.0
 40
1.996011993726291
 50
209.168169286188089
 51
247.2911402167007111
  0
ARC
  5
EF8C
  8
0
 10
4161.3083156069760662
 20
248.5381670796751052
 30
0.0
 40
0.853551065253095
 50
185.8804593496801942
 51
238.4220120320678973
  0
ARC
  5
EF8D
  8
0
 10
4161.3007674133641558
 20
248.4711071523838086
 30
0.0
 40
0.8417583004174909
 50
119.5825666756445997
 51
181.3879620724339077
  0
ARC
  5
EF8E
  8
0
 10
4161.1517602234644073
 20
248.9917165492194044
 30
0.0
 40
1.9280168049944419
 50
142.6993808035435904
 51
169.2664789976795987
  0
ARC
  5
EF8F
  8
0
 10
4161.3238123113824258
 20
248.8174438238276878
 30
0.0
 40
2.1707593328682488
 50
115.4088457959880003
 51
141.7922973704341132
  0
ARC
  5
EF90
  8
0
 10
4161.5196840281978439
 20
248.4444220822811928
 30
0.0
 40
2.591796816250008
 50
101.886780998508101
 51
115.7818022250938981
  0
ARC
  5
EF91
  8
0
 10
4160.0914794921909561
 20
247.6176581086681949
 30
0.0
 40
0.0163075007463187
 50
142.4003049456366057
 51
227.5678532144139865
  0
ARC
  5
EF92
  8
0
 10
4160.0986097388022245
 20
247.6252815871989981
 30
0.0
 40
0.0267453745575686
 50
227.3129593846898899
 51
322.4076685101533144
  0
ARC
  5
EF93
  8
0
 10
4160.1065185475881663
 20
247.6177149641885933
 30
0.0
 40
0.0159058808929741
 50
326.629246607397306
 51
26.22291215294781
  0
ARC
  5
EF94
  8
0
 10
4160.0986140189579601
 20
247.6105612510687024
 30
0.0
 40
0.0263208626621462
 50
32.6027063427978305
 51
139.6352736375575887
  0
ARC
  5
EF95
  8
0
 10
4160.0925169095771707
 20
247.6374136375669934
 30
0.0
 40
0.0638081396161144
 50
194.1296011496237952
 51
242.947617354010589
  0
ARC
  5
EF96
  8
0
 10
4160.0991930502486866
 20
247.6681817354775035
 30
0.0
 40
0.0945892540384408
 50
247.8283136368771977
 51
300.8081639484582865
  0
ARC
  5
EF97
  8
0
 10
4160.1239829179348817
 20
247.6245810386822939
 30
0.0
 40
0.044456821179572
 50
302.1474333812096233
 51
350.5603784255911819
  0
LINE
  5
EF98
  8
0
 10
4160.1678377484731755
 20
247.6172897570477005
 30
0.0
 11
4160.1722168637461436
 21
247.6374532701516955
 31
0.0
  0
ARC
  5
EF99
  8
0
 10
4160.1221356827472846
 20
247.6399690768130881
 30
0.0
 40
0.0501443314197459
 50
357.12418849741141
 51
58.5163557363828204
  0
ARC
  5
EF9A
  8
0
 10
4160.0844738892710666
 20
247.5923369068231921
 30
0.0
 40
0.1106707662852213
 50
54.7646885167634494
 51
93.8340058378026782
  0
ARC
  5
EF9B
  8
0
 10
4160.0773968985986357
 20
247.6415826401573952
 30
0.0
 40
0.0611782005019706
 50
90.3026267952156303
 51
142.0704473524639013
  0
ARC
  5
EF9C
  8
0
 10
4160.0601439581432714
 20
247.6610564214387011
 30
0.0
 40
0.0359154315365556
 50
149.6784733902680955
 51
188.6836147484966091
  0
LINE
  5
EF9D
  8
0
 10
4160.0246402214816044
 20
247.6556339768204964
 30
0.0
 11
4160.030639219809018
 21
247.6218370464684995
 31
0.0
  0
ARC
  5
EF9E
  8
0
 10
4160.0815349893582606
 20
247.6278462788530987
 30
0.0
 40
0.0512492949402101
 50
135.0702273456834916
 51
186.7337029968875015
  0
ARC
  5
EF9F
  8
0
 10
4160.0988313707202906
 20
247.6063846793389871
 30
0.0
 40
0.0787080853961828
 50
40.0188362771090382
 51
132.9012516936076906
  0
ARC
  5
EFA0
  8
0
 10
4160.1158574595683604
 20
247.6266757401174061
 30
0.0
 40
0.0528208965833013
 50
349.76450009839931
 51
35.0324742228658366
  0
ARC
  5
EFA1
  8
0
 10
4161.441135323259914
 20
249.3019306350336137
 30
0.0
 40
2.4957284877284911
 50
226.3591190775640882
 51
270.7996268036392848
  0
ARC
  5
EFA2
  8
0
 10
4161.5257278425606273
 20
249.3983159534139986
 30
0.0
 40
2.4948179638778738
 50
236.1225120011266085
 51
268.3847690463626918
  0
ARC
  5
EFA3
  8
0
 10
4161.5409728290960629
 20
249.4918140990679092
 30
0.0
 40
2.6035091947024389
 50
246.3177880497337071
 51
268.5644997127619149
  0
ARC
  5
EFA4
  8
0
 10
4160.8768696876877584
 20
247.589584132296892
 30
0.0
 40
0.0163075007463187
 50
142.4003049456366057
 51
227.5678532144139865
  0
ARC
  5
EFA5
  8
0
 10
4160.8839999342990268
 20
247.5972076108276951
 30
0.0
 40
0.0267453745575686
 50
227.3129593846898899
 51
322.4076685101533144
  0
ARC
  5
EFA6
  8
0
 10
4160.8919087430858781
 20
247.5896409878172904
 30
0.0
 40
0.0159058808929741
 50
326.629246607397306
 51
26.22291215294781
  0
ARC
  5
EFA7
  8
0
 10
4160.8840042144538529
 20
247.5824872746973995
 30
0.0
 40
0.0263208626621462
 50
32.6027063427978305
 51
139.6352736375575887
  0
ARC
  5
EFA8
  8
0
 10
4160.8779071050730636
 20
247.6093396611956052
 30
0.0
 40
0.0638081396161144
 50
194.1296011496237952
 51
242.947617354010589
  0
ARC
  5
EFA9
  8
0
 10
4160.884583245747308
 20
247.6401077591060869
 30
0.0
 40
0.0945892540384408
 50
247.8283136368771977
 51
300.8081639484582865
  0
ARC
  5
EFAA
  8
0
 10
4160.909373113431684
 20
247.5965070623109057
 30
0.0
 40
0.044456821179572
 50
302.1474333812096233
 51
350.5603784255911819
  0
LINE
  5
EFAB
  8
0
 10
4160.9532279439708873
 20
247.5892157806763976
 30
0.0
 11
4160.9576070592438555
 21
247.6093792937803926
 31
0.0
  0
ARC
  5
EFAC
  8
0
 10
4160.9075258782431774
 20
247.6118951004416999
 30
0.0
 40
0.0501443314197459
 50
357.12418849741141
 51
58.5163557363828204
  0
ARC
  5
EFAD
  8
0
 10
4160.8698640847678689
 20
247.5642629304518891
 30
0.0
 40
0.1106707662852213
 50
54.7646885167634494
 51
93.8340058378026782
  0
ARC
  5
EFAE
  8
0
 10
4160.8627870940972571
 20
247.6135086637860923
 30
0.0
 40
0.0611782005019706
 50
90.3026267952156303
 51
142.0704473524639013
  0
ARC
  5
EFAF
  8
0
 10
4160.8455341536391643
 20
247.6329824450673129
 30
0.0
 40
0.0359154315365556
 50
149.6784733902680955
 51
188.6836147484966091
  0
LINE
  5
EFB0
  8
0
 10
4160.8100304169802257
 20
247.6275600004491935
 30
0.0
 11
4160.8160294153058203
 21
247.5937630700971965
 31
0.0
  0
ARC
  5
EFB1
  8
0
 10
4160.866925184855063
 20
247.5997723024817958
 30
0.0
 40
0.0512492949402101
 50
135.0702273456834916
 51
186.7337029968875015
  0
ARC
  5
EFB2
  8
0
 10
4160.8842215662170929
 20
247.5783107029675989
 30
0.0
 40
0.0787080853961828
 50
40.0188362771090382
 51
132.9012516936076906
  0
ARC
  5
EFB3
  8
0
 10
4160.9012476550660722
 20
247.5986017637459895
 30
0.0
 40
0.0528208965833013
 50
349.76450009839931
 51
35.0324742228658366
  0
ARC
  5
EFB4
  8
0
 10
4160.7712727758871551
 20
247.4111397380997914
 30
0.0
 40
0.0163075007463187
 50
142.4003049456366057
 51
227.5678532144139865
  0
ARC
  5
EFB5
  8
0
 10
4160.7784030224984235
 20
247.4187632166305946
 30
0.0
 40
0.0267453745575686
 50
227.3129593846898899
 51
322.4076685101533144
  0
ARC
  5
EFB6
  8
0
 10
4160.7863118312843653
 20
247.4111965936201898
 30
0.0
 40
0.0159058808929741
 50
326.629246607397306
 51
26.22291215294781
  0
ARC
  5
EFB7
  8
0
 10
4160.7784073026541591
 20
247.4040428805002989
 30
0.0
 40
0.0263208626621462
 50
32.6027063427978305
 51
139.6352736375575887
  0
ARC
  5
EFB8
  8
0
 10
4160.7723101932715508
 20
247.4308952669985899
 30
0.0
 40
0.0638081396161144
 50
194.1296011496237952
 51
242.947617354010589
  0
ARC
  5
EFB9
  8
0
 10
4160.7789863339448857
 20
247.4616633649091
 30
0.0
 40
0.0945892540384408
 50
247.8283136368771977
 51
300.8081639484582865
  0
ARC
  5
EFBA
  8
0
 10
4160.8037762016310808
 20
247.4180626681138904
 30
0.0
 40
0.044456821179572
 50
302.1474333812096233
 51
350.5603784255911819
  0
LINE
  5
EFBB
  8
0
 10
4160.8476310321693745
 20
247.410771386479297
 30
0.0
 11
4160.8520101474432522
 21
247.430934899583292
 31
0.0
  0
ARC
  5
EFBC
  8
0
 10
4160.8019289664416647
 20
247.433450706244713
 30
0.0
 40
0.0501443314197459
 50
357.12418849741141
 51
58.5163557363828204
  0
ARC
  5
EFBD
  8
0
 10
4160.7642671729672657
 20
247.3858185362547886
 30
0.0
 40
0.1106707662852213
 50
54.7646885167634494
 51
93.8340058378026782
  0
ARC
  5
EFBE
  8
0
 10
4160.7571901822948348
 20
247.4350642695889917
 30
0.0
 40
0.0611782005019706
 50
90.3026267952156303
 51
142.0704473524639013
  0
ARC
  5
EFBF
  8
0
 10
4160.7399372418376515
 20
247.4545380508702976
 30
0.0
 40
0.0359154315365556
 50
149.6784733902680955
 51
188.6836147484966091
  0
LINE
  5
EFC0
  8
0
 10
4160.7044335051787129
 20
247.4491156062520929
 30
0.0
 11
4160.710432503505217
 21
247.415318675900096
 31
0.0
  0
ARC
  5
EFC1
  8
0
 10
4160.7613282730535502
 20
247.4213279082846952
 30
0.0
 40
0.0512492949402101
 50
135.0702273456834916
 51
186.7337029968875015
  0
ARC
  5
EFC2
  8
0
 10
4160.7786246544146707
 20
247.399866308770612
 30
0.0
 40
0.0787080853961828
 50
40.0188362771090382
 51
132.9012516936076906
  0
ARC
  5
EFC3
  8
0
 10
4160.7956507432636499
 20
247.4201573695490026
 30
0.0
 40
0.0528208965833013
 50
349.76450009839931
 51
35.0324742228658366
  0
ARC
  5
EFC4
  8
0
 10
4160.8526050185892018
 20
247.1697060530968884
 30
0.0
 40
0.0163075007463187
 50
142.4003049456366057
 51
227.5678532144139865
  0
ARC
  5
EFC5
  8
0
 10
4160.8597352651995607
 20
247.1773295316276062
 30
0.0
 40
0.0267453745575686
 50
227.3129593846898899
 51
322.4076685101533144
  0
ARC
  5
EFC6
  8
0
 10
4160.867644073984593
 20
247.1697629086172867
 30
0.0
 40
0.0159058808929741
 50
326.629246607397306
 51
26.22291215294781
  0
ARC
  5
EFC7
  8
0
 10
4160.8597395453552963
 20
247.1626091954973958
 30
0.0
 40
0.0263208626621462
 50
32.6027063427978305
 51
139.6352736375575887
  0
ARC
  5
EFC8
  8
0
 10
4160.8536424359735975
 20
247.1894615819956016
 30
0.0
 40
0.0638081396161144
 50
194.1296011496237952
 51
242.947617354010589
  0
ARC
  5
EFC9
  8
0
 10
4160.8603185766478418
 20
247.2202296799061116
 30
0.0
 40
0.0945892540384408
 50
247.8283136368771977
 51
300.8081639484582865
  0
ARC
  5
EFCA
  8
0
 10
4160.8851084443322179
 20
247.176628983110902
 30
0.0
 40
0.044456821179572
 50
302.1474333812096233
 51
350.5603784255911819
  0
LINE
  5
EFCB
  8
0
 10
4160.9289632748696022
 20
247.1693377014763087
 30
0.0
 11
4160.9333423901425704
 21
247.1895012145803889
 31
0.0
  0
ARC
  5
EFCC
  8
0
 10
4160.8832612091437113
 20
247.19201702124181
 30
0.0
 40
0.0501443314197459
 50
357.12418849741141
 51
58.5163557363828204
  0
ARC
  5
EFCD
  8
0
 10
4160.8455994156684028
 20
247.1443848512519139
 30
0.0
 40
0.1106707662852213
 50
54.7646885167634494
 51
93.8340058378026782
  0
ARC
  5
EFCE
  8
0
 10
4160.8385224249968815
 20
247.1936305845860034
 30
0.0
 40
0.0611782005019706
 50
90.3026267952156303
 51
142.0704473524639013
  0
ARC
  5
EFCF
  8
0
 10
4160.8212694845396982
 20
247.2131043658673946
 30
0.0
 40
0.0359154315365556
 50
149.6784733902680955
 51
188.6836147484966091
  0
LINE
  5
EFD0
  8
0
 10
4160.7857657478789406
 20
247.2076819212491898
 30
0.0
 11
4160.7917647462063542
 21
247.1738849908971929
 31
0.0
  0
ARC
  5
EFD1
  8
0
 10
4160.8426605157546874
 20
247.1798942232817069
 30
0.0
 40
0.0512492949402101
 50
135.0702273456834916
 51
186.7337029968875015
  0
ARC
  5
EFD2
  8
0
 10
4160.8599568971158078
 20
247.1584326237675953
 30
0.0
 40
0.0787080853961828
 50
40.0188362771090382
 51
132.9012516936076906
  0
ARC
  5
EFD3
  8
0
 10
4160.8769829859656966
 20
247.1787236845459859
 30
0.0
 40
0.0528208965833013
 50
349.76450009839931
 51
35.0324742228658366
  0
ARC
  5
EFD4
  8
0
 10
4160.4318872096882842
 20
247.3570558038967988
 30
0.0
 40
0.0163075007463187
 50
142.4003049456366057
 51
227.5678532144139865
  0
ARC
  5
EFD5
  8
0
 10
4160.4390174562986431
 20
247.3646792824276019
 30
0.0
 40
0.0267453745575686
 50
227.3129593846898899
 51
322.4076685101533144
  0
ARC
  5
EFD6
  8
0
 10
4160.4469262650864039
 20
247.3571126594173109
 30
0.0
 40
0.0159058808929741
 50
326.629246607397306
 51
26.22291215294781
  0
ARC
  5
EFD7
  8
0
 10
4160.4390217364552882
 20
247.3499589462973915
 30
0.0
 40
0.0263208626621462
 50
32.6027063427978305
 51
139.6352736375575887
  0
ARC
  5
EFD8
  8
0
 10
4160.4329246270735894
 20
247.3768113327955973
 30
0.0
 40
0.0638081396161144
 50
194.1296011496237952
 51
242.947617354010589
  0
ARC
  5
EFD9
  8
0
 10
4160.4396007677469242
 20
247.4075794307061074
 30
0.0
 40
0.0945892540384408
 50
247.8283136368771977
 51
300.8081639484582865
  0
ARC
  5
EFDA
  8
0
 10
4160.4643906354322098
 20
247.3639787339108977
 30
0.0
 40
0.044456821179572
 50
302.1474333812096233
 51
350.5603784255911819
  0
LINE
  5
EFDB
  8
0
 10
4160.5082454659714131
 20
247.3566874522763896
 30
0.0
 11
4160.5126245812425623
 21
247.3768509653804131
 31
0.0
  0
ARC
  5
EFDC
  8
0
 10
4160.4625434002427937
 20
247.3793667720418057
 30
0.0
 40
0.0501443314197459
 50
357.12418849741141
 51
58.5163557363828204
  0
ARC
  5
EFDD
  8
0
 10
4160.4248816067683947
 20
247.3317346020519096
 30
0.0
 40
0.1106707662852213
 50
54.7646885167634494
 51
93.8340058378026782
  0
ARC
  5
EFDE
  8
0
 10
4160.4178046160968734
 20
247.3809803353859991
 30
0.0
 40
0.0611782005019706
 50
90.3026267952156303
 51
142.0704473524639013
  0
ARC
  5
EFDF
  8
0
 10
4160.4005516756405996
 20
247.4004541166673903
 30
0.0
 40
0.0359154315365556
 50
149.6784733902680955
 51
188.6836147484966091
  0
LINE
  5
EFE0
  8
0
 10
4160.365047938979842
 20
247.3950316720491003
 30
0.0
 11
4160.3710469373063461
 21
247.3612347416971886
 31
0.0
  0
ARC
  5
EFE1
  8
0
 10
4160.4219427068555888
 20
247.3672439740817879
 30
0.0
 40
0.0512492949402101
 50
135.0702273456834916
 51
186.7337029968875015
  0
ARC
  5
EFE2
  8
0
 10
4160.4392390882167092
 20
247.345782374567591
 30
0.0
 40
0.0787080853961828
 50
40.0188362771090382
 51
132.9012516936076906
  0
ARC
  5
EFE3
  8
0
 10
4160.4562651770656885
 20
247.36607343534601
 30
0.0
 40
0.0528208965833013
 50
349.76450009839931
 51
35.0324742228658366
  0
ARC
  5
EFE4
  8
0
 10
4160.4508168329903128
 20
247.6027073499423068
 30
0.0
 40
0.0163075007463187
 50
142.4003049456366057
 51
227.5678532144139865
  0
ARC
  5
EFE5
  8
0
 10
4160.4579470796015812
 20
247.6103308284731099
 30
0.0
 40
0.0267453745575686
 50
227.3129593846898899
 51
322.4076685101533144
  0
ARC
  5
EFE6
  8
0
 10
4160.4658558883884325
 20
247.6027642054627051
 30
0.0
 40
0.0159058808929741
 50
326.629246607397306
 51
26.22291215294781
  0
ARC
  5
EFE7
  8
0
 10
4160.4579513597573168
 20
247.5956104923428995
 30
0.0
 40
0.0263208626621462
 50
32.6027063427978305
 51
139.6352736375575887
  0
ARC
  5
EFE8
  8
0
 10
4160.4518542503747085
 20
247.6224628788411053
 30
0.0
 40
0.0638081396161144
 50
194.1296011496237952
 51
242.947617354010589
  0
ARC
  5
EFE9
  8
0
 10
4160.4585303910489529
 20
247.6532309767515869
 30
0.0
 40
0.0945892540384408
 50
247.8283136368771977
 51
300.8081639484582865
  0
ARC
  5
EFEA
  8
0
 10
4160.4833202587342385
 20
247.6096302799564057
 30
0.0
 40
0.044456821179572
 50
302.1474333812096233
 51
350.5603784255911819
  0
LINE
  5
EFEB
  8
0
 10
4160.5271750892716227
 20
247.6023389983218124
 30
0.0
 11
4160.5315542045445909
 21
247.6225025114258926
 31
0.0
  0
ARC
  5
EFEC
  8
0
 10
4160.4814730235457318
 20
247.6250183180872
 30
0.0
 40
0.0501443314197459
 50
357.12418849741141
 51
58.5163557363828204
  0
ARC
  5
EFED
  8
0
 10
4160.4438112300704233
 20
247.5773861480973039
 30
0.0
 40
0.1106707662852213
 50
54.7646885167634494
 51
93.8340058378026782
  0
ARC
  5
EFEE
  8
0
 10
4160.436734239398902
 20
247.6266318814315071
 30
0.0
 40
0.0611782005019706
 50
90.3026267952156303
 51
142.0704473524639013
  0
ARC
  5
EFEF
  8
0
 10
4160.4194812989417187
 20
247.646105662712813
 30
0.0
 40
0.0359154315365556
 50
149.6784733902680955
 51
188.6836147484966091
  0
LINE
  5
EFF0
  8
0
 10
4160.3839775622818706
 20
247.6406832180946083
 30
0.0
 11
4160.3899765606083747
 21
247.6068862877426966
 31
0.0
  0
ARC
  5
EFF1
  8
0
 10
4160.4408723301567079
 20
247.6128955201272106
 30
0.0
 40
0.0512492949402101
 50
135.0702273456834916
 51
186.7337029968875015
  0
ARC
  5
EFF2
  8
0
 10
4160.4581687115178283
 20
247.591433920613099
 30
0.0
 40
0.0787080853961828
 50
40.0188362771090382
 51
132.9012516936076906
  0
ARC
  5
EFF3
  8
0
 10
4160.4751948003677171
 20
247.6117249813914043
 30
0.0
 40
0.0528208965833013
 50
349.76450009839931
 51
35.0324742228658366
  0
ARC
  5
EFF4
  8
0
 10
4160.6015504349588809
 20
247.7605683609033065
 30
0.0
 40
0.0163075007463187
 50
142.4003049456366057
 51
227.5678532144139865
  0
ARC
  5
EFF5
  8
0
 10
4160.6086806815701493
 20
247.7681918394341096
 30
0.0
 40
0.0267453745575686
 50
227.3129593846898899
 51
322.4076685101533144
  0
ARC
  5
EFF6
  8
0
 10
4160.6165894903560911
 20
247.7606252164237048
 30
0.0
 40
0.0159058808929741
 50
326.629246607397306
 51
26.22291215294781
  0
ARC
  5
EFF7
  8
0
 10
4160.6086849617258849
 20
247.753471503303814
 30
0.0
 40
0.0263208626621462
 50
32.6027063427978305
 51
139.6352736375575887
  0
ARC
  5
EFF8
  8
0
 10
4160.6025878523441861
 20
247.7803238898019913
 30
0.0
 40
0.0638081396161144
 50
194.1296011496237952
 51
242.947617354010589
  0
ARC
  5
EFF9
  8
0
 10
4160.6092639930166115
 20
247.8110919877125013
 30
0.0
 40
0.0945892540384408
 50
247.8283136368771977
 51
300.8081639484582865
  0
ARC
  5
EFFA
  8
0
 10
4160.6340538607028066
 20
247.7674912909172917
 30
0.0
 40
0.044456821179572
 50
302.1474333812096233
 51
350.5603784255911819
  0
LINE
  5
EFFB
  8
0
 10
4160.6779086912411003
 20
247.7602000092828121
 30
0.0
 11
4160.6822878065140685
 21
247.7803635223868071
 31
0.0
  0
ARC
  5
EFFC
  8
0
 10
4160.6322066255143
 20
247.7828793290481997
 30
0.0
 40
0.0501443314197459
 50
357.12418849741141
 51
58.5163557363828204
  0
ARC
  5
EFFD
  8
0
 10
4160.5945448320389914
 20
247.7352471590583036
 30
0.0
 40
0.1106707662852213
 50
54.7646885167634494
 51
93.8340058378026782
  0
ARC
  5
EFFE
  8
0
 10
4160.5874678413665606
 20
247.7844928923925067
 30
0.0
 40
0.0611782005019706
 50
90.3026267952156303
 51
142.0704473524639013
  0
ARC
  5
EFFF
  8
0
 10
4160.5702149009102868
 20
247.8039666736738127
 30
0.0
 40
0.0359154315365556
 50
149.6784733902680955
 51
188.6836147484966091
  0
LINE
  5
F000
  8
0
 10
4160.5347111642513482
 20
247.798544229055608
 30
0.0
 11
4160.5407101625769428
 21
247.764747298703611
 31
0.0
  0
ARC
  5
F001
  8
0
 10
4160.591605932125276
 20
247.7707565310882103
 30
0.0
 40
0.0512492949402101
 50
135.0702273456834916
 51
186.7337029968875015
  0
ARC
  5
F002
  8
0
 10
4160.6089023134863965
 20
247.7492949315740987
 30
0.0
 40
0.0787080853961828
 50
40.0188362771090382
 51
132.9012516936076906
  0
ARC
  5
F003
  8
0
 10
4160.6259284023362852
 20
247.769585992352404
 30
0.0
 40
0.0528208965833013
 50
349.76450009839931
 51
35.0324742228658366
  0
ARC
  5
F004
  8
0
 10
4160.3898199943096188
 20
247.9847923807004122
 30
0.0
 40
0.0163075007463187
 50
142.4003049456366057
 51
227.5678532144139865
  0
ARC
  5
F005
  8
0
 10
4160.3969502409208872
 20
247.9924158592311869
 30
0.0
 40
0.0267453745575686
 50
227.3129593846898899
 51
322.4076685101533144
  0
ARC
  5
F006
  8
0
 10
4160.404859049706829
 20
247.9848492362208106
 30
0.0
 40
0.0159058808929741
 50
326.629246607397306
 51
26.22291215294781
  0
ARC
  5
F007
  8
0
 10
4160.3969545210748038
 20
247.9776955231010049
 30
0.0
 40
0.0263208626621462
 50
32.6027063427978305
 51
139.6352736375575887
  0
ARC
  5
F008
  8
0
 10
4160.3908574116949239
 20
248.004547909599097
 30
0.0
 40
0.0638081396161144
 50
194.1296011496237952
 51
242.947617354010589
  0
ARC
  5
F009
  8
0
 10
4160.3975335523691683
 20
248.0353160075096071
 30
0.0
 40
0.0945892540384408
 50
247.8283136368771977
 51
300.8081639484582865
  0
ARC
  5
F00A
  8
0
 10
4160.4223234200526349
 20
247.9917153107145111
 30
0.0
 40
0.044456821179572
 50
302.1474333812096233
 51
350.5603784255911819
  0
LINE
  5
F00B
  8
0
 10
4160.4661782505900192
 20
247.9844240290798894
 30
0.0
 11
4160.4705573658638968
 21
248.0045875421839128
 31
0.0
  0
ARC
  5
F00C
  8
0
 10
4160.4204761848641283
 20
248.0071033488453054
 30
0.0
 40
0.0501443314197459
 50
357.12418849741141
 51
58.5163557363828204
  0
ARC
  5
F00D
  8
0
 10
4160.3828143913897293
 20
247.9594711788554093
 30
0.0
 40
0.1106707662852213
 50
54.7646885167634494
 51
93.8340058378026782
  0
ARC
  5
F00E
  8
0
 10
4160.3757374007182079
 20
248.0087169121896125
 30
0.0
 40
0.0611782005019706
 50
90.3026267952156303
 51
142.0704473524639013
  0
ARC
  5
F00F
  8
0
 10
4160.3584844602601152
 20
248.02819069347089
 30
0.0
 40
0.0359154315365556
 50
149.6784733902680955
 51
188.6836147484966091
  0
LINE
  5
F010
  8
0
 10
4160.3229807236011766
 20
248.0227682488527137
 30
0.0
 11
4160.3289797219267712
 21
247.988971318500802
 31
0.0
  0
ARC
  5
F011
  8
0
 10
4160.3798754914760138
 20
247.9949805508852876
 30
0.0
 40
0.0512492949402101
 50
135.0702273456834916
 51
186.7337029968875015
  0
ARC
  5
F012
  8
0
 10
4160.3971718728371343
 20
247.9735189513712044
 30
0.0
 40
0.0787080853961828
 50
40.0188362771090382
 51
132.9012516936076906
  0
ARC
  5
F013
  8
0
 10
4160.4141979616870231
 20
247.9938100121495097
 30
0.0
 40
0.0528208965833013
 50
349.76450009839931
 51
35.0324742228658366
  0
ARC
  5
F014
  8
0
 10
4160.1838097079553336
 20
247.8572254080046093
 30
0.0
 40
0.0163075007463187
 50
142.4003049456366057
 51
227.5678532144139865
  0
ARC
  5
F015
  8
0
 10
4160.1909399545656925
 20
247.8648488865354125
 30
0.0
 40
0.0267453745575686
 50
227.3129593846898899
 51
322.4076685101533144
  0
ARC
  5
F016
  8
0
 10
4160.1988487633534533
 20
247.8572822635250077
 30
0.0
 40
0.0159058808929741
 50
326.629246607397306
 51
26.22291215294781
  0
ARC
  5
F017
  8
0
 10
4160.1909442347223376
 20
247.8501285504052021
 30
0.0
 40
0.0263208626621462
 50
32.6027063427978305
 51
139.6352736375575887
  0
ARC
  5
F018
  8
0
 10
4160.1848471253415482
 20
247.8769809369032942
 30
0.0
 40
0.0638081396161144
 50
194.1296011496237952
 51
242.947617354010589
  0
ARC
  5
F019
  8
0
 10
4160.1915232660139736
 20
247.9077490348138895
 30
0.0
 40
0.0945892540384408
 50
247.8283136368771977
 51
300.8081639484582865
  0
ARC
  5
F01A
  8
0
 10
4160.2163131336992592
 20
247.8641483380187083
 30
0.0
 40
0.044456821179572
 50
302.1474333812096233
 51
350.5603784255911819
  0
LINE
  5
F01B
  8
0
 10
4160.260167964237553
 20
247.8568570563842002
 30
0.0
 11
4160.2645470795096116
 21
247.8770205694881099
 31
0.0
  0
ARC
  5
F01C
  8
0
 10
4160.2144658985107526
 20
247.8795363761495025
 30
0.0
 40
0.0501443314197459
 50
357.12418849741141
 51
58.5163557363828204
  0
ARC
  5
F01D
  8
0
 10
4160.1768041050363536
 20
247.8319042061596065
 30
0.0
 40
0.1106707662852213
 50
54.7646885167634494
 51
93.8340058378026782
  0
ARC
  5
F01E
  8
0
 10
4160.1697271143639227
 20
247.8811499394938096
 30
0.0
 40
0.0611782005019706
 50
90.3026267952156303
 51
142.0704473524639013
  0
ARC
  5
F01F
  8
0
 10
4160.1524741739076489
 20
247.9006237207750871
 30
0.0
 40
0.0359154315365556
 50
149.6784733902680955
 51
188.6836147484966091
  0
LINE
  5
F020
  8
0
 10
4160.1169704372478009
 20
247.8952012761569108
 30
0.0
 11
4160.1229694355733955
 21
247.8614043458049991
 31
0.0
  0
ARC
  5
F021
  8
0
 10
4160.1738652051226381
 20
247.8674135781895131
 30
0.0
 40
0.0512492949402101
 50
135.0702273456834916
 51
186.7337029968875015
  0
ARC
  5
F022
  8
0
 10
4160.1911615864828491
 20
247.8459519786754015
 30
0.0
 40
0.0787080853961828
 50
40.0188362771090382
 51
132.9012516936076906
  0
ARC
  5
F023
  8
0
 10
4160.2081876753318284
 20
247.8662430394537921
 30
0.0
 40
0.0528208965833013
 50
349.76450009839931
 51
35.0324742228658366
  0
ARC
  5
F024
  8
0
 10
4159.8373758499155883
 20
247.9419682576221078
 30
0.0
 40
0.0163075007463187
 50
142.4003049456366057
 51
227.5678532144139865
  0
ARC
  5
F025
  8
0
 10
4159.8445060965268567
 20
247.9495917361527972
 30
0.0
 40
0.0267453745575686
 50
227.3129593846898899
 51
322.4076685101533144
  0
ARC
  5
F026
  8
0
 10
4159.852414905311889
 20
247.9420251131425061
 30
0.0
 40
0.0159058808929741
 50
326.629246607397306
 51
26.22291215294781
  0
ARC
  5
F027
  8
0
 10
4159.8445103766816828
 20
247.9348714000225868
 30
0.0
 40
0.0263208626621462
 50
32.6027063427978305
 51
139.6352736375575887
  0
ARC
  5
F028
  8
0
 10
4159.8384132673008935
 20
247.9617237865207926
 30
0.0
 40
0.0638081396161144
 50
194.1296011496237952
 51
242.947617354010589
  0
ARC
  5
F029
  8
0
 10
4159.8450894079742284
 20
247.9924918844313027
 30
0.0
 40
0.0945892540384408
 50
247.8283136368771977
 51
300.8081639484582865
  0
ARC
  5
F02A
  8
0
 10
4159.8698792756586045
 20
247.948891187636093
 30
0.0
 40
0.044456821179572
 50
302.1474333812096233
 51
350.5603784255911819
  0
LINE
  5
F02B
  8
0
 10
4159.9137341061968982
 20
247.9415999060016134
 30
0.0
 11
4159.9181132214707759
 21
247.9617634191056084
 31
0.0
  0
ARC
  5
F02C
  8
0
 10
4159.8680320404710073
 20
247.964279225767001
 30
0.0
 40
0.0501443314197459
 50
357.12418849741141
 51
58.5163557363828204
  0
ARC
  5
F02D
  8
0
 10
4159.8303702469956988
 20
247.9166470557771049
 30
0.0
 40
0.1106707662852213
 50
54.7646885167634494
 51
93.8340058378026782
  0
ARC
  5
F02E
  8
0
 10
4159.8232932563241775
 20
247.9658927891111944
 30
0.0
 40
0.0611782005019706
 50
90.3026267952156303
 51
142.0704473524639013
  0
ARC
  5
F02F
  8
0
 10
4159.8060403158669942
 20
247.985366570392614
 30
0.0
 40
0.0359154315365556
 50
149.6784733902680955
 51
188.6836147484966091
  0
LINE
  5
F030
  8
0
 10
4159.7705365792071461
 20
247.9799441257742956
 30
0.0
 11
4159.7765355775336502
 21
247.9461471954224123
 31
0.0
  0
ARC
  5
F031
  8
0
 10
4159.8274313470828929
 20
247.9521564278070116
 30
0.0
 40
0.0512492949402101
 50
135.0702273456834916
 51
186.7337029968875015
  0
ARC
  5
F032
  8
0
 10
4159.8447277284440133
 20
247.9306948282929
 30
0.0
 40
0.0787080853961828
 50
40.0188362771090382
 51
132.9012516936076906
  0
ARC
  5
F033
  8
0
 10
4159.8617538172929926
 20
247.9509858890712053
 30
0.0
 40
0.0528208965833013
 50
349.76450009839931
 51
35.0324742228658366
  0
ARC
  5
F034
  8
0
 10
4160.013111008524902
 20
248.1533746325374921
 30
0.0
 40
0.0163075007463187
 50
142.4003049456366057
 51
227.5678532144139865
  0
ARC
  5
F035
  8
0
 10
4160.0202412551361704
 20
248.1609981110682099
 30
0.0
 40
0.0267453745575686
 50
227.3129593846898899
 51
322.4076685101533144
  0
ARC
  5
F036
  8
0
 10
4160.0281500639212027
 20
248.1534314880578052
 30
0.0
 40
0.0159058808929741
 50
326.629246607397306
 51
26.22291215294781
  0
ARC
  5
F037
  8
0
 10
4160.0202455352909965
 20
248.1462777749379995
 30
0.0
 40
0.0263208626621462
 50
32.6027063427978305
 51
139.6352736375575887
  0
ARC
  5
F038
  8
0
 10
4160.0141484259102072
 20
248.1731301614362053
 30
0.0
 40
0.0638081396161144
 50
194.1296011496237952
 51
242.947617354010589
  0
ARC
  5
F039
  8
0
 10
4160.0208245665826325
 20
248.2038982593466869
 30
0.0
 40
0.0945892540384408
 50
247.8283136368771977
 51
300.8081639484582865
  0
ARC
  5
F03A
  8
0
 10
4160.0456144342688276
 20
248.1602975625515057
 30
0.0
 40
0.044456821179572
 50
302.1474333812096233
 51
350.5603784255911819
  0
LINE
  5
F03B
  8
0
 10
4160.0894692648062119
 20
248.1530062809169976
 30
0.0
 11
4160.0938483800800896
 21
248.1731697940209074
 31
0.0
  0
ARC
  5
F03C
  8
0
 10
4160.043767199080321
 20
248.1756856006823
 30
0.0
 40
0.0501443314197459
 50
357.12418849741141
 51
58.5163557363828204
  0
ARC
  5
F03D
  8
0
 10
4160.0061054056050125
 20
248.1280534306924039
 30
0.0
 40
0.1106707662852213
 50
54.7646885167634494
 51
93.8340058378026782
  0
ARC
  5
F03E
  8
0
 10
4159.9990284149325817
 20
248.1772991640266071
 30
0.0
 40
0.0611782005019706
 50
90.3026267952156303
 51
142.0704473524639013
  0
ARC
  5
F03F
  8
0
 10
4159.9817754744763079
 20
248.196772945307913
 30
0.0
 40
0.0359154315365556
 50
149.6784733902680955
 51
188.6836147484966091
  0
LINE
  5
F040
  8
0
 10
4159.9462717378155503
 20
248.1913505006897083
 30
0.0
 11
4159.9522707361420544
 21
248.1575535703377113
 31
0.0
  0
ARC
  5
F041
  8
0
 10
4160.0031665056912971
 20
248.1635628027223106
 30
0.0
 40
0.0512492949402101
 50
135.0702273456834916
 51
186.7337029968875015
  0
ARC
  5
F042
  8
0
 10
4160.020462887053327
 20
248.142101203208199
 30
0.0
 40
0.0787080853961828
 50
40.0188362771090382
 51
132.9012516936076906
  0
ARC
  5
F043
  8
0
 10
4160.0374889759023063
 20
248.1623922639865896
 30
0.0
 40
0.0528208965833013
 50
349.76450009839931
 51
35.0324742228658366
  0
ARC
  5
F044
  8
0
 10
4160.2573780332086244
 20
248.2459256777156895
 30
0.0
 40
0.0163075007463187
 50
142.4003049456366057
 51
227.5678532144139865
  0
ARC
  5
F045
  8
0
 10
4160.2645082798208023
 20
248.2535491562464927
 30
0.0
 40
0.0267453745575686
 50
227.3129593846898899
 51
322.4076685101533144
  0
ARC
  5
F046
  8
0
 10
4160.2724170886067441
 20
248.2459825332360879
 30
0.0
 40
0.0159058808929741
 50
326.629246607397306
 51
26.22291215294781
  0
ARC
  5
F047
  8
0
 10
4160.2645125599747189
 20
248.2388288201163107
 30
0.0
 40
0.0263208626621462
 50
32.6027063427978305
 51
139.6352736375575887
  0
ARC
  5
F048
  8
0
 10
4160.2584154505939296
 20
248.2656812066144028
 30
0.0
 40
0.0638081396161144
 50
194.1296011496237952
 51
242.947617354010589
  0
ARC
  5
F049
  8
0
 10
4160.2650915912681739
 20
248.2964493045249128
 30
0.0
 40
0.0945892540384408
 50
247.8283136368771977
 51
300.8081639484582865
  0
ARC
  5
F04A
  8
0
 10
4160.28988145895255
 20
248.2528486077297885
 30
0.0
 40
0.044456821179572
 50
302.1474333812096233
 51
350.5603784255911819
  0
LINE
  5
F04B
  8
0
 10
4160.3337362894917533
 20
248.2455573260951951
 30
0.0
 11
4160.3381154047647215
 21
248.2657208391991901
 31
0.0
  0
ARC
  5
F04C
  8
0
 10
4160.2880342237631339
 20
248.2682366458606111
 30
0.0
 40
0.0501443314197459
 50
357.12418849741141
 51
58.5163557363828204
  0
ARC
  5
F04D
  8
0
 10
4160.2503724302887349
 20
248.2206044758706867
 30
0.0
 40
0.1106707662852213
 50
54.7646885167634494
 51
93.8340058378026782
  0
ARC
  5
F04E
  8
0
 10
4160.2432954396181231
 20
248.2698502092048898
 30
0.0
 40
0.0611782005019706
 50
90.3026267952156303
 51
142.0704473524639013
  0
ARC
  5
F04F
  8
0
 10
4160.2260424991609398
 20
248.2893239904861957
 30
0.0
 40
0.0359154315365556
 50
149.6784733902680955
 51
188.6836147484966091
  0
LINE
  5
F050
  8
0
 10
4160.1905387625010917
 20
248.283901545867991
 30
0.0
 11
4160.1965377608257768
 21
248.2501046155161077
 31
0.0
  0
ARC
  5
F051
  8
0
 10
4160.247433530375929
 20
248.2561138479005933
 30
0.0
 40
0.0512492949402101
 50
135.0702273456834916
 51
186.7337029968875015
  0
ARC
  5
F052
  8
0
 10
4160.2647299117370494
 20
248.2346522483865101
 30
0.0
 40
0.0787080853961828
 50
40.0188362771090382
 51
132.9012516936076906
  0
ARC
  5
F053
  8
0
 10
4160.2817560005860287
 20
248.254943309164787
 30
0.0
 40
0.0528208965833013
 50
349.76450009839931
 51
35.0324742228658366
  0
ARC
  5
F054
  8
0
 10
4159.699722748547174
 20
248.3059296392482906
 30
0.0
 40
0.0163075007463187
 50
142.4003049456366057
 51
227.5678532144139865
  0
ARC
  5
F055
  8
0
 10
4159.7068529951584424
 20
248.3135531177790938
 30
0.0
 40
0.0267453745575686
 50
227.3129593846898899
 51
322.4076685101533144
  0
ARC
  5
F056
  8
0
 10
4159.7147618039443842
 20
248.305986494768689
 30
0.0
 40
0.0159058808929741
 50
326.629246607397306
 51
26.22291215294781
  0
ARC
  5
F057
  8
0
 10
4159.706857275314178
 20
248.2988327816489118
 30
0.0
 40
0.0263208626621462
 50
32.6027063427978305
 51
139.6352736375575887
  0
ARC
  5
F058
  8
0
 10
4159.7007601659315696
 20
248.3256851681470891
 30
0.0
 40
0.0638081396161144
 50
194.1296011496237952
 51
242.947617354010589
  0
ARC
  5
F059
  8
0
 10
4159.7074363066049045
 20
248.3564532660575992
 30
0.0
 40
0.0945892540384408
 50
247.8283136368771977
 51
300.8081639484582865
  0
ARC
  5
F05A
  8
0
 10
4159.7322261742901901
 20
248.3128525692623896
 30
0.0
 40
0.044456821179572
 50
302.1474333812096233
 51
350.5603784255911819
  0
LINE
  5
F05B
  8
0
 10
4159.7760810048293934
 20
248.3055612876277962
 30
0.0
 11
4159.7804601201023615
 21
248.3257248007319049
 31
0.0
  0
ARC
  5
F05C
  8
0
 10
4159.7303789391016835
 20
248.3282406073932123
 30
0.0
 40
0.0501443314197459
 50
357.12418849741141
 51
58.5163557363828204
  0
ARC
  5
F05D
  8
0
 10
4159.6927171456272845
 20
248.2806084374034015
 30
0.0
 40
0.1106707662852213
 50
54.7646885167634494
 51
93.8340058378026782
  0
ARC
  5
F05E
  8
0
 10
4159.6856401549557631
 20
248.3298541707374909
 30
0.0
 40
0.0611782005019706
 50
90.3026267952156303
 51
142.0704473524639013
  0
ARC
  5
F05F
  8
0
 10
4159.6683872144976704
 20
248.3493279520187969
 30
0.0
 40
0.0359154315365556
 50
149.6784733902680955
 51
188.6836147484966091
  0
LINE
  5
F060
  8
0
 10
4159.6328834778387318
 20
248.3439055074005921
 30
0.0
 11
4159.6388824761652359
 21
248.3101085770487089
 31
0.0
  0
ARC
  5
F061
  8
0
 10
4159.689778245715388
 20
248.3161178094333081
 30
0.0
 40
0.0512492949402101
 50
135.0702273456834916
 51
186.7337029968875015
  0
ARC
  5
F062
  8
0
 10
4159.707074627075599
 20
248.2946562099191112
 30
0.0
 40
0.0787080853961828
 50
40.0188362771090382
 51
132.9012516936076906
  0
ARC
  5
F063
  8
0
 10
4159.7241007159245783
 20
248.3149472706975018
 30
0.0
 40
0.0528208965833013
 50
349.76450009839931
 51
35.0324742228658366
  0
ARC
  5
F064
  8
0
 10
4159.9452527968524009
 20
248.4742440035537925
 30
0.0
 40
0.0163075007463187
 50
142.4003049456366057
 51
227.5678532144139865
  0
ARC
  5
F065
  8
0
 10
4159.9523830434627598
 20
248.4818674820845956
 30
0.0
 40
0.0267453745575686
 50
227.3129593846898899
 51
322.4076685101533144
  0
ARC
  5
F066
  8
0
 10
4159.9602918522487016
 20
248.4743008590741908
 30
0.0
 40
0.0159058808929741
 50
326.629246607397306
 51
26.22291215294781
  0
ARC
  5
F067
  8
0
 10
4159.9523873236194049
 20
248.4671471459543
 30
0.0
 40
0.0263208626621462
 50
32.6027063427978305
 51
139.6352736375575887
  0
ARC
  5
F068
  8
0
 10
4159.9462902142377061
 20
248.4939995324525057
 30
0.0
 40
0.0638081396161144
 50
194.1296011496237952
 51
242.947617354010589
  0
ARC
  5
F069
  8
0
 10
4159.952966354911041
 20
248.5247676303629873
 30
0.0
 40
0.0945892540384408
 50
247.8283136368771977
 51
300.8081639484582865
  0
ARC
  5
F06A
  8
0
 10
4159.977756222597236
 20
248.4811669335678062
 30
0.0
 40
0.044456821179572
 50
302.1474333812096233
 51
350.5603784255911819
  0
LINE
  5
F06B
  8
0
 10
4160.0216110531337108
 20
248.4738756519332981
 30
0.0
 11
4160.025990168406679
 21
248.4940391650372931
 31
0.0
  0
ARC
  5
F06C
  8
0
 10
4159.9759089874069105
 20
248.4965549716987141
 30
0.0
 40
0.0501443314197459
 50
357.12418849741141
 51
58.5163557363828204
  0
ARC
  5
F06D
  8
0
 10
4159.9382471939334209
 20
248.4489228017087896
 30
0.0
 40
0.1106707662852213
 50
54.7646885167634494
 51
93.8340058378026782
  0
ARC
  5
F06E
  8
0
 10
4159.9311702032600806
 20
248.4981685350429927
 30
0.0
 40
0.0611782005019706
 50
90.3026267952156303
 51
142.0704473524639013
  0
ARC
  5
F06F
  8
0
 10
4159.9139172628028973
 20
248.5176423163242134
 30
0.0
 40
0.0359154315365556
 50
149.6784733902680955
 51
188.6836147484966091
  0
LINE
  5
F070
  8
0
 10
4159.8784135261430492
 20
248.512219871706094
 30
0.0
 11
4159.8844125244686438
 21
248.478422941354097
 31
0.0
  0
ARC
  5
F071
  8
0
 10
4159.935308294018796
 20
248.484432173738611
 30
0.0
 40
0.0512492949402101
 50
135.0702273456834916
 51
186.7337029968875015
  0
ARC
  5
F072
  8
0
 10
4159.9526046753799164
 20
248.4629705742244994
 30
0.0
 40
0.0787080853961828
 50
40.0188362771090382
 51
132.9012516936076906
  0
ARC
  5
F073
  8
0
 10
4159.9696307642288957
 20
248.48326163500289
 30
0.0
 40
0.0528208965833013
 50
349.76450009839931
 51
35.0324742228658366
  0
ARC
  5
F074
  8
0
 10
4160.2097433987119075
 20
248.5276999269541989
 30
0.0
 40
0.0163075007463187
 50
142.4003049456366057
 51
227.5678532144139865
  0
ARC
  5
F075
  8
0
 10
4160.2168736453231759
 20
248.5353234054848883
 30
0.0
 40
0.0267453745575686
 50
227.3129593846898899
 51
322.4076685101533144
  0
ARC
  5
F076
  8
0
 10
4160.2247824541091177
 20
248.527756782474512
 30
0.0
 40
0.0159058808929741
 50
326.629246607397306
 51
26.22291215294781
  0
ARC
  5
F077
  8
0
 10
4160.2168779254789115
 20
248.5206030693547063
 30
0.0
 40
0.0263208626621462
 50
32.6027063427978305
 51
139.6352736375575887
  0
ARC
  5
F078
  8
0
 10
4160.2107808160981222
 20
248.5474554558529121
 30
0.0
 40
0.0638081396161144
 50
194.1296011496237952
 51
242.947617354010589
  0
ARC
  5
F079
  8
0
 10
4160.2174569567705475
 20
248.5782235537633937
 30
0.0
 40
0.0945892540384408
 50
247.8283136368771977
 51
300.8081639484582865
  0
ARC
  5
F07A
  8
0
 10
4160.2422468244558331
 20
248.5346228569682125
 30
0.0
 40
0.044456821179572
 50
302.1474333812096233
 51
350.5603784255911819
  0
LINE
  5
F07B
  8
0
 10
4160.2861016549941269
 20
248.5273315753337044
 30
0.0
 11
4160.2904807702661856
 21
248.5474950884376995
 31
0.0
  0
ARC
  5
F07C
  8
0
 10
4160.2403995892673265
 20
248.5500108950990068
 30
0.0
 40
0.0501443314197459
 50
357.12418849741141
 51
58.5163557363828204
  0
ARC
  5
F07D
  8
0
 10
4160.2027377957929275
 20
248.502378725109196
 30
0.0
 40
0.1106707662852213
 50
54.7646885167634494
 51
93.8340058378026782
  0
ARC
  5
F07E
  8
0
 10
4160.1956608051214062
 20
248.5516244584433991
 30
0.0
 40
0.0611782005019706
 50
90.3026267952156303
 51
142.0704473524639013
  0
ARC
  5
F07F
  8
0
 10
4160.1784078646642229
 20
248.5710982397245914
 30
0.0
 40
0.0359154315365556
 50
149.6784733902680955
 51
188.6836147484966091
  0
LINE
  5
F080
  8
0
 10
4160.1429041280043748
 20
248.5656757951065003
 30
0.0
 11
4160.1489031263290599
 21
248.5318788647545034
 31
0.0
  0
ARC
  5
F081
  8
0
 10
4160.1997988958792121
 20
248.537888097138989
 30
0.0
 40
0.0512492949402101
 50
135.0702273456834916
 51
186.7337029968875015
  0
ARC
  5
F082
  8
0
 10
4160.2170952772403325
 20
248.5164264976249058
 30
0.0
 40
0.0787080853961828
 50
40.0188362771090382
 51
132.9012516936076906
  0
ARC
  5
F083
  8
0
 10
4160.2341213660893118
 20
248.5367175584032964
 30
0.0
 40
0.0528208965833013
 50
349.76450009839931
 51
35.0324742228658366
  0
ARC
  5
F084
  8
0
 10
4159.6582351973611367
 20
248.6916846570875919
 30
0.0
 40
0.0163075007463187
 50
142.4003049456366057
 51
227.5678532144139865
  0
ARC
  5
F085
  8
0
 10
4159.6653654439733145
 20
248.699308135618395
 30
0.0
 40
0.0267453745575686
 50
227.3129593846898899
 51
322.4076685101533144
  0
ARC
  5
F086
  8
0
 10
4159.6732742527583468
 20
248.6917415126079902
 30
0.0
 40
0.0159058808929741
 50
326.629246607397306
 51
26.22291215294781
  0
ARC
  5
F087
  8
0
 10
4159.6653697241281407
 20
248.6845877994880993
 30
0.0
 40
0.0263208626621462
 50
32.6027063427978305
 51
139.6352736375575887
  0
ARC
  5
F088
  8
0
 10
4159.6592726147464418
 20
248.7114401859863904
 30
0.0
 40
0.0638081396161144
 50
194.1296011496237952
 51
242.947617354010589
  0
ARC
  5
F089
  8
0
 10
4159.6659487554197767
 20
248.7422082838969004
 30
0.0
 40
0.0945892540384408
 50
247.8283136368771977
 51
300.8081639484582865
  0
ARC
  5
F08A
  8
0
 10
4159.6907386231050623
 20
248.6986075871016055
 30
0.0
 40
0.044456821179572
 50
302.1474333812096233
 51
350.5603784255911819
  0
LINE
  5
F08B
  8
0
 10
4159.734593453643356
 20
248.6913163054670974
 30
0.0
 11
4159.7389725689163242
 21
248.7114798185710924
 31
0.0
  0
ARC
  5
F08C
  8
0
 10
4159.6888913879165557
 20
248.7139956252325135
 30
0.0
 40
0.0501443314197459
 50
357.12418849741141
 51
58.5163557363828204
  0
ARC
  5
F08D
  8
0
 10
4159.6512295944412472
 20
248.666363455242589
 30
0.0
 40
0.1106707662852213
 50
54.7646885167634494
 51
93.8340058378026782
  0
ARC
  5
F08E
  8
0
 10
4159.6441526037697258
 20
248.7156091885767921
 30
0.0
 40
0.0611782005019706
 50
90.3026267952156303
 51
142.0704473524639013
  0
ARC
  5
F08F
  8
0
 10
4159.626899663313452
 20
248.7350829698580981
 30
0.0
 40
0.0359154315365556
 50
149.6784733902680955
 51
188.6836147484966091
  0
LINE
  5
F090
  8
0
 10
4159.5913959266526945
 20
248.7296605252398933
 30
0.0
 11
4159.5973949249791985
 21
248.6958635948880101
 31
0.0
  0
ARC
  5
F091
  8
0
 10
4159.6482906945284412
 20
248.7018728272724957
 30
0.0
 40
0.0512492949402101
 50
135.0702273456834916
 51
186.7337029968875015
  0
ARC
  5
F092
  8
0
 10
4159.6655870758886522
 20
248.6804112277584125
 30
0.0
 40
0.0787080853961828
 50
40.0188362771090382
 51
132.9012516936076906
  0
ARC
  5
F093
  8
0
 10
4159.6826131647376315
 20
248.7007022885366894
 30
0.0
 40
0.0528208965833013
 50
349.76450009839931
 51
35.0324742228658366
  0
ARC
  5
F094
  8
0
 10
4159.9613359429640695
 20
248.8032636371434876
 30
0.0
 40
0.0163075007463187
 50
142.4003049456366057
 51
227.5678532144139865
  0
ARC
  5
F095
  8
0
 10
4159.9684661895753379
 20
248.8108871156742055
 30
0.0
 40
0.0267453745575686
 50
227.3129593846898899
 51
322.4076685101533144
  0
ARC
  5
F096
  8
0
 10
4159.9763749983612797
 20
248.8033204926638859
 30
0.0
 40
0.0159058808929741
 50
326.629246607397306
 51
26.22291215294781
  0
ARC
  5
F097
  8
0
 10
4159.968470469730164
 20
248.7961667795439951
 30
0.0
 40
0.0263208626621462
 50
32.6027063427978305
 51
139.6352736375575887
  0
ARC
  5
F098
  8
0
 10
4159.9623733603493747
 20
248.8230191660422008
 30
0.0
 40
0.0638081396161144
 50
194.1296011496237952
 51
242.947617354010589
  0
ARC
  5
F099
  8
0
 10
4159.9690495010227096
 20
248.8537872639527109
 30
0.0
 40
0.0945892540384408
 50
247.8283136368771977
 51
300.8081639484582865
  0
ARC
  5
F09A
  8
0
 10
4159.9938393687079952
 20
248.8101865671575865
 30
0.0
 40
0.044456821179572
 50
302.1474333812096233
 51
350.5603784255911819
  0
LINE
  5
F09B
  8
0
 10
4160.0376941992462889
 20
248.8028952855229932
 30
0.0
 11
4160.0420733145192571
 21
248.8230587986269882
 31
0.0
  0
ARC
  5
F09C
  8
0
 10
4159.9919921335185791
 20
248.8255746052884092
 30
0.0
 40
0.0501443314197459
 50
357.12418849741141
 51
58.5163557363828204
  0
ARC
  5
F09D
  8
0
 10
4159.9543303400450895
 20
248.7779424352985131
 30
0.0
 40
0.1106707662852213
 50
54.7646885167634494
 51
93.8340058378026782
  0
ARC
  5
F09E
  8
0
 10
4159.9472533493717492
 20
248.8271881686326878
 30
0.0
 40
0.0611782005019706
 50
90.3026267952156303
 51
142.0704473524639013
  0
ARC
  5
F09F
  8
0
 10
4159.9300004089145659
 20
248.8466619499139085
 30
0.0
 40
0.0359154315365556
 50
149.6784733902680955
 51
188.6836147484966091
  0
LINE
  5
F0A0
  8
0
 10
4159.8944966722547179
 20
248.8412395052957891
 30
0.0
 11
4159.9004956705812219
 21
248.8074425749437921
 31
0.0
  0
ARC
  5
F0A1
  8
0
 10
4159.9513914401295551
 20
248.8134518073283914
 30
0.0
 40
0.0512492949402101
 50
135.0702273456834916
 51
186.7337029968875015
  0
ARC
  5
F0A2
  8
0
 10
4159.9686878214915851
 20
248.7919902078143082
 30
0.0
 40
0.0787080853961828
 50
40.0188362771090382
 51
132.9012516936076906
  0
ARC
  5
F0A3
  8
0
 10
4159.9857139103405643
 20
248.8122812685926135
 30
0.0
 40
0.0528208965833013
 50
349.76450009839931
 51
35.0324742228658366
  0
ARC
  5
F0A4
  8
0
 10
4160.25693382544614
 20
248.807307937184305
 30
0.0
 40
0.0163075007463187
 50
142.4003049456366057
 51
227.5678532144139865
  0
ARC
  5
F0A5
  8
0
 10
4160.2640640720583178
 20
248.8149314157149945
 30
0.0
 40
0.0267453745575686
 50
227.3129593846898899
 51
322.4076685101533144
  0
ARC
  5
F0A6
  8
0
 10
4160.2719728808433501
 20
248.8073647927047034
 30
0.0
 40
0.0159058808929741
 50
326.629246607397306
 51
26.22291215294781
  0
ARC
  5
F0A7
  8
0
 10
4160.264068352213144
 20
248.8002110795848125
 30
0.0
 40
0.0263208626621462
 50
32.6027063427978305
 51
139.6352736375575887
  0
ARC
  5
F0A8
  8
0
 10
4160.2579712428323546
 20
248.8270634660829899
 30
0.0
 40
0.0638081396161144
 50
194.1296011496237952
 51
242.947617354010589
  0
ARC
  5
F0A9
  8
0
 10
4160.26464738350478
 20
248.8578315639934999
 30
0.0
 40
0.0945892540384408
 50
247.8283136368771977
 51
300.8081639484582865
  0
ARC
  5
F0AA
  8
0
 10
4160.2894372511900656
 20
248.8142308671982903
 30
0.0
 40
0.044456821179572
 50
302.1474333812096233
 51
350.5603784255911819
  0
LINE
  5
F0AB
  8
0
 10
4160.3332920817292688
 20
248.8069395855638106
 30
0.0
 11
4160.337671197002237
 21
248.8271030986678056
 31
0.0
  0
ARC
  5
F0AC
  8
0
 10
4160.2875900160006495
 20
248.8296189053291982
 30
0.0
 40
0.0501443314197459
 50
357.12418849741141
 51
58.5163557363828204
  0
ARC
  5
F0AD
  8
0
 10
4160.24992822252716
 20
248.7819867353393022
 30
0.0
 40
0.1106707662852213
 50
54.7646885167634494
 51
93.8340058378026782
  0
ARC
  5
F0AE
  8
0
 10
4160.2428512318547291
 20
248.8312324686735053
 30
0.0
 40
0.0611782005019706
 50
90.3026267952156303
 51
142.0704473524639013
  0
ARC
  5
F0AF
  8
0
 10
4160.2255982913993648
 20
248.8507062499546976
 30
0.0
 40
0.0359154315365556
 50
149.6784733902680955
 51
188.6836147484966091
  0
LINE
  5
F0B0
  8
0
 10
4160.1900945547376978
 20
248.8452838053366065
 30
0.0
 11
4160.1960935530632923
 21
248.8114868749846096
 31
0.0
  0
ARC
  5
F0B1
  8
0
 10
4160.2469893226134445
 20
248.8174961073692089
 30
0.0
 40
0.0512492949402101
 50
135.0702273456834916
 51
186.7337029968875015
  0
ARC
  5
F0B2
  8
0
 10
4160.2642857039736555
 20
248.796034507855012
 30
0.0
 40
0.0787080853961828
 50
40.0188362771090382
 51
132.9012516936076906
  0
ARC
  5
F0B3
  8
0
 10
4160.2813117928226347
 20
248.8163255686334026
 30
0.0
 40
0.0528208965833013
 50
349.76450009839931
 51
35.0324742228658366
  0
ARC
  5
F0B4
  8
0
 10
4159.7493465302459299
 20
249.068076945828011
 30
0.0
 40
0.0163075007463187
 50
142.4003049456366057
 51
227.5678532144139865
  0
ARC
  5
F0B5
  8
0
 10
4159.7564767768581078
 20
249.0757004243588142
 30
0.0
 40
0.0267453745575686
 50
227.3129593846898899
 51
322.4076685101533144
  0
ARC
  5
F0B6
  8
0
 10
4159.7643855856440496
 20
249.0681338013484094
 30
0.0
 40
0.0159058808929741
 50
326.629246607397306
 51
26.22291215294781
  0
ARC
  5
F0B7
  8
0
 10
4159.7564810570120244
 20
249.0609800882286038
 30
0.0
 40
0.0263208626621462
 50
32.6027063427978305
 51
139.6352736375575887
  0
ARC
  5
F0B8
  8
0
 10
4159.7503839476321446
 20
249.0878324747268096
 30
0.0
 40
0.0638081396161144
 50
194.1296011496237952
 51
242.947617354010589
  0
ARC
  5
F0B9
  8
0
 10
4159.7570600883045699
 20
249.1186005726372912
 30
0.0
 40
0.0945892540384408
 50
247.8283136368771977
 51
300.8081639484582865
  0
ARC
  5
F0BA
  8
0
 10
4159.7818499559898555
 20
249.07499987584211
 30
0.0
 40
0.044456821179572
 50
302.1474333812096233
 51
350.5603784255911819
  0
LINE
  5
F0BB
  8
0
 10
4159.8257047865290588
 20
249.0677085942074882
 30
0.0
 11
4159.830083901802027
 21
249.0878721073115116
 31
0.0
  0
ARC
  5
F0BC
  8
0
 10
4159.7800027208013489
 20
249.0903879139729042
 30
0.0
 40
0.0501443314197459
 50
357.12418849741141
 51
58.5163557363828204
  0
ARC
  5
F0BD
  8
0
 10
4159.7423409273260404
 20
249.0427557439830082
 30
0.0
 40
0.1106707662852213
 50
54.7646885167634494
 51
93.8340058378026782
  0
ARC
  5
F0BE
  8
0
 10
4159.735263936656338
 20
249.0920014773172113
 30
0.0
 40
0.0611782005019706
 50
90.3026267952156303
 51
142.0704473524639013
  0
ARC
  5
F0BF
  8
0
 10
4159.7180109961982453
 20
249.1114752585984888
 30
0.0
 40
0.0359154315365556
 50
149.6784733902680955
 51
188.6836147484966091
  0
LINE
  5
F0C0
  8
0
 10
4159.6825072595383972
 20
249.1060528139803125
 30
0.0
 11
4159.6885062578639918
 21
249.0722558836284009
 31
0.0
  0
ARC
  5
F0C1
  8
0
 10
4159.7394020274132345
 20
249.0782651160128864
 30
0.0
 40
0.0512492949402101
 50
135.0702273456834916
 51
186.7337029968875015
  0
ARC
  5
F0C2
  8
0
 10
4159.7566984087743549
 20
249.0568035164988032
 30
0.0
 40
0.0787080853961828
 50
40.0188362771090382
 51
132.9012516936076906
  0
ARC
  5
F0C3
  8
0
 10
4159.7737244976242437
 20
249.0770945772771938
 30
0.0
 40
0.0528208965833013
 50
349.76450009839931
 51
35.0324742228658366
  0
ARC
  5
F0C4
  8
0
 10
4160.0929392381713114
 20
249.1136216811995041
 30
0.0
 40
0.0163075007463187
 50
142.4003049456366057
 51
227.5678532144139865
  0
ARC
  5
F0C5
  8
0
 10
4160.1000694847825798
 20
249.1212451597303073
 30
0.0
 40
0.0267453745575686
 50
227.3129593846898899
 51
322.4076685101533144
  0
ARC
  5
F0C6
  8
0
 10
4160.1079782935676121
 20
249.1136785367199025
 30
0.0
 40
0.0159058808929741
 50
326.629246607397306
 51
26.22291215294781
  0
ARC
  5
F0C7
  8
0
 10
4160.1000737649374059
 20
249.1065248236000969
 30
0.0
 40
0.0263208626621462
 50
32.6027063427978305
 51
139.6352736375575887
  0
ARC
  5
F0C8
  8
0
 10
4160.0939766555566166
 20
249.1333772100983026
 30
0.0
 40
0.0638081396161144
 50
194.1296011496237952
 51
242.947617354010589
  0
ARC
  5
F0C9
  8
0
 10
4160.1006527962299515
 20
249.1641453080088127
 30
0.0
 40
0.0945892540384408
 50
247.8283136368771977
 51
300.8081639484582865
  0
ARC
  5
F0CA
  8
0
 10
4160.1254426639152371
 20
249.120544611213603
 30
0.0
 40
0.044456821179572
 50
302.1474333812096233
 51
350.5603784255911819
  0
LINE
  5
F0CB
  8
0
 10
4160.1692974944526213
 20
249.1132533295790097
 30
0.0
 11
4160.1736766097255895
 21
249.1334168426830047
 31
0.0
  0
ARC
  5
F0CC
  8
0
 10
4160.123595428725821
 20
249.1359326493443973
 30
0.0
 40
0.0501443314197459
 50
357.12418849741141
 51
58.5163557363828204
  0
ARC
  5
F0CD
  8
0
 10
4160.0859336352514219
 20
249.0883004793545012
 30
0.0
 40
0.1106707662852213
 50
54.7646885167634494
 51
93.8340058378026782
  0
ARC
  5
F0CE
  8
0
 10
4160.0788566445799006
 20
249.1375462126887044
 30
0.0
 40
0.0611782005019706
 50
90.3026267952156303
 51
142.0704473524639013
  0
ARC
  5
F0CF
  8
0
 10
4160.0616037041218078
 20
249.1570199939700103
 30
0.0
 40
0.0359154315365556
 50
149.6784733902680955
 51
188.6836147484966091
  0
LINE
  5
F0D0
  8
0
 10
4160.0260999674619597
 20
249.1515975493518056
 30
0.0
 11
4160.0320989657875543
 21
249.1178006189998939
 31
0.0
  0
ARC
  5
F0D1
  8
0
 10
4160.082994735336797
 20
249.1238098513844079
 30
0.0
 40
0.0512492949402101
 50
135.0702273456834916
 51
186.7337029968875015
  0
ARC
  5
F0D2
  8
0
 10
4160.1002911166997364
 20
249.1023482518702963
 30
0.0
 40
0.0787080853961828
 50
40.0188362771090382
 51
132.9012516936076906
  0
ARC
  5
F0D3
  8
0
 10
4160.1173172055487157
 20
249.1226393126486016
 30
0.0
 40
0.0528208965833013
 50
349.76450009839931
 51
35.0324742228658366
  0
ARC
  5
F0D4
  8
0
 10
4160.3925627043763598
 20
249.0683484830072985
 30
0.0
 40
0.0163075007463187
 50
142.4003049456366057
 51
227.5678532144139865
  0
ARC
  5
F0D5
  8
0
 10
4160.3996929509867186
 20
249.0759719615379879
 30
0.0
 40
0.0267453745575686
 50
227.3129593846898899
 51
322.4076685101533144
  0
ARC
  5
F0D6
  8
0
 10
4160.4076017597717509
 20
249.0684053385276115
 30
0.0
 40
0.0159058808929741
 50
326.629246607397306
 51
26.22291215294781
  0
ARC
  5
F0D7
  8
0
 10
4160.3996972311406353
 20
249.0612516254078059
 30
0.0
 40
0.0263208626621462
 50
32.6027063427978305
 51
139.6352736375575887
  0
ARC
  5
F0D8
  8
0
 10
4160.3936001217607554
 20
249.0881040119060117
 30
0.0
 40
0.0638081396161144
 50
194.1296011496237952
 51
242.947617354010589
  0
ARC
  5
F0D9
  8
0
 10
4160.4002762624340903
 20
249.1188721098164933
 30
0.0
 40
0.0945892540384408
 50
247.8283136368771977
 51
300.8081639484582865
  0
ARC
  5
F0DA
  8
0
 10
4160.4250661301193759
 20
249.0752714130213121
 30
0.0
 40
0.044456821179572
 50
302.1474333812096233
 51
350.5603784255911819
  0
LINE
  5
F0DB
  8
0
 10
4160.4689209606567601
 20
249.067980131386804
 30
0.0
 11
4160.4733000759297283
 21
249.088143644490799
 31
0.0
  0
ARC
  5
F0DC
  8
0
 10
4160.4232188949299598
 20
249.0906594511521917
 30
0.0
 40
0.0501443314197459
 50
357.12418849741141
 51
58.5163557363828204
  0
ARC
  5
F0DD
  8
0
 10
4160.3855571014546513
 20
249.0430272811622103
 30
0.0
 40
0.1106707662852213
 50
54.7646885167634494
 51
93.8340058378026782
  0
ARC
  5
F0DE
  8
0
 10
4160.3784801107840394
 20
249.0922730144964987
 30
0.0
 40
0.0611782005019706
 50
90.3026267952156303
 51
142.0704473524639013
  0
ARC
  5
F0DF
  8
0
 10
4160.3612271703259466
 20
249.111746795777691
 30
0.0
 40
0.0359154315365556
 50
149.6784733902680955
 51
188.6836147484966091
  0
LINE
  5
F0E0
  8
0
 10
4160.3257234336670081
 20
249.1063243511595999
 30
0.0
 11
4160.3317224319926027
 21
249.072527420807603
 31
0.0
  0
ARC
  5
F0E1
  8
0
 10
4160.3826182015409358
 20
249.0785366531920886
 30
0.0
 40
0.0512492949402101
 50
135.0702273456834916
 51
186.7337029968875015
  0
ARC
  5
F0E2
  8
0
 10
4160.3999145829038753
 20
249.0570750536780054
 30
0.0
 40
0.0787080853961828
 50
40.0188362771090382
 51
132.9012516936076906
  0
ARC
  5
F0E3
  8
0
 10
4160.4169406717528545
 20
249.077366114456396
 30
0.0
 40
0.0528208965833013
 50
349.76450009839931
 51
35.0324742228658366
  0
ARC
  5
F0E4
  8
0
 10
4160.3041451394956312
 20
249.3917826254127021
 30
0.0
 40
0.0163075007463187
 50
142.4003049456366057
 51
227.5678532144139865
  0
ARC
  5
F0E5
  8
0
 10
4160.3112753861068995
 20
249.3994061039435053
 30
0.0
 40
0.0267453745575686
 50
227.3129593846898899
 51
322.4076685101533144
  0
ARC
  5
F0E6
  8
0
 10
4160.3191841948919318
 20
249.3918394809331005
 30
0.0
 40
0.0159058808929741
 50
326.629246607397306
 51
26.22291215294781
  0
ARC
  5
F0E7
  8
0
 10
4160.3112796662617257
 20
249.3846857678132096
 30
0.0
 40
0.0263208626621462
 50
32.6027063427978305
 51
139.6352736375575887
  0
ARC
  5
F0E8
  8
0
 10
4160.3051825568809363
 20
249.411538154311387
 30
0.0
 40
0.0638081396161144
 50
194.1296011496237952
 51
242.947617354010589
  0
ARC
  5
F0E9
  8
0
 10
4160.3118586975551807
 20
249.4423062522220107
 30
0.0
 40
0.0945892540384408
 50
247.8283136368771977
 51
300.8081639484582865
  0
ARC
  5
F0EA
  8
0
 10
4160.3366485652395568
 20
249.3987055554268011
 30
0.0
 40
0.044456821179572
 50
302.1474333812096233
 51
350.5603784255911819
  0
LINE
  5
F0EB
  8
0
 10
4160.380503395776941
 20
249.391414273792293
 30
0.0
 11
4160.3848825110517282
 21
249.4115777868962027
 31
0.0
  0
ARC
  5
F0EC
  8
0
 10
4160.3348013300501407
 20
249.4140935935575953
 30
0.0
 40
0.0501443314197459
 50
357.12418849741141
 51
58.5163557363828204
  0
ARC
  5
F0ED
  8
0
 10
4160.2971395365757417
 20
249.3664614235676993
 30
0.0
 40
0.1106707662852213
 50
54.7646885167634494
 51
93.8340058378026782
  0
ARC
  5
F0EE
  8
0
 10
4160.2900625459051298
 20
249.4157071569019024
 30
0.0
 40
0.0611782005019706
 50
90.3026267952156303
 51
142.0704473524639013
  0
ARC
  5
F0EF
  8
0
 10
4160.272809605447037
 20
249.4351809381832084
 30
0.0
 40
0.0359154315365556
 50
149.6784733902680955
 51
188.6836147484966091
  0
LINE
  5
F0F0
  8
0
 10
4160.2373058687880985
 20
249.4297584935650036
 30
0.0
 11
4160.243304867113693
 21
249.3959615632130919
 31
0.0
  0
ARC
  5
F0F1
  8
0
 10
4160.2942006366629357
 20
249.401970795597606
 30
0.0
 40
0.0512492949402101
 50
135.0702273456834916
 51
186.7337029968875015
  0
ARC
  5
F0F2
  8
0
 10
4160.3114970180240562
 20
249.3805091960834943
 30
0.0
 40
0.0787080853961828
 50
40.0188362771090382
 51
132.9012516936076906
  0
ARC
  5
F0F3
  8
0
 10
4160.3285231068730354
 20
249.4008002568617997
 30
0.0
 40
0.0528208965833013
 50
349.76450009839931
 51
35.0324742228658366
  0
ARC
  5
F0F4
  8
0
 10
4159.9557468523444186
 20
249.414474943973886
 30
0.0
 40
0.0163075007463187
 50
142.4003049456366057
 51
227.5678532144139865
  0
ARC
  5
F0F5
  8
0
 10
4159.962877098955687
 20
249.4220984225046038
 30
0.0
 40
0.0267453745575686
 50
227.3129593846898899
 51
322.4076685101533144
  0
ARC
  5
F0F6
  8
0
 10
4159.9707859077407193
 20
249.4145317994943127
 30
0.0
 40
0.0159058808929741
 50
326.629246607397306
 51
26.22291215294781
  0
ARC
  5
F0F7
  8
0
 10
4159.9628813791114226
 20
249.4073780863743934
 30
0.0
 40
0.0263208626621462
 50
32.6027063427978305
 51
139.6352736375575887
  0
ARC
  5
F0F8
  8
0
 10
4159.9567842697297237
 20
249.4342304728725992
 30
0.0
 40
0.0638081396161144
 50
194.1296011496237952
 51
242.947617354010589
  0
ARC
  5
F0F9
  8
0
 10
4159.9634604104030586
 20
249.4649985707831092
 30
0.0
 40
0.0945892540384408
 50
247.8283136368771977
 51
300.8081639484582865
  0
ARC
  5
F0FA
  8
0
 10
4159.9882502780892537
 20
249.4213978739880133
 30
0.0
 40
0.044456821179572
 50
302.1474333812096233
 51
350.5603784255911819
  0
LINE
  5
F0FB
  8
0
 10
4160.0321051086257285
 20
249.4141065923533915
 30
0.0
 11
4160.0364842238986967
 21
249.4342701054573865
 31
0.0
  0
ARC
  5
F0FC
  8
0
 10
4159.9864030428989281
 20
249.4367859121188076
 30
0.0
 40
0.0501443314197459
 50
357.12418849741141
 51
58.5163557363828204
  0
ARC
  5
F0FD
  8
0
 10
4159.9487412494254386
 20
249.3891537421289115
 30
0.0
 40
0.1106707662852213
 50
54.7646885167634494
 51
93.8340058378026782
  0
ARC
  5
F0FE
  8
0
 10
4159.9416642587520982
 20
249.4383994754630862
 30
0.0
 40
0.0611782005019706
 50
90.3026267952156303
 51
142.0704473524639013
  0
ARC
  5
F0FF
  8
0
 10
4159.9244113182958245
 20
249.4578732567443069
 30
0.0
 40
0.0359154315365556
 50
149.6784733902680955
 51
188.6836147484966091
  0
LINE
  5
F100
  8
0
 10
4159.8889075816359764
 20
249.4524508121261874
 30
0.0
 11
4159.894906579961571
 21
249.4186538817741905
 31
0.0
  0
ARC
  5
F101
  8
0
 10
4159.9458023495108137
 20
249.4246631141587898
 30
0.0
 40
0.0512492949402101
 50
135.0702273456834916
 51
186.7337029968875015
  0
ARC
  5
F102
  8
0
 10
4159.9630987308719341
 20
249.4032015146447065
 30
0.0
 40
0.0787080853961828
 50
40.0188362771090382
 51
132.9012516936076906
  0
ARC
  5
F103
  8
0
 10
4159.9801248197209134
 20
249.4234925754230119
 30
0.0
 40
0.0528208965833013
 50
349.76450009839931
 51
35.0324742228658366
  0
ARC
  5
F104
  8
0
 10
4160.2554918975865803
 20
249.7109546072989019
 30
0.0
 40
0.0163075007463187
 50
142.4003049456366057
 51
227.5678532144139865
  0
ARC
  5
F105
  8
0
 10
4160.2626221441978487
 20
249.7185780858295914
 30
0.0
 40
0.0267453745575686
 50
227.3129593846898899
 51
322.4076685101533144
  0
ARC
  5
F106
  8
0
 10
4160.2705309529837905
 20
249.7110114628193003
 30
0.0
 40
0.0159058808929741
 50
326.629246607397306
 51
26.22291215294781
  0
ARC
  5
F107
  8
0
 10
4160.2626264243535843
 20
249.7038577496994094
 30
0.0
 40
0.0263208626621462
 50
32.6027063427978305
 51
139.6352736375575887
  0
ARC
  5
F108
  8
0
 10
4160.256529314972795
 20
249.7307101361975867
 30
0.0
 40
0.0638081396161144
 50
194.1296011496237952
 51
242.947617354010589
  0
ARC
  5
F109
  8
0
 10
4160.2632054556452204
 20
249.7614782341080968
 30
0.0
 40
0.0945892540384408
 50
247.8283136368771977
 51
300.8081639484582865
  0
ARC
  5
F10A
  8
0
 10
4160.2879953233314154
 20
249.7178775373130009
 30
0.0
 40
0.044456821179572
 50
302.1474333812096233
 51
350.5603784255911819
  0
LINE
  5
F10B
  8
0
 10
4160.3318501538687997
 20
249.7105862556784075
 30
0.0
 11
4160.3362292691426774
 21
249.7307497687824025
 31
0.0
  0
ARC
  5
F10C
  8
0
 10
4160.2861480881419993
 20
249.7332655754437951
 30
0.0
 40
0.0501443314197459
 50
357.12418849741141
 51
58.5163557363828204
  0
ARC
  5
F10D
  8
0
 10
4160.2484862946666908
 20
249.6856334054538991
 30
0.0
 40
0.1106707662852213
 50
54.7646885167634494
 51
93.8340058378026782
  0
ARC
  5
F10E
  8
0
 10
4160.241409303996079
 20
249.7348791387881022
 30
0.0
 40
0.0611782005019706
 50
90.3026267952156303
 51
142.0704473524639013
  0
ARC
  5
F10F
  8
0
 10
4160.2241563635388957
 20
249.7543529200692944
 30
0.0
 40
0.0359154315365556
 50
149.6784733902680955
 51
188.6836147484966091
  0
LINE
  5
F110
  8
0
 10
4160.1886526268790476
 20
249.7489304754512034
 30
0.0
 11
4160.1946516252046422
 21
249.7151335450992065
 31
0.0
  0
ARC
  5
F111
  8
0
 10
4160.2455473947547944
 20
249.721142777483692
 30
0.0
 40
0.0512492949402101
 50
135.0702273456834916
 51
186.7337029968875015
  0
ARC
  5
F112
  8
0
 10
4160.2628437761150053
 20
249.6996811779696941
 30
0.0
 40
0.0787080853961828
 50
40.0188362771090382
 51
132.9012516936076906
  0
ARC
  5
F113
  8
0
 10
4160.2798698649648941
 20
249.7199722387479994
 30
0.0
 40
0.0528208965833013
 50
349.76450009839931
 51
35.0324742228658366
  0
ARC
  5
F114
  8
0
 10
4160.5999110689863301
 20
249.6160718982280002
 30
0.0
 40
0.0163075007463187
 50
142.4003049456366057
 51
227.5678532144139865
  0
ARC
  5
F115
  8
0
 10
4160.6070413155966889
 20
249.6236953767588034
 30
0.0
 40
0.0267453745575686
 50
227.3129593846898899
 51
322.4076685101533144
  0
ARC
  5
F116
  8
0
 10
4160.6149501243826307
 20
249.6161287537483986
 30
0.0
 40
0.0159058808929741
 50
326.629246607397306
 51
26.22291215294781
  0
ARC
  5
F117
  8
0
 10
4160.6070455957533341
 20
249.608975040628593
 30
0.0
 40
0.0263208626621462
 50
32.6027063427978305
 51
139.6352736375575887
  0
ARC
  5
F118
  8
0
 10
4160.6009484863707257
 20
249.6358274271267135
 30
0.0
 40
0.0638081396161144
 50
194.1296011496237952
 51
242.947617354010589
  0
ARC
  5
F119
  8
0
 10
4160.6076246270440606
 20
249.6665955250371951
 30
0.0
 40
0.0945892540384408
 50
247.8283136368771977
 51
300.8081639484582865
  0
ARC
  5
F11A
  8
0
 10
4160.6324144947302557
 20
249.6229948282420992
 30
0.0
 40
0.044456821179572
 50
302.1474333812096233
 51
350.5603784255911819
  0
LINE
  5
F11B
  8
0
 10
4160.6762693252676399
 20
249.6157035466075058
 30
0.0
 11
4160.6806484405424271
 21
249.6358670597115008
 31
0.0
  0
ARC
  5
F11C
  8
0
 10
4160.6305672595408396
 20
249.6383828663728934
 30
0.0
 40
0.0501443314197459
 50
357.12418849741141
 51
58.5163557363828204
  0
ARC
  5
F11D
  8
0
 10
4160.5929054660664406
 20
249.5907506963829974
 30
0.0
 40
0.1106707662852213
 50
54.7646885167634494
 51
93.8340058378026782
  0
ARC
  5
F11E
  8
0
 10
4160.5858284753949192
 20
249.6399964297172005
 30
0.0
 40
0.0611782005019706
 50
90.3026267952156303
 51
142.0704473524639013
  0
ARC
  5
F11F
  8
0
 10
4160.5685755349368264
 20
249.6594702109983928
 30
0.0
 40
0.0359154315365556
 50
149.6784733902680955
 51
188.6836147484966091
  0
LINE
  5
F120
  8
0
 10
4160.5330717982778879
 20
249.6540477663803017
 30
0.0
 11
4160.5390707966053014
 21
249.6202508360283048
 31
0.0
  0
ARC
  5
F121
  8
0
 10
4160.5899665661536346
 20
249.626260068412904
 30
0.0
 40
0.0512492949402101
 50
135.0702273456834916
 51
186.7337029968875015
  0
ARC
  5
F122
  8
0
 10
4160.6072629475147551
 20
249.6047984688987924
 30
0.0
 40
0.0787080853961828
 50
40.0188362771090382
 51
132.9012516936076906
  0
ARC
  5
F123
  8
0
 10
4160.6242890363637343
 20
249.6250895296770977
 30
0.0
 40
0.0528208965833013
 50
349.76450009839931
 51
35.0324742228658366
  0
ARC
  5
F124
  8
0
 10
4160.636553800081856
 20
249.9375196425463912
 30
0.0
 40
0.0163075007463187
 50
142.4003049456366057
 51
227.5678532144139865
  0
ARC
  5
F125
  8
0
 10
4160.6436840466931244
 20
249.9451431210771091
 30
0.0
 40
0.0267453745575686
 50
227.3129593846898899
 51
322.4076685101533144
  0
ARC
  5
F126
  8
0
 10
4160.6515928554790662
 20
249.9375764980667043
 30
0.0
 40
0.0159058808929741
 50
326.629246607397306
 51
26.22291215294781
  0
ARC
  5
F127
  8
0
 10
4160.64368832684886
 20
249.9304227849468987
 30
0.0
 40
0.0263208626621462
 50
32.6027063427978305
 51
139.6352736375575887
  0
ARC
  5
F128
  8
0
 10
4160.6375912174671612
 20
249.9572751714451044
 30
0.0
 40
0.0638081396161144
 50
194.1296011496237952
 51
242.947617354010589
  0
ARC
  5
F129
  8
0
 10
4160.6442673581395866
 20
249.9880432693555861
 30
0.0
 40
0.0945892540384408
 50
247.8283136368771977
 51
300.8081639484582865
  0
ARC
  5
F12A
  8
0
 10
4160.6690572258257816
 20
249.9444425725604049
 30
0.0
 40
0.044456821179572
 50
302.1474333812096233
 51
350.5603784255911819
  0
LINE
  5
F12B
  8
0
 10
4160.7129120563631659
 20
249.9371512909258968
 30
0.0
 11
4160.7172911716370436
 21
249.9573148040298065
 31
0.0
  0
ARC
  5
F12C
  8
0
 10
4160.667209990637275
 20
249.9598306106911991
 30
0.0
 40
0.0501443314197459
 50
357.12418849741141
 51
58.5163557363828204
  0
ARC
  5
F12D
  8
0
 10
4160.6295481971619665
 20
249.9121984407013031
 30
0.0
 40
0.1106707662852213
 50
54.7646885167634494
 51
93.8340058378026782
  0
ARC
  5
F12E
  8
0
 10
4160.6224712064904452
 20
249.9614441740355062
 30
0.0
 40
0.0611782005019706
 50
90.3026267952156303
 51
142.0704473524639013
  0
ARC
  5
F12F
  8
0
 10
4160.6052182660341714
 20
249.9809179553168121
 30
0.0
 40
0.0359154315365556
 50
149.6784733902680955
 51
188.6836147484966091
  0
LINE
  5
F130
  8
0
 10
4160.5697145293734138
 20
249.9754955106986074
 30
0.0
 11
4160.5757135276980989
 21
249.9416985803466957
 31
0.0
  0
ARC
  5
F131
  8
0
 10
4160.6266092972482511
 20
249.9477078127312097
 30
0.0
 40
0.0512492949402101
 50
135.0702273456834916
 51
186.7337029968875015
  0
ARC
  5
F132
  8
0
 10
4160.643905678610281
 20
249.9262462132170981
 30
0.0
 40
0.0787080853961828
 50
40.0188362771090382
 51
132.9012516936076906
  0
ARC
  5
F133
  8
0
 10
4160.6609317674592603
 20
249.9465372739954887
 30
0.0
 40
0.0528208965833013
 50
349.76450009839931
 51
35.0324742228658366
  0
ARC
  5
F134
  8
0
 10
4160.9526580412548356
 20
249.7747793745751039
 30
0.0
 40
0.0163075007463187
 50
142.4003049456366057
 51
227.5678532144139865
  0
ARC
  5
F135
  8
0
 10
4160.9597882878661039
 20
249.7824028531057934
 30
0.0
 40
0.0267453745575686
 50
227.3129593846898899
 51
322.4076685101533144
  0
ARC
  5
F136
  8
0
 10
4160.9676970966502267
 20
249.7748362300955023
 30
0.0
 40
0.0159058808929741
 50
326.629246607397306
 51
26.22291215294781
  0
ARC
  5
F137
  8
0
 10
4160.95979256802093
 20
249.7676825169756114
 30
0.0
 40
0.0263208626621462
 50
32.6027063427978305
 51
139.6352736375575887
  0
ARC
  5
F138
  8
0
 10
4160.9536954586401407
 20
249.7945349034737887
 30
0.0
 40
0.0638081396161144
 50
194.1296011496237952
 51
242.947617354010589
  0
ARC
  5
F139
  8
0
 10
4160.9603715993143851
 20
249.8253030013842988
 30
0.0
 40
0.0945892540384408
 50
247.8283136368771977
 51
300.8081639484582865
  0
ARC
  5
F13A
  8
0
 10
4160.9851614669987612
 20
249.7817023045890892
 30
0.0
 40
0.044456821179572
 50
302.1474333812096233
 51
350.5603784255911819
  0
LINE
  5
F13B
  8
0
 10
4161.0290162975352359
 20
249.7744110229544958
 30
0.0
 11
4161.0333954128100231
 21
249.7945745360586045
 31
0.0
  0
ARC
  5
F13C
  8
0
 10
4160.9833142318093451
 20
249.7970903427199971
 30
0.0
 40
0.0501443314197459
 50
357.12418849741141
 51
58.5163557363828204
  0
ARC
  5
F13D
  8
0
 10
4160.9456524383349461
 20
249.7494581727301011
 30
0.0
 40
0.1106707662852213
 50
54.7646885167634494
 51
93.8340058378026782
  0
ARC
  5
F13E
  8
0
 10
4160.9385754476634247
 20
249.7987039060641905
 30
0.0
 40
0.0611782005019706
 50
90.3026267952156303
 51
142.0704473524639013
  0
ARC
  5
F13F
  8
0
 10
4160.9213225072053319
 20
249.8181776873454965
 30
0.0
 40
0.0359154315365556
 50
149.6784733902680955
 51
188.6836147484966091
  0
LINE
  5
F140
  8
0
 10
4160.8858187705463934
 20
249.8127552427272917
 30
0.0
 11
4160.8918177688719879
 21
249.7789583123754085
 31
0.0
  0
ARC
  5
F141
  8
0
 10
4160.9427135384212306
 20
249.7849675447600077
 30
0.0
 40
0.0512492949402101
 50
135.0702273456834916
 51
186.7337029968875015
  0
ARC
  5
F142
  8
0
 10
4160.9600099197823511
 20
249.7635059452458108
 30
0.0
 40
0.0787080853961828
 50
40.0188362771090382
 51
132.9012516936076906
  0
ARC
  5
F143
  8
0
 10
4160.9770360086313303
 20
249.7837970060242014
 30
0.0
 40
0.0528208965833013
 50
349.76450009839931
 51
35.0324742228658366
  0
ARC
  5
F144
  8
0
 10
4160.8792133439810641
 20
249.4666436196939969
 30
0.0
 40
0.0163075007463187
 50
142.4003049456366057
 51
227.5678532144139865
  0
ARC
  5
F145
  8
0
 10
4160.8863435905923325
 20
249.4742670982248001
 30
0.0
 40
0.0267453745575686
 50
227.3129593846898899
 51
322.4076685101533144
  0
ARC
  5
F146
  8
0
 10
4160.8942523993782743
 20
249.4667004752143953
 30
0.0
 40
0.0159058808929741
 50
326.629246607397306
 51
26.22291215294781
  0
ARC
  5
F147
  8
0
 10
4160.8863478707462491
 20
249.4595467620945897
 30
0.0
 40
0.0263208626621462
 50
32.6027063427978305
 51
139.6352736375575887
  0
ARC
  5
F148
  8
0
 10
4160.8802507613663693
 20
249.4863991485927954
 30
0.0
 40
0.0638081396161144
 50
194.1296011496237952
 51
242.947617354010589
  0
ARC
  5
F149
  8
0
 10
4160.8869269020397041
 20
249.5171672465033055
 30
0.0
 40
0.0945892540384408
 50
247.8283136368771977
 51
300.8081639484582865
  0
ARC
  5
F14A
  8
0
 10
4160.9117167697240802
 20
249.4735665497080959
 30
0.0
 40
0.044456821179572
 50
302.1474333812096233
 51
350.5603784255911819
  0
LINE
  5
F14B
  8
0
 10
4160.9555716002632835
 20
249.4662752680735025
 30
0.0
 11
4160.9599507155362517
 21
249.4864387811774975
 31
0.0
  0
ARC
  5
F14C
  8
0
 10
4160.9098695345355736
 20
249.4889545878388901
 30
0.0
 40
0.0501443314197459
 50
357.12418849741141
 51
58.5163557363828204
  0
ARC
  5
F14D
  8
0
 10
4160.8722077410611746
 20
249.4413224178489941
 30
0.0
 40
0.1106707662852213
 50
54.7646885167634494
 51
93.8340058378026782
  0
ARC
  5
F14E
  8
0
 10
4160.8651307503896533
 20
249.4905681511831972
 30
0.0
 40
0.0611782005019706
 50
90.3026267952156303
 51
142.0704473524639013
  0
ARC
  5
F14F
  8
0
 10
4160.8478778099315605
 20
249.5100419324645031
 30
0.0
 40
0.0359154315365556
 50
149.6784733902680955
 51
188.6836147484966091
  0
LINE
  5
F150
  8
0
 10
4160.8123740732717124
 20
249.5046194878462984
 30
0.0
 11
4160.8183730715982165
 21
249.4708225574943867
 31
0.0
  0
ARC
  5
F151
  8
0
 10
4160.8692688411465497
 20
249.4768317898789007
 30
0.0
 40
0.0512492949402101
 50
135.0702273456834916
 51
186.7337029968875015
  0
ARC
  5
F152
  8
0
 10
4160.8865652225076701
 20
249.4553701903647891
 30
0.0
 40
0.0787080853961828
 50
40.0188362771090382
 51
132.9012516936076906
  0
ARC
  5
F153
  8
0
 10
4160.9035913113593779
 20
249.4756612511430944
 30
0.0
 40
0.0528208965833013
 50
349.76450009839931
 51
35.0324742228658366
  0
ARC
  5
F154
  8
0
 10
4161.0767770416332496
 20
250.0791636248474958
 30
0.0
 40
0.0163075007463187
 50
142.4003049456366057
 51
227.5678532144139865
  0
ARC
  5
F155
  8
0
 10
4161.0839072882454275
 20
250.0867871033782137
 30
0.0
 40
0.0267453745575686
 50
227.3129593846898899
 51
322.4076685101533144
  0
ARC
  5
F156
  8
0
 10
4161.0918160970295503
 20
250.0792204803678942
 30
0.0
 40
0.0159058808929741
 50
326.629246607397306
 51
26.22291215294781
  0
ARC
  5
F157
  8
0
 10
4161.0839115683993441
 20
250.0720667672480033
 30
0.0
 40
0.0263208626621462
 50
32.6027063427978305
 51
139.6352736375575887
  0
ARC
  5
F158
  8
0
 10
4161.0778144590185548
 20
250.0989191537462091
 30
0.0
 40
0.0638081396161144
 50
194.1296011496237952
 51
242.947617354010589
  0
ARC
  5
F159
  8
0
 10
4161.0844905996918897
 20
250.1296872516566907
 30
0.0
 40
0.0945892540384408
 50
247.8283136368771977
 51
300.8081639484582865
  0
ARC
  5
F15A
  8
0
 10
4161.1092804673771752
 20
250.0860865548615948
 30
0.0
 40
0.044456821179572
 50
302.1474333812096233
 51
350.5603784255911819
  0
LINE
  5
F15B
  8
0
 10
4161.15313529791365
 20
250.0787952732270014
 30
0.0
 11
4161.1575144131884372
 21
250.0989587863309964
 31
0.0
  0
ARC
  5
F15C
  8
0
 10
4161.0915562393038272
 20
250.1077949403459968
 30
0.0
 40
0.0665474140741958
 50
352.3697425275735782
 51
45.3749252587115208
  0
ARC
  5
F15D
  8
0
 10
4161.0833749838620861
 20
250.102987377046901
 30
0.0
 40
0.0757555749814085
 50
43.5249300939027108
 51
107.7463210184128997
  0
ARC
  5
F15E
  8
0
 10
4161.0832697653813739
 20
250.0968123940475039
 30
0.0
 40
0.0816287273726788
 50
106.3547475781813034
 51
147.4813251316575133
  0
ARC
  5
F15F
  8
0
 10
4161.045441507583746
 20
250.1225619376178884
 30
0.0
 40
0.0359154315365556
 50
149.6784733902680955
 51
188.6836147484966091
  0
LINE
  5
F160
  8
0
 10
4161.0099377709238979
 20
250.1171394929997973
 30
0.0
 11
4161.015936769250402
 21
250.0833425626478004
 31
0.0
  0
ARC
  5
F161
  8
0
 10
4161.0668325387987352
 20
250.089351795032286
 30
0.0
 40
0.0512492949402101
 50
135.0702273456834916
 51
186.7337029968875015
  0
ARC
  5
F162
  8
0
 10
4161.0841289201607651
 20
250.067890195518288
 30
0.0
 40
0.0787080853961828
 50
40.0188362771090382
 51
132.9012516936076906
  0
ARC
  5
F163
  8
0
 10
4161.1011550090097444
 20
250.0881812562965933
 30
0.0
 40
0.0528208965833013
 50
349.76450009839931
 51
35.0324742228658366
  0
ARC
  5
F164
  8
0
 10
4161.3474825452658479
 20
249.8557902576914103
 30
0.0
 40
0.0163075007463187
 50
142.4003049456366057
 51
227.5678532144139865
  0
ARC
  5
F165
  8
0
 10
4161.3546127918771163
 20
249.8634137362220997
 30
0.0
 40
0.0267453745575686
 50
227.3129593846898899
 51
322.4076685101533144
  0
ARC
  5
F166
  8
0
 10
4161.3625216006639675
 20
249.8558471132118086
 30
0.0
 40
0.0159058808929741
 50
326.629246607397306
 51
26.22291215294781
  0
ARC
  5
F167
  8
0
 10
4161.3546170720337614
 20
249.8486934000918893
 30
0.0
 40
0.0263208626621462
 50
32.6027063427978305
 51
139.6352736375575887
  0
ARC
  5
F168
  8
0
 10
4161.348519962652972
 20
249.8755457865900951
 30
0.0
 40
0.0638081396161144
 50
194.1296011496237952
 51
242.947617354010589
  0
ARC
  5
F169
  8
0
 10
4161.3551961033263069
 20
249.9063138845006051
 30
0.0
 40
0.0945892540384408
 50
247.8283136368771977
 51
300.8081639484582865
  0
ARC
  5
F16A
  8
0
 10
4161.3799859710097735
 20
249.8627131877053955
 30
0.0
 40
0.044456821179572
 50
302.1474333812096233
 51
350.5603784255911819
  0
LINE
  5
F16B
  8
0
 10
4161.4238408015489767
 20
249.8554219060708874
 30
0.0
 11
4161.4282199168219449
 21
249.8755854191749108
 31
0.0
  0
ARC
  5
F16C
  8
0
 10
4161.3622617429373349
 20
249.8844215731899112
 30
0.0
 40
0.0665474140741958
 50
352.3697425275735782
 51
45.3749252587115208
  0
ARC
  5
F16D
  8
0
 10
4161.3540804874955938
 20
249.879614009890787
 30
0.0
 40
0.0757555749814085
 50
43.5249300939027108
 51
107.7463210184128997
  0
ARC
  5
F16E
  8
0
 10
4161.3539752690139721
 20
249.8734390268913046
 30
0.0
 40
0.0816287273726788
 50
106.3547475781813034
 51
147.4813251316575133
  0
ARC
  5
F16F
  8
0
 10
4161.3161470112190727
 20
249.8991885704618028
 30
0.0
 40
0.0359154315365556
 50
149.6784733902680955
 51
188.6836147484966091
  0
LINE
  5
F170
  8
0
 10
4161.2806432745583152
 20
249.8937661258437117
 30
0.0
 11
4161.2866422728848192
 21
249.8599691954916864
 31
0.0
  0
ARC
  5
F171
  8
0
 10
4161.3375380424340619
 20
249.8659784278763141
 30
0.0
 40
0.0512492949402101
 50
135.0702273456834916
 51
186.7337029968875015
  0
ARC
  5
F172
  8
0
 10
4161.3548344237960919
 20
249.8445168283620887
 30
0.0
 40
0.0787080853961828
 50
40.0188362771090382
 51
132.9012516936076906
  0
ARC
  5
F173
  8
0
 10
4161.3718605126441616
 20
249.8648078891405078
 30
0.0
 40
0.0528208965833013
 50
349.76450009839931
 51
35.0324742228658366
  0
ARC
  5
F174
  8
0
 10
4161.2088823604817662
 20
249.5749638891367113
 30
0.0
 40
0.0163075007463187
 50
142.4003049456366057
 51
227.5678532144139865
  0
ARC
  5
F175
  8
0
 10
4161.2160126070939441
 20
249.5825873676674007
 30
0.0
 40
0.0267453745575686
 50
227.3129593846898899
 51
322.4076685101533144
  0
ARC
  5
F176
  8
0
 10
4161.2239214158798859
 20
249.5750207446571096
 30
0.0
 40
0.0159058808929741
 50
326.629246607397306
 51
26.22291215294781
  0
ARC
  5
F177
  8
0
 10
4161.2160168872496797
 20
249.5678670315371903
 30
0.0
 40
0.0263208626621462
 50
32.6027063427978305
 51
139.6352736375575887
  0
ARC
  5
F178
  8
0
 10
4161.2099197778679809
 20
249.5947194180353961
 30
0.0
 40
0.0638081396161144
 50
194.1296011496237952
 51
242.947617354010589
  0
ARC
  5
F179
  8
0
 10
4161.2165959185413158
 20
249.6254875159459061
 30
0.0
 40
0.0945892540384408
 50
247.8283136368771977
 51
300.8081639484582865
  0
ARC
  5
F17A
  8
0
 10
4161.2413857862256918
 20
249.5818868191508102
 30
0.0
 40
0.044456821179572
 50
302.1474333812096233
 51
350.5603784255911819
  0
LINE
  5
F17B
  8
0
 10
4161.2852406167648951
 20
249.5745955375161884
 30
0.0
 11
4161.2896197320378633
 21
249.5947590506202118
 31
0.0
  0
ARC
  5
F17C
  8
0
 10
4161.2236615581523438
 20
249.6035952046352122
 30
0.0
 40
0.0665474140741958
 50
352.3697425275735782
 51
45.3749252587115208
  0
ARC
  5
F17D
  8
0
 10
4161.2154803027124217
 20
249.598787641336088
 30
0.0
 40
0.0757555749814085
 50
43.5249300939027108
 51
107.7463210184128997
  0
ARC
  5
F17E
  8
0
 10
4161.2153750842308
 20
249.5926126583366909
 30
0.0
 40
0.0816287273726788
 50
106.3547475781813034
 51
147.4813251316575133
  0
ARC
  5
F17F
  8
0
 10
4161.1775468264340816
 20
249.618362201907189
 30
0.0
 40
0.0359154315365556
 50
149.6784733902680955
 51
188.6836147484966091
  0
LINE
  5
F180
  8
0
 10
4161.1420430897742335
 20
249.6129397572890127
 30
0.0
 11
4161.1480420880998281
 21
249.5791428269369874
 31
0.0
  0
ARC
  5
F181
  8
0
 10
4161.1989378576499803
 20
249.5851520593215866
 30
0.0
 40
0.0512492949402101
 50
135.0702273456834916
 51
186.7337029968875015
  0
ARC
  5
F182
  8
0
 10
4161.2162342390111007
 20
249.5636904598075034
 30
0.0
 40
0.0787080853961828
 50
40.0188362771090382
 51
132.9012516936076906
  0
ARC
  5
F183
  8
0
 10
4161.23326032786008
 20
249.5839815205858088
 30
0.0
 40
0.0528208965833013
 50
349.76450009839931
 51
35.0324742228658366
  0
ARC
  5
F184
  8
0
 10
4161.2032275339579428
 20
247.4796618872308045
 30
0.0
 40
0.0163075007463187
 50
142.4003049456366057
 51
227.5678532144139865
  0
ARC
  5
F185
  8
0
 10
4161.2103577805692112
 20
247.4872853657614939
 30
0.0
 40
0.0267453745575686
 50
227.3129593846898899
 51
322.4076685101533144
  0
ARC
  5
F186
  8
0
 10
4161.2182665893542435
 20
247.4797187427510892
 30
0.0
 40
0.0159058808929741
 50
326.629246607397306
 51
26.22291215294781
  0
ARC
  5
F187
  8
0
 10
4161.2103620607249468
 20
247.472565029631312
 30
0.0
 40
0.0263208626621462
 50
32.6027063427978305
 51
139.6352736375575887
  0
ARC
  5
F188
  8
0
 10
4161.2042649513441575
 20
247.4994174161294893
 30
0.0
 40
0.0638081396161144
 50
194.1296011496237952
 51
242.947617354010589
  0
ARC
  5
F189
  8
0
 10
4161.2109410920184018
 20
247.5301855140399994
 30
0.0
 40
0.0945892540384408
 50
247.8283136368771977
 51
300.8081639484582865
  0
ARC
  5
F18A
  8
0
 10
4161.2357309597018684
 20
247.4865848172447897
 30
0.0
 40
0.044456821179572
 50
302.1474333812096233
 51
350.5603784255911819
  0
LINE
  5
F18B
  8
0
 10
4161.2795857902401622
 20
247.4792935356101964
 30
0.0
 11
4161.2839649055131304
 21
247.4994570487141914
 31
0.0
  0
ARC
  5
F18C
  8
0
 10
4161.2338837245133618
 20
247.5019728553756124
 30
0.0
 40
0.0501443314197459
 50
357.12418849741141
 51
58.5163557363828204
  0
ARC
  5
F18D
  8
0
 10
4161.1962219310380533
 20
247.4543406853856879
 30
0.0
 40
0.1106707662852213
 50
54.7646885167634494
 51
93.8340058378026782
  0
ARC
  5
F18E
  8
0
 10
4161.1891449403656225
 20
247.5035864187198911
 30
0.0
 40
0.0611782005019706
 50
90.3026267952156303
 51
142.0704473524639013
  0
ARC
  5
F18F
  8
0
 10
4161.1718919999102582
 20
247.523060200001197
 30
0.0
 40
0.0359154315365556
 50
149.6784733902680955
 51
188.6836147484966091
  0
LINE
  5
F190
  8
0
 10
4161.1363882632485911
 20
247.5176377553829923
 30
0.0
 11
4161.1423872615760047
 21
247.483840825031109
 31
0.0
  0
ARC
  5
F191
  8
0
 10
4161.1932830311252474
 20
247.4898500574155946
 30
0.0
 40
0.0512492949402101
 50
135.0702273456834916
 51
186.7337029968875015
  0
ARC
  5
F192
  8
0
 10
4161.2105794124863678
 20
247.4683884579015114
 30
0.0
 40
0.0787080853961828
 50
40.0188362771090382
 51
132.9012516936076906
  0
ARC
  5
F193
  8
0
 10
4161.2276055013353471
 20
247.488679518679902
 30
0.0
 40
0.0528208965833013
 50
349.76450009839931
 51
35.0324742228658366
  0
ARC
  5
F194
  8
0
 10
4161.1483423953350211
 20
247.2905786226866951
 30
0.0
 40
0.0163075007463187
 50
142.4003049456366057
 51
227.5678532144139865
  0
ARC
  5
F195
  8
0
 10
4161.1554726419462895
 20
247.298202101217413
 30
0.0
 40
0.0267453745575686
 50
227.3129593846898899
 51
322.4076685101533144
  0
ARC
  5
F196
  8
0
 10
4161.1633814507322313
 20
247.2906354782070082
 30
0.0
 40
0.0159058808929741
 50
326.629246607397306
 51
26.22291215294781
  0
ARC
  5
F197
  8
0
 10
4161.1554769221020251
 20
247.2834817650872026
 30
0.0
 40
0.0263208626621462
 50
32.6027063427978305
 51
139.6352736375575887
  0
ARC
  5
F198
  8
0
 10
4161.1493798127212358
 20
247.3103341515854083
 30
0.0
 40
0.0638081396161144
 50
194.1296011496237952
 51
242.947617354010589
  0
ARC
  5
F199
  8
0
 10
4161.1560559533936612
 20
247.34110224949589
 30
0.0
 40
0.0945892540384408
 50
247.8283136368771977
 51
300.8081639484582865
  0
ARC
  5
F19A
  8
0
 10
4161.1808458210798563
 20
247.2975015527007088
 30
0.0
 40
0.044456821179572
 50
302.1474333812096233
 51
350.5603784255911819
  0
LINE
  5
F19B
  8
0
 10
4161.2247006516172405
 20
247.2902102710662007
 30
0.0
 11
4161.2290797668911182
 21
247.3103737841701957
 31
0.0
  0
ARC
  5
F19C
  8
0
 10
4161.1789985858904402
 20
247.312889590831503
 30
0.0
 40
0.0501443314197459
 50
357.12418849741141
 51
58.5163557363828204
  0
ARC
  5
F19D
  8
0
 10
4161.1413367924160411
 20
247.265257420841607
 30
0.0
 40
0.1106707662852213
 50
54.7646885167634494
 51
93.8340058378026782
  0
ARC
  5
F19E
  8
0
 10
4161.1342598017436103
 20
247.3145031541758101
 30
0.0
 40
0.0611782005019706
 50
90.3026267952156303
 51
142.0704473524639013
  0
ARC
  5
F19F
  8
0
 10
4161.1170068612873365
 20
247.3339769354570876
 30
0.0
 40
0.0359154315365556
 50
149.6784733902680955
 51
188.6836147484966091
  0
LINE
  5
F1A0
  8
0
 10
4161.0815031246265789
 20
247.3285544908389113
 30
0.0
 11
4161.087502122953083
 21
247.294757560486886
 31
0.0
  0
ARC
  5
F1A1
  8
0
 10
4161.1383978925032352
 20
247.3007667928715136
 30
0.0
 40
0.0512492949402101
 50
135.0702273456834916
 51
186.7337029968875015
  0
ARC
  5
F1A2
  8
0
 10
4161.1556942738643556
 20
247.279305193357402
 30
0.0
 40
0.0787080853961828
 50
40.0188362771090382
 51
132.9012516936076906
  0
ARC
  5
F1A3
  8
0
 10
4161.1727203627133349
 20
247.2995962541357926
 30
0.0
 40
0.0528208965833013
 50
349.76450009839931
 51
35.0324742228658366
  0
ARC
  5
F1A4
  8
0
 10
4161.3091669357818319
 20
247.0743654069366926
 30
0.0
 40
0.0163075007463187
 50
142.4003049456366057
 51
227.5678532144139865
  0
ARC
  5
F1A5
  8
0
 10
4161.3162971823940097
 20
247.0819888854674957
 30
0.0
 40
0.0267453745575686
 50
227.3129593846898899
 51
322.4076685101533144
  0
ARC
  5
F1A6
  8
0
 10
4161.3242059911799515
 20
247.0744222624570909
 30
0.0
 40
0.0159058808929741
 50
326.629246607397306
 51
26.22291215294781
  0
ARC
  5
F1A7
  8
0
 10
4161.3163014625497453
 20
247.0672685493373137
 30
0.0
 40
0.0263208626621462
 50
32.6027063427978305
 51
139.6352736375575887
  0
ARC
  5
F1A8
  8
0
 10
4161.3102043531680465
 20
247.0941209358354058
 30
0.0
 40
0.0638081396161144
 50
194.1296011496237952
 51
242.947617354010589
  0
ARC
  5
F1A9
  8
0
 10
4161.3168804938413814
 20
247.1248890337458874
 30
0.0
 40
0.0945892540384408
 50
247.8283136368771977
 51
300.8081639484582865
  0
ARC
  5
F1AA
  8
0
 10
4161.3416703615257575
 20
247.0812883369507915
 30
0.0
 40
0.044456821179572
 50
302.1474333812096233
 51
350.5603784255911819
  0
LINE
  5
F1AB
  8
0
 10
4161.3855251920649607
 20
247.0739970553161982
 30
0.0
 11
4161.3899043073379289
 21
247.0941605684201932
 31
0.0
  0
ARC
  5
F1AC
  8
0
 10
4161.3398231263381604
 20
247.0966763750816142
 30
0.0
 40
0.0501443314197459
 50
357.12418849741141
 51
58.5163557363828204
  0
ARC
  5
F1AD
  8
0
 10
4161.3021613328619424
 20
247.0490442050916897
 30
0.0
 40
0.1106707662852213
 50
54.7646885167634494
 51
93.8340058378026782
  0
ARC
  5
F1AE
  8
0
 10
4161.2950843421913305
 20
247.0982899384258928
 30
0.0
 40
0.0611782005019706
 50
90.3026267952156303
 51
142.0704473524639013
  0
ARC
  5
F1AF
  8
0
 10
4161.2778314017341472
 20
247.1177637197071988
 30
0.0
 40
0.0359154315365556
 50
149.6784733902680955
 51
188.6836147484966091
  0
LINE
  5
F1B0
  8
0
 10
4161.2423276650742991
 20
247.1123412750889941
 30
0.0
 11
4161.2483266633998937
 21
247.0785443447371108
 31
0.0
  0
ARC
  5
F1B1
  8
0
 10
4161.2992224329500459
 20
247.0845535771215964
 30
0.0
 40
0.0512492949402101
 50
135.0702273456834916
 51
186.7337029968875015
  0
ARC
  5
F1B2
  8
0
 10
4161.3165188143111664
 20
247.0630919776075132
 30
0.0
 40
0.0787080853961828
 50
40.0188362771090382
 51
132.9012516936076906
  0
ARC
  5
F1B3
  8
0
 10
4161.3335449031601456
 20
247.0833830383857901
 30
0.0
 40
0.0528208965833013
 50
349.76450009839931
 51
35.0324742228658366
  0
ARC
  5
F1B4
  8
0
 10
4161.4839638834746438
 20
248.4413163734012073
 30
0.0
 40
0.1930069620831833
 50
119.9109298242323973
 51
220.4093686186085961
  0
ARC
  5
F1B5
  8
0
 10
4176.5864514579880051
 20
245.0650267761884891
 30
0.0
 40
15.6521638436268002
 50
173.4906567662667953
 51
179.7390058377255002
  0
ARC
  5
F1B6
  8
0
 10
4178.0133091290563243
 20
245.3723809052717115
 30
0.0
 40
17.0804903677279398
 50
180.7918634322213052
 51
187.7536014399807982
  0
ARC
  5
F1B7
  8
0
 10
4159.4460695208499601
 20
242.8062625939080874
 30
0.0
 40
1.663627042729938
 50
358.7717381557092722
 51
9.0518154642436564
  0
ARC
  5
F1B8
  8
0
 10
4161.1814312150227124
 20
242.569579071765304
 30
0.0
 40
0.213567281263567
 50
109.7354476750825967
 51
184.1349976407730935
  0
ARC
  5
F1B9
  8
0
 10
4161.2422008097828439
 20
242.6600236738464105
 30
0.0
 40
0.2935285453481649
 50
201.136596346610105
 51
255.6565581181650089
  0
ARC
  5
F1BA
  8
0
 10
4161.0775010678089529
 20
242.4654194120371073
 30
0.0
 40
0.0961547421731392
 50
153.8244773767451932
 51
174.1516353152150032
  0
LINE
  5
F1BB
  8
0
 10
4160.981846806217618
 20
242.4752172016802092
 30
0.0
 11
4160.9805552859415911
 21
241.6315151558233936
 31
0.0
  0
ARC
  5
F1BC
  8
0
 10
4161.2072631216487935
 20
241.7040402564915951
 30
0.0
 40
0.2380259082484819
 50
197.7397639059655887
 51
261.6990943284583864
  0
ARC
  5
F1BD
  8
0
 10
4161.1869610013045531
 20
241.4943126105468991
 30
0.0
 40
0.0293874091206042
 50
241.4119793927411024
 51
0.6637847053564532
  0
LINE
  5
F1BE
  8
0
 10
4161.2163464382929305
 20
241.4946530627846073
 30
0.0
 11
4161.2166695242958667
 21
242.3290639160398996
 31
0.0
  0
ARC
  5
F1BF
  8
0
 10
4161.1780441230675933
 20
242.3174159090922899
 30
0.0
 40
0.0403434962028682
 50
16.7813883440602396
 51
78.1242118095087932
  0
ARC
  5
F1C0
  8
0
 10
4161.2658731411238477
 20
242.6778727216486971
 30
0.0
 40
0.3306820527784764
 50
212.6765842239144888
 51
256.0843634333728005
  0
ARC
  5
F1C1
  8
0
 10
4161.5201120898736917
 20
247.1307770802083041
 30
0.0
 40
0.0444683327100375
 50
96.5869502489475877
 51
188.7261225396638054
  0
ARC
  5
F1C2
  8
0
 10
4198.1915695191701161
 20
246.9428555114052983
 30
0.0
 40
36.7158580423379703
 50
179.7172715636529858
 51
180.7603779011571987
  0
ARC
  5
F1C3
  8
0
 10
4161.5191061927871488
 20
246.4555993928132125
 30
0.0
 40
0.0401615289116891
 50
179.9847728326826086
 51
269.5756276110475937
  0
ARC
  5
F1C4
  8
0
 10
4161.4514429892797125
 20
246.8756581304637905
 30
0.0
 40
0.0291021835647095
 50
33.3703876274160578
 51
82.1743831276470331
  0
LINE
  5
F1C5
  8
0
 10
4161.5938841452943961
 20
246.4154389655099067
 30
0.0
 11
4161.518808731293575
 21
246.4154389655099067
 31
0.0
  0
LINE
  5
F1C6
  8
0
 10
4161.5150110875929386
 20
247.1749518738099027
 30
0.0
 11
4161.5976817889941231
 21
247.1749518738099027
 31
0.0
  0
ARC
  5
F1C7
  8
0
 10
4160.6028307883289017
 20
249.2935365596343047
 30
0.0
 40
0.0163075007463187
 50
142.4003049456366057
 51
227.5678532144139865
  0
ARC
  5
F1C8
  8
0
 10
4160.6099610349401701
 20
249.3011600381651078
 30
0.0
 40
0.0267453745575686
 50
227.3129593846898899
 51
322.4076685101533144
  0
ARC
  5
F1C9
  8
0
 10
4160.6178698437261119
 20
249.2935934151547031
 30
0.0
 40
0.0159058808929741
 50
326.629246607397306
 51
26.22291215294781
  0
ARC
  5
F1CA
  8
0
 10
4160.6099653150959057
 20
249.2864397020348974
 30
0.0
 40
0.0263208626621462
 50
32.6027063427978305
 51
139.6352736375575887
  0
ARC
  5
F1CB
  8
0
 10
4160.6038682057142069
 20
249.3132920885329895
 30
0.0
 40
0.0638081396161144
 50
194.1296011496237952
 51
242.947617354010589
  0
ARC
  5
F1CC
  8
0
 10
4160.6105443463866322
 20
249.3440601864436132
 30
0.0
 40
0.0945892540384408
 50
247.8283136368771977
 51
300.8081639484582865
  0
ARC
  5
F1CD
  8
0
 10
4160.6353342140728273
 20
249.3004594896484036
 30
0.0
 40
0.044456821179572
 50
302.1474333812096233
 51
350.5603784255911819
  0
LINE
  5
F1CE
  8
0
 10
4160.6791890446111211
 20
249.2931682080138103
 30
0.0
 11
4160.6835681598849987
 21
249.3133317211178053
 31
0.0
  0
ARC
  5
F1CF
  8
0
 10
4160.6334869788843207
 20
249.3158475277791979
 30
0.0
 40
0.0501443314197459
 50
357.12418849741141
 51
58.5163557363828204
  0
ARC
  5
F1D0
  8
0
 10
4160.5958251854090122
 20
249.2682153577893018
 30
0.0
 40
0.1106707662852213
 50
54.7646885167634494
 51
93.8340058378026782
  0
ARC
  5
F1D1
  8
0
 10
4160.5887481947365814
 20
249.317461091123505
 30
0.0
 40
0.0611782005019706
 50
90.3026267952156303
 51
142.0704473524639013
  0
ARC
  5
F1D2
  8
0
 10
4160.5714952542803076
 20
249.3369348724048109
 30
0.0
 40
0.0359154315365556
 50
149.6784733902680955
 51
188.6836147484966091
  0
LINE
  5
F1D3
  8
0
 10
4160.535991517621369
 20
249.3315124277866062
 30
0.0
 11
4160.5419905159469636
 21
249.2977154974346945
 31
0.0
  0
ARC
  5
F1D4
  8
0
 10
4160.5928862854952968
 20
249.3037247298192085
 30
0.0
 40
0.0512492949402101
 50
135.0702273456834916
 51
186.7337029968875015
  0
ARC
  5
F1D5
  8
0
 10
4160.6101826668564172
 20
249.2822631303050969
 30
0.0
 40
0.0787080853961828
 50
40.0188362771090382
 51
132.9012516936076906
  0
ARC
  5
F1D6
  8
0
 10
4160.627208755706306
 20
249.3025541910834875
 30
0.0
 40
0.0528208965833013
 50
349.76450009839931
 51
35.0324742228658366
  0
ARC
  5
F1D7
  8
0
 10
4161.5563464382939856
 20
248.3985850343669881
 30
0.0
 40
2.6443347589386512
 50
77.5404369112532379
 51
102.4595630887467053
  0
ARC
  5
F1D8
  8
0
 10
4161.5563464382939856
 20
247.7593596999020065
 30
0.0
 40
2.7097114420100881
 50
76.5992278687240571
 51
103.4007721312759003
  0
ARC
  5
F1D9
  8
0
 10
4161.5563464382939856
 20
247.7652673785709965
 30
0.0
 40
2.6882830425562192
 50
77.7131770082865359
 51
102.2868229917133931
  0
ARC
  5
F1DA
  8
0
 10
4161.5563464382939856
 20
248.0820326301318914
 30
0.0
 40
1.3066373637058251
 50
59.0936738247815825
 51
120.9063261752183962
  0
ARC
  5
F1DB
  8
0
 10
4161.5563464382939856
 20
248.3426800657543936
 30
0.0
 40
0.3148907887273907
 50
57.6217301543953226
 51
122.3782698543048042
  0
ARC
  5
F1DC
  8
0
 10
4161.5563464382939856
 20
248.5375071239836871
 30
0.0
 40
0.3115902080252302
 50
225.2551265324239012
 51
314.7448734675322157
  0
ARC
  5
F1DD
  8
0
 10
4161.5563464382939856
 20
248.912717153542701
 30
0.0
 40
1.302612631127779
 50
237.7548252351012934
 51
302.2451747648977971
  0
ARC
  5
F1DE
  8
0
 10
4161.5563464382939856
 20
244.2422826415021859
 30
0.0
 40
1.906305036672618
 50
258.2911574798317247
 51
281.7088425201682753
  0
ARC
  5
F1DF
  8
0
 10
4161.5640599963526256
 20
249.6111762946146087
 30
0.0
 40
0.0163075007463187
 50
312.4321467855859282
 51
37.5996950543634014
  0
ARC
  5
F1E0
  8
0
 10
4161.5569297497422667
 20
249.6187997731454118
 30
0.0
 40
0.0267453745575686
 50
217.5923314898466003
 51
312.6870406153090016
  0
ARC
  5
F1E1
  8
0
 10
4161.5490209409563249
 20
249.611233150135007
 30
0.0
 40
0.0159058808929741
 50
153.7770878470522007
 51
213.370753392602694
  0
ARC
  5
F1E2
  8
0
 10
4161.5569254695856216
 20
249.6040794370152014
 30
0.0
 40
0.0263208626621462
 50
40.3647263624424113
 51
147.3972936572021979
  0
ARC
  5
F1E3
  8
0
 10
4161.5630225789673204
 20
249.6309318235134072
 30
0.0
 40
0.0638081396161144
 50
297.0523826459893826
 51
345.8703988503760911
  0
ARC
  5
F1E4
  8
0
 10
4161.5563464382939856
 20
249.6616999214238888
 30
0.0
 40
0.0945892540384408
 50
239.1918360515415998
 51
292.1716863631227739
  0
ARC
  5
F1E5
  8
0
 10
4161.5315565706087
 20
249.6180992246287076
 30
0.0
 40
0.044456821179572
 50
189.4396215744071981
 51
237.8525666187902914
  0
LINE
  5
F1E6
  8
0
 10
4161.4877017400713157
 20
249.6108079429940858
 30
0.0
 11
4161.483322624797438
 21
249.6309714560981945
 31
0.0
  0
ARC
  5
F1E7
  8
0
 10
4161.549280798682048
 20
249.6398076101131096
 30
0.0
 40
0.0665474140741958
 50
134.6250747412883868
 51
187.6302574724263934
  0
ARC
  5
F1E8
  8
0
 10
4161.5574620541237891
 20
249.6350000468140138
 30
0.0
 40
0.0757555749814085
 50
72.2536789815870861
 51
136.4750699060973034
  0
ARC
  5
F1E9
  8
0
 10
4161.5575672726054108
 20
249.6288250638145882
 30
0.0
 40
0.0816287273726788
 50
32.5186748683424582
 51
73.645252421818725
  0
ARC
  5
F1EA
  8
0
 10
4161.5953955304012197
 20
249.6545746073850864
 30
0.0
 40
0.0359154315365556
 50
351.3163852515016856
 51
30.3215266097318512
  0
LINE
  5
F1EB
  8
0
 10
4161.6308992670610678
 20
249.6491521627669101
 30
0.0
 11
4161.6249002687345637
 21
249.6153552324149985
 31
0.0
  0
ARC
  5
F1EC
  8
0
 10
4161.574004499185321
 20
249.6213644647995125
 30
0.0
 40
0.0512492949402101
 50
353.2662970031108216
 51
44.9297726543164728
  0
ARC
  5
F1ED
  8
0
 10
4161.5567081178242006
 20
249.5999028652854008
 30
0.0
 40
0.0787080853961828
 50
47.0987483063922525
 51
139.9811637228908978
  0
ARC
  5
F1EE
  8
0
 10
4161.5396820289752213
 20
249.6201939260637914
 30
0.0
 40
0.0528208965833013
 50
144.9675257771328063
 51
190.23549990160069
  0
ARC
  5
F1EF
  8
0
 10
4161.5640599963526256
 20
250.1267471068929922
 30
0.0
 40
0.0163075007463187
 50
312.4321467855859282
 51
37.5996950543634014
  0
ARC
  5
F1F0
  8
0
 10
4161.5569297497422667
 20
250.1343705854237953
 30
0.0
 40
0.0267453745575686
 50
217.5923314898466003
 51
312.6870406153090016
  0
ARC
  5
F1F1
  8
0
 10
4161.5490209409563249
 20
250.1268039624133905
 30
0.0
 40
0.0159058808929741
 50
153.7770878470522007
 51
213.370753392602694
  0
ARC
  5
F1F2
  8
0
 10
4161.5569254695856216
 20
250.1196502492934997
 30
0.0
 40
0.0263208626621462
 50
40.3647263624424113
 51
147.3972936572021979
  0
ARC
  5
F1F3
  8
0
 10
4161.5630225789673204
 20
250.1465026357917907
 30
0.0
 40
0.0638081396161144
 50
297.0523826459893826
 51
345.8703988503760911
  0
ARC
  5
F1F4
  8
0
 10
4161.5563464382939856
 20
250.1772707337023007
 30
0.0
 40
0.0945892540384408
 50
239.1918360515415998
 51
292.1716863631227739
  0
ARC
  5
F1F5
  8
0
 10
4161.5315565706087
 20
250.1336700369070911
 30
0.0
 40
0.044456821179572
 50
189.4396215744071981
 51
237.8525666187902914
  0
LINE
  5
F1F6
  8
0
 10
4161.4877017400713157
 20
250.1263787552724978
 30
0.0
 11
4161.483322624797438
 21
250.1465422683764928
 31
0.0
  0
ARC
  5
F1F7
  8
0
 10
4161.549280798682048
 20
250.1553784223914931
 30
0.0
 40
0.0665474140741958
 50
134.6250747412883868
 51
187.6302574724263934
  0
ARC
  5
F1F8
  8
0
 10
4161.5574620541237891
 20
250.1505708590923973
 30
0.0
 40
0.0757555749814085
 50
72.2536789815870861
 51
136.4750699060973034
  0
ARC
  5
F1F9
  8
0
 10
4161.5575672726054108
 20
250.1443958760930002
 30
0.0
 40
0.0816287273726788
 50
32.5186748683424582
 51
73.645252421818725
  0
ARC
  5
F1FA
  8
0
 10
4161.5953955304012197
 20
250.1701454196634984
 30
0.0
 40
0.0359154315365556
 50
351.3163852515016856
 51
30.3215266097318512
  0
LINE
  5
F1FB
  8
0
 10
4161.6308992670610678
 20
250.1647229750452937
 30
0.0
 11
4161.6249002687345637
 21
250.1309260446934104
 31
0.0
  0
ARC
  5
F1FC
  8
0
 10
4161.574004499185321
 20
250.136935277077896
 30
0.0
 40
0.0512492949402101
 50
353.2662970031108216
 51
44.9297726543164728
  0
ARC
  5
F1FD
  8
0
 10
4161.5567081178242006
 20
250.1154736775638128
 30
0.0
 40
0.0787080853961828
 50
47.0987483063922525
 51
139.9811637228908978
  0
ARC
  5
F1FE
  8
0
 10
4161.5396820289752213
 20
250.1357647383422034
 30
0.0
 40
0.0528208965833013
 50
144.9675257771328063
 51
190.23549990160069
  0
LINE
  5
F1FF
  8
0
 10
4161.8509697607032649
 20
241.1948942820619095
 30
0.0
 11
4161.8509697607032649
 21
201.4097066480003946
 31
0.0
  0
ARC
  5
F200
  8
0
 10
4161.5563464382439633
 20
242.2540403761296091
 30
0.0
 40
1.1456692913499991
 50
115.6392067512098976
 51
255.0982312770632063
  0
ARC
  5
F201
  8
0
 10
4161.5563464382439633
 20
242.2540403761296091
 30
0.0
 40
1.1456692913499991
 50
284.9017687229368221
 51
64.3607932435341183
  0
ARC
  5
F202
  8
0
 10
4161.5563464382439633
 20
242.2540403761296091
 30
0.0
 40
0.9177147696499989
 50
120.3705720831781036
 51
243.4717789868672924
  0
ARC
  5
F203
  8
0
 10
4161.5563464382439633
 20
242.2540403761296091
 30
0.0
 40
0.9177147696499989
 50
296.5282210131326792
 51
59.6294279101712377
  0
ARC
  5
F204
  8
0
 10
4161.5563464382439633
 20
242.2540403761296091
 30
0.0
 40
0.9040578347588148
 50
120.726818501780798
 51
242.8772756493744964
  0
ARC
  5
F205
  8
0
 10
4161.5563464382439633
 20
242.2540403761296091
 30
0.0
 40
0.9040578347588148
 50
297.1227243506255036
 51
59.2731814913776418
  0
ARC
  5
F206
  8
0
 10
4161.5563464382439633
 20
242.2540403761296091
 30
0.0
 40
0.758068738379949
 50
126.1995313691642053
 51
220.5984298263819028
  0
ARC
  5
F207
  8
0
 10
4161.5580841917289945
 20
243.0404956554112914
 30
0.0
 40
1.4434290533468821
 50
256.3072252517691254
 51
283.5508376619768001
  0
ARC
  5
F208
  8
0
 10
4161.5563464382439633
 20
242.2540403761296091
 30
0.0
 40
0.758068738379949
 50
319.4015701852194979
 51
53.800468621722203
  0
LINE
  5
F209
  8
0
 10
4161.9696015409599568
 20
241.4748278770778995
 30
0.0
 11
4161.9680661072943622
 21
241.4392370853294949
 31
0.0
  0
ARC
  5
F20A
  8
0
 10
4161.9095986605034341
 20
241.4528639930171039
 30
0.0
 40
0.0600344480061394
 50
294.2952840365347242
 51
346.8803804517759772
  0
LINE
  5
F20B
  8
0
 10
4161.9342991941939545
 20
241.3981463671294989
 30
0.0
 11
4161.9342980528936096
 21
241.2279108125295863
 31
0.0
  0
LINE
  5
F20C
  8
0
 10
4161.1430913355270604
 20
241.4748278770778995
 30
0.0
 11
4161.1446267691935645
 21
241.4392370853294949
 31
0.0
  0
ARC
  5
F20D
  8
0
 10
4161.2030942159854021
 20
241.4528639930171039
 30
0.0
 40
0.0600344480061394
 50
193.1196195482239091
 51
245.7047159634651905
  0
LINE
  5
F20E
  8
0
 10
4161.1783936822939722
 20
241.3981463671294989
 30
0.0
 11
4161.1783948235943171
 21
241.2279108125295863
 31
0.0
  0
ARC
  5
F20F
  8
0
 10
4161.5563464382439633
 20
242.0601368038279873
 30
0.0
 40
0.91402818534727
 50
245.5750441052809947
 51
294.4249558947188916
  0
ARC
  5
F210
  8
0
 10
4160.4750948803175561
 20
160.8407564345914977
 30
0.0
 40
54.5652588653835195
 50
86.1056604321831145
 51
88.5551213087664451
  0
ARC
  5
F211
  8
0
 10
4164.5091023437444164
 20
214.6949852580295044
 30
0.0
 40
0.6707672228039155
 50
11.1970913166524006
 51
348.8029086833460042
  0
ARC
  5
F212
  8
0
 10
4164.5091023437444164
 20
214.6949852580295044
 30
0.0
 40
0.7467135564051423
 50
232.6268989082284122
 51
350.0596606180033064
  0
ARC
  5
F213
  8
0
 10
4164.5091023437444164
 20
214.6949852580295044
 30
0.0
 40
0.7467135564051423
 50
9.9403393819966421
 51
127.373101091771602
  0
ARC
  5
F214
  8
0
 10
4164.5091023437444164
 20
214.6949852580295044
 30
0.0
 40
0.8564441087542622
 50
224.7885248615853016
 51
351.4754373378229957
  0
ARC
  5
F215
  8
0
 10
4164.5091023437444164
 20
214.6949852580295044
 30
0.0
 40
0.8564441087542622
 50
8.5245626621770256
 51
135.2114751384146984
  0
ARC
  5
F216
  8
0
 10
4164.5091023437444164
 20
214.6949852580295044
 30
0.0
 40
0.8858267716500023
 50
223.14468289074361
 51
351.7941635181807101
  0
ARC
  5
F217
  8
0
 10
4164.5091023437444164
 20
214.6949852580295044
 30
0.0
 40
0.8858267716500023
 50
8.2058364818193681
 51
136.85531710925639
  0
ARC
  5
F218
  8
0
 10
4164.5091023437444164
 20
214.6949852580295044
 30
0.0
 40
1.1023617217500019
 50
214.3215567195817073
 51
353.613814459129685
  0
ARC
  5
F219
  8
0
 10
4164.5091023437444164
 20
214.6949852580295044
 30
0.0
 40
1.1023617217500019
 50
6.3861855408702448
 51
145.6784432804169001
  0
CIRCLE
  5
F21A
  8
0
 10
4164.5091023437444164
 20
214.6949852580295044
 30
0.0
 40
0.2872387181350113
  0
ARC
  5
F21B
  8
0
 10
4164.5091023437444164
 20
214.6949852580295044
 30
0.0
 40
0.3543307086499983
 50
32.2868943770767203
 51
327.7131056187819809
  0
LINE
  5
F21C
  8
0
 10
4167.2515089657954377
 20
214.7888510579296053
 30
0.0
 11
4164.9054586673928497
 21
214.8298053059295967
 31
0.0
  0
ARC
  5
F21D
  8
0
 10
4164.9074996814888436
 20
214.9467241007737925
 30
0.0
 40
0.1169366081532066
 50
212.2910484820851025
 51
268.9999074384045912
  0
ARC
  5
F21E
  8
0
 10
4160.4750948803175561
 20
268.54921408146771
 30
0.0
 40
54.5652588653835195
 50
271.4448786912336118
 51
273.8943395678168145
  0
LINE
  5
F21F
  8
0
 10
4167.2515089657954377
 20
214.6011194581296024
 30
0.0
 11
4164.9054586673928497
 21
214.5601652101296111
 31
0.0
  0
ARC
  5
F220
  8
0
 10
4164.9074996814888436
 20
214.4432464152853015
 30
0.0
 40
0.1169366081532066
 50
91.0000925615954088
 51
147.7089515179148975
  0
ARC
  5
F221
  8
0
 10
4167.2498678682713944
 20
214.6949852580295044
 30
0.0
 40
0.0938801448227782
 50
271.0016255456956742
 51
88.9983744543042548
  0
LINE
  5
F222
  8
0
 10
4161.1003097110387898
 20
213.7146702974295067
 30
0.0
 11
4161.2617231157837523
 21
213.7146702974295067
 31
0.0
  0
LINE
  5
F223
  8
0
 10
4161.8509697607032649
 20
213.7146702974295067
 30
0.0
 11
4162.0123840980386376
 21
213.7146702974295067
 31
0.0
  0
LINE
  5
F224
  8
0
 10
4162.0123840980386376
 20
213.7146702974295067
 30
0.0
 11
4162.0123840980386376
 21
213.3457730653296096
 31
0.0
  0
LINE
  5
F225
  8
0
 10
4162.0123840980386376
 20
213.3457730653296096
 30
0.0
 11
4161.8509697607032649
 21
213.3457730653296096
 31
0.0
  0
LINE
  5
F226
  8
0
 10
4161.2617231157837523
 20
213.3457730653296096
 30
0.0
 11
4161.1003097110387898
 21
213.3457730653296096
 31
0.0
  0
LINE
  5
F227
  8
0
 10
4161.1003097110387898
 20
213.3457730653296096
 30
0.0
 11
4161.1003097110387898
 21
213.7146702974295067
 31
0.0
  0
LINE
  5
F228
  8
0
 10
4161.253849983739201
 20
213.3457730653296096
 30
0.0
 11
4161.253849983739201
 21
213.7146702974295067
 31
0.0
  0
LINE
  5
F229
  8
0
 10
4161.2469668707390156
 20
213.3457730653296096
 30
0.0
 11
4161.2469668707390156
 21
213.7146702974295067
 31
0.0
  0
LINE
  5
F22A
  8
0
 10
4161.2223076221380325
 20
213.3457730653296096
 30
0.0
 11
4161.2223076221380325
 21
213.7146702974295067
 31
0.0
  0
LINE
  5
F22B
  8
0
 10
4161.2178212409380649
 20
213.3457730653296096
 30
0.0
 11
4161.2178212409380649
 21
213.7146702974295067
 31
0.0
  0
LINE
  5
F22C
  8
0
 10
4161.1938840954380794
 20
213.3457730653296096
 30
0.0
 11
4161.1938840954380794
 21
213.7146702974295067
 31
0.0
  0
LINE
  5
F22D
  8
0
 10
4161.1688447862388784
 20
213.3457730653296096
 30
0.0
 11
4161.1688447862388784
 21
213.7146702974295067
 31
0.0
  0
LINE
  5
F22E
  8
0
 10
4161.147423480038924
 20
213.3457730653296096
 30
0.0
 11
4161.147423480038924
 21
213.7146702974295067
 31
0.0
  0
LINE
  5
F22F
  8
0
 10
4161.1298201815379798
 20
213.3457730653296096
 30
0.0
 11
4161.1298201815379798
 21
213.7146702974295067
 31
0.0
  0
LINE
  5
F230
  8
0
 10
4161.1161992482393543
 20
213.3457730653296096
 30
0.0
 11
4161.1161992482393543
 21
213.7146702974295067
 31
0.0
  0
LINE
  5
F231
  8
0
 10
4161.1066878549390822
 20
213.3457730653296096
 30
0.0
 11
4161.1066878549390822
 21
213.7146702974295067
 31
0.0
  0
LINE
  5
F232
  8
0
 10
4161.8588428927487257
 20
213.3457730653296096
 30
0.0
 11
4161.8588428927487257
 21
213.7146702974295067
 31
0.0
  0
LINE
  5
F233
  8
0
 10
4161.8657260057489111
 20
213.3457730653296096
 30
0.0
 11
4161.8657260057489111
 21
213.7146702974295067
 31
0.0
  0
LINE
  5
F234
  8
0
 10
4161.8903852543480753
 20
213.3457730653296096
 30
0.0
 11
4161.8903852543480753
 21
213.7146702974295067
 31
0.0
  0
LINE
  5
F235
  8
0
 10
4161.8948716355489523
 20
213.3457730653296096
 30
0.0
 11
4161.8948716355489523
 21
213.7146702974295067
 31
0.0
  0
LINE
  5
F236
  8
0
 10
4161.9188087810498473
 20
213.3457730653296096
 30
0.0
 11
4161.9188087810498473
 21
213.7146702974295067
 31
0.0
  0
LINE
  5
F237
  8
0
 10
4161.9438480902481388
 20
213.3457730653296096
 30
0.0
 11
4161.9438480902481388
 21
213.7146702974295067
 31
0.0
  0
LINE
  5
F238
  8
0
 10
4161.9652693964490027
 20
213.3457730653296096
 30
0.0
 11
4161.9652693964490027
 21
213.7146702974295067
 31
0.0
  0
LINE
  5
F239
  8
0
 10
4161.9828726949490374
 20
213.3457730653296096
 30
0.0
 11
4161.9828726949490374
 21
213.7146702974295067
 31
0.0
  0
LINE
  5
F23A
  8
0
 10
4161.9964936282485723
 20
213.3457730653296096
 30
0.0
 11
4161.9964936282485723
 21
213.7146702974295067
 31
0.0
  0
LINE
  5
F23B
  8
0
 10
4162.006005021549754
 20
213.3457730653296096
 30
0.0
 11
4162.006005021549754
 21
213.7146702974295067
 31
0.0
  0
LINE
  5
F23C
  8
0
 10
4162.0189448634437213
 20
213.8367175415295094
 30
0.0
 11
4161.8509697607032649
 21
213.8367175415295094
 31
0.0
  0
LINE
  5
F23D
  8
0
 10
4161.2617231157837523
 20
213.8367175415295094
 30
0.0
 11
4161.0937480130442054
 21
213.8367175415295094
 31
0.0
  0
LINE
  5
F23E
  8
0
 10
4161.9500353373432517
 20
213.7966474600295044
 30
0.0
 11
4161.8509697607032649
 21
213.7966474600295044
 31
0.0
  0
LINE
  5
F23F
  8
0
 10
4161.2617231157837523
 20
213.7966474600295044
 30
0.0
 11
4161.1626575391437655
 21
213.7966474600295044
 31
0.0
  0
LINE
  5
F240
  8
0
 10
4161.9688661232439699
 20
213.7579773840294877
 30
0.0
 11
4161.8509697607032649
 21
213.7579773840294877
 31
0.0
  0
LINE
  5
F241
  8
0
 10
4161.2617231157837523
 20
213.7579773840294877
 30
0.0
 11
4161.1438267532439568
 21
213.7579773840294877
 31
0.0
  0
LINE
  5
F242
  8
0
 10
4161.9500353373432517
 20
213.263795902629596
 30
0.0
 11
4161.8509697607032649
 21
213.263795902629596
 31
0.0
  0
LINE
  5
F243
  8
0
 10
4161.2617231157837523
 20
213.263795902629596
 30
0.0
 11
4161.1626575391437655
 21
213.263795902629596
 31
0.0
  0
LINE
  5
F244
  8
0
 10
4161.9500353373432517
 20
213.263795902629596
 30
0.0
 11
4161.9500353373432517
 21
213.3457730653296096
 31
0.0
  0
LINE
  5
F245
  8
0
 10
4161.9688661232439699
 20
213.7146702974295067
 30
0.0
 11
4161.9688661232439699
 21
213.7579773840294877
 31
0.0
  0
LINE
  5
F246
  8
0
 10
4161.9500353373432517
 20
213.7579773840294877
 30
0.0
 11
4161.9500353373432517
 21
213.7966474600295044
 31
0.0
  0
LINE
  5
F247
  8
0
 10
4161.9165826587441188
 20
213.7966474600295044
 30
0.0
 11
4161.9165826586431649
 21
213.8170325020329869
 31
0.0
  0
ARC
  5
F248
  8
0
 10
4161.9362676980435936
 20
213.8170325021295071
 30
0.0
 40
0.0196850394000023
 50
90.0000322464219664
 51
180.0000002810758986
  0
LINE
  5
F249
  8
0
 10
4162.0189448634437213
 20
213.8367175415295094
 30
0.0
 11
4162.0189448634437213
 21
214.0058001593824031
 31
0.0
  0
LINE
  5
F24A
  8
0
 10
4161.1626575391437655
 20
213.263795902629596
 30
0.0
 11
4161.1626575391437655
 21
213.3457730653296096
 31
0.0
  0
LINE
  5
F24B
  8
0
 10
4161.1438267532439568
 20
213.7146702974295067
 30
0.0
 11
4161.1438267532439568
 21
213.7579773840294877
 31
0.0
  0
LINE
  5
F24C
  8
0
 10
4161.1626575391437655
 20
213.7579773840294877
 30
0.0
 11
4161.1626575391437655
 21
213.7966474600295044
 31
0.0
  0
LINE
  5
F24D
  8
0
 10
4161.1961102177428984
 20
213.7966474600295044
 30
0.0
 11
4161.1961102178438523
 21
213.8170325020329869
 31
0.0
  0
ARC
  5
F24E
  8
0
 10
4161.1764251784443331
 20
213.8170325021295071
 30
0.0
 40
0.0196850394000023
 50
359.999999718924073
 51
89.9999677535780336
  0
LINE
  5
F24F
  8
0
 10
4161.0937480130442054
 20
213.8367175415295094
 30
0.0
 11
4161.0937480130442054
 21
214.0058001593824031
 31
0.0
  0
LINE
  5
F250
  8
0
 10
4161.2617231157837523
 20
241.1948942820619095
 30
0.0
 11
4161.2617231157837523
 21
201.4097066480003946
 31
0.0
  0
ARC
  5
F251
  8
0
 10
4162.6375979961685516
 20
160.8407564345914977
 30
0.0
 40
54.5652588653835195
 50
91.4448786912335549
 51
93.8943395678168571
  0
ARC
  5
F252
  8
0
 10
4158.6035905327444198
 20
214.6949852580295044
 30
0.0
 40
0.6707672228039155
 50
191.1970913166524042
 51
168.8029086833475958
  0
ARC
  5
F253
  8
0
 10
4158.6035905327444198
 20
214.6949852580295044
 30
0.0
 40
0.7467135564051423
 50
189.9403393819966084
 51
307.3731010917716162
  0
ARC
  5
F254
  8
0
 10
4158.6035905327444198
 20
214.6949852580295044
 30
0.0
 40
0.7467135564051423
 50
52.6268989082284193
 51
170.0596606180033064
  0
ARC
  5
F255
  8
0
 10
4158.6035905327444198
 20
214.6949852580295044
 30
0.0
 40
0.8564441087542622
 50
188.5245626621770043
 51
315.2114751384146984
  0
ARC
  5
F256
  8
0
 10
4158.6035905327444198
 20
214.6949852580295044
 30
0.0
 40
0.8564441087542622
 50
44.7885248615852873
 51
171.4754373378245873
  0
ARC
  5
F257
  8
0
 10
4158.6035905327444198
 20
214.6949852580295044
 30
0.0
 40
0.8858267716500023
 50
188.2058364818192899
 51
316.8553171092564185
  0
ARC
  5
F258
  8
0
 10
4158.6035905327444198
 20
214.6949852580295044
 30
0.0
 40
0.8858267716500023
 50
43.1446828907435815
 51
171.7941635181805964
  0
ARC
  5
F259
  8
0
 10
4158.6035905327444198
 20
214.6949852580295044
 30
0.0
 40
1.1023617217500019
 50
186.3861855408702013
 51
325.6784432804169001
  0
ARC
  5
F25A
  8
0
 10
4158.6035905327444198
 20
214.6949852580295044
 30
0.0
 40
1.1023617217500019
 50
34.3215567195830999
 51
173.6138144591297987
  0
CIRCLE
  5
F25B
  8
0
 10
4158.6035905327444198
 20
214.6949852580295044
 30
0.0
 40
0.2872387181350113
  0
ARC
  5
F25C
  8
0
 10
4158.6035905327444198
 20
214.6949852580295044
 30
0.0
 40
0.3543307086499983
 50
212.2868943812179907
 51
147.7131056229231945
  0
LINE
  5
F25D
  8
0
 10
4155.861183910694308
 20
214.7888510579296053
 30
0.0
 11
4158.2072342090941675
 21
214.8298053059295967
 31
0.0
  0
ARC
  5
F25E
  8
0
 10
4158.2051931949981736
 20
214.9467241007737925
 30
0.0
 40
0.1169366081532066
 50
271.0000925615954088
 51
327.7089515179150112
  0
ARC
  5
F25F
  8
0
 10
4162.6375979961685516
 20
268.54921408146771
 30
0.0
 40
54.5652588653835195
 50
266.1056604321831855
 51
268.5551213087665019
  0
LINE
  5
F260
  8
0
 10
4155.861183910694308
 20
214.6011194581296024
 30
0.0
 11
4158.2072342090941675
 21
214.5601652101296111
 31
0.0
  0
ARC
  5
F261
  8
0
 10
4158.2051931949981736
 20
214.4432464152853015
 30
0.0
 40
0.1169366081532066
 50
32.2910484820850812
 51
88.9999074384046054
  0
ARC
  5
F262
  8
0
 10
4155.8628250082156228
 20
214.6949852580295044
 30
0.0
 40
0.0938801448227782
 50
91.0016255456957452
 51
268.9983744543043258
  0
ARC
  5
F263
  8
0
 10
4161.5563464382439633
 20
201.4914285810189085
 30
0.0
 40
0.3057472427893572
 50
195.5028268864257086
 51
344.4971731135743198
  0
ENDSEC
  0
EOF
