  0
SECTION
  2
HEADER
  9
$ACADVER
  1
AC1009
  9
$INSBASE
 10
4235.4883793631806839
 20
211.6068880045939125
 30
0.0
  9
$EXTMIN
 10
4221.7584071802275503
 20
198.0974595155223881
 30
0.0
  9
$EXTMAX
 10
4235.5016109376838358
 20
247.9548225382839917
 30
0.0
  9
$LIMMIN
 10
0.0
 20
0.0
  9
$LIMMAX
 10
11.6929133858000007
 20
8.2677165353999982
  9
$ORTHOMODE
 70
     0
  9
$REGENMODE
 70
     1
  9
$FILLMODE
 70
     1
  9
$QTEXTMODE
 70
     0
  9
$MIRRTEXT
 70
     0
  9
$DRAGMODE
 70
     2
  9
$LTSCALE
 40
0.6431102362
  9
$OSMODE
 70
  3839
  9
$ATTMODE
 70
     1
  9
$TEXTSIZE
 40
0.2
  9
$TRACEWID
 40
0.05
  9
$TEXTSTYLE
  7
STANDARD
  9
$CLAYER
  8
0
  9
$CELTYPE
  6
BYLAYER
  9
$CECOLOR
 62
   256
  9
$DIMSCALE
 40
1.0
  9
$DIMASZ
 40
0.1875
  9
$DIMEXO
 40
0.0625
  9
$DIMDLI
 40
0.4443307087
  9
$DIMRND
 40
0.0
  9
$DIMDLE
 40
0.0
  9
$DIMEXE
 40
0.125
  9
$DIMTP
 40
0.01
  9
$DIMTM
 40
0.01
  9
$DIMTXT
 40
2.0
  9
$DIMCEN
 40
0.1052362205
  9
$DIMTSZ
 40
0.0
  9
$DIMTOL
 70
     1
  9
$DIMLIM
 70
     0
  9
$DIMTIH
 70
     1
  9
$DIMTOH
 70
     1
  9
$DIMSE1
 70
     0
  9
$DIMSE2
 70
     0
  9
$DIMTAD
 70
     0
  9
$DIMZIN
 70
     0
  9
$DIMBLK
  1

  9
$DIMASO
 70
     1
  9
$DIMSHO
 70
     1
  9
$DIMPOST
  1
\X
  9
$DIMAPOST
  1

  9
$DIMALT
 70
     1
  9
$DIMALTD
 70
     2
  9
$DIMALTF
 40
25.3999999999999986
  9
$DIMLFAC
 40
1.0
  9
$DIMTOFL
 70
     0
  9
$DIMTVP
 40
0.0
  9
$DIMTIX
 70
     0
  9
$DIMSOXD
 70
     0
  9
$DIMSAH
 70
     0
  9
$DIMBLK1
  1

  9
$DIMBLK2
  1

  9
$DIMSTYLE
  2
STANDARD
  9
$DIMCLRD
 70
     0
  9
$DIMCLRE
 70
     0
  9
$DIMCLRT
 70
     0
  9
$DIMTFAC
 40
1.0
  9
$DIMGAP
 40
0.09
  9
$LUNITS
 70
     2
  9
$LUPREC
 70
     4
  9
$SKETCHINC
 40
0.1
  9
$FILLETRAD
 40
0.0
  9
$AUNITS
 70
     0
  9
$AUPREC
 70
     0
  9
$MENU
  1
.
  9
$ELEVATION
 40
0.0
  9
$PELEVATION
 40
0.0
  9
$THICKNESS
 40
0.0
  9
$LIMCHECK
 70
     0
  9
$BLIPMODE
 70
     0
  9
$CHAMFERA
 40
0.0
  9
$CHAMFERB
 40
0.0
  9
$SKPOLY
 70
     0
  9
$TDCREATE
 40
2458060.468368056230247
  9
$TDUPDATE
 40
2459166.7966550928540528
  9
$TDINDWG
 40
0.6044052083
  9
$TDUSRTIMER
 40
0.6044052083
  9
$USRTIMER
 70
     1
  9
$ANGBASE
 50
0.0
  9
$ANGDIR
 70
     0
  9
$PDMODE
 70
     0
  9
$PDSIZE
 40
0.3125
  9
$PLINEWID
 40
0.0
  9
$COORDS
 70
     1
  9
$SPLFRAME
 70
     0
  9
$SPLINETYPE
 70
     6
  9
$SPLINESEGS
 70
     8
  9
$ATTDIA
 70
     1
  9
$ATTREQ
 70
     1
  9
$HANDLING
 70
     1
  9
$HANDSEED
  5
11400
  9
$SURFTAB1
 70
     6
  9
$SURFTAB2
 70
     6
  9
$SURFTYPE
 70
     6
  9
$SURFU
 70
     6
  9
$SURFV
 70
     6
  9
$UCSNAME
  2

  9
$UCSORG
 10
0.0
 20
0.0
 30
0.0
  9
$UCSXDIR
 10
1.0
 20
0.0
 30
0.0
  9
$UCSYDIR
 10
0.0
 20
1.0
 30
0.0
  9
$PUCSNAME
  2

  9
$PUCSORG
 10
0.0
 20
0.0
 30
0.0
  9
$PUCSXDIR
 10
1.0
 20
0.0
 30
0.0
  9
$PUCSYDIR
 10
0.0
 20
1.0
 30
0.0
  9
$USERI1
 70
     0
  9
$USERI2
 70
     0
  9
$USERI3
 70
     0
  9
$USERI4
 70
     0
  9
$USERI5
 70
     0
  9
$USERR1
 40
0.0
  9
$USERR2
 40
0.0
  9
$USERR3
 40
0.0
  9
$USERR4
 40
0.0
  9
$USERR5
 40
0.0
  9
$WORLDVIEW
 70
     1
  9
$SHADEDGE
 70
     3
  9
$SHADEDIF
 70
    70
  9
$TILEMODE
 70
     1
  9
$MAXACTVP
 70
    64
  9
$PLIMCHECK
 70
     0
  9
$PEXTMIN
 10
1.0000000000000000E+20
 20
1.0000000000000000E+20
 30
1.0000000000000000E+20
  9
$PEXTMAX
 10
-1.0000000000000000E+20
 20
-1.0000000000000000E+20
 30
-1.0000000000000000E+20
  9
$PLIMMIN
 10
0.0
 20
0.0
  9
$PLIMMAX
 10
12.0
 20
9.0
  9
$UNITMODE
 70
     0
  9
$VISRETAIN
 70
     1
  9
$PLINEGEN
 70
     0
  9
$PSLTSCALE
 70
     1
  0
ENDSEC
  0
SECTION
  2
TABLES
  0
TABLE
  2
VPORT
 70
     1
  0
VPORT
  2
*ACTIVE
 70
     0
 10
0.0
 20
0.0
 11
1.0
 21
1.0
 12
0.0
 22
0.0
 13
0.0
 23
0.0
 14
1.0
 24
1.0
 15
0.0
 25
0.0
 16
0.0
 26
0.0
 36
203.2601425670546007
 17
4228.6323972658747152
 27
223.0258331298828125
 37
0.0
 40
51.7147523544987493
 41
3.1182994454713491
 42
50.0
 43
0.0
 44
0.0
 50
0.0
 51
0.0
 71
     0
 72
   100
 73
     1
 74
     1
 75
     0
 76
     0
 77
     0
 78
     0
  0
ENDTAB
  0
TABLE
  2
LTYPE
 70
     2
  0
LTYPE
  2
CONTINUOUS
 70
     0
  3
Solid line
 72
    65
 73
     0
 40
0.0
  0
LTYPE
  2
PHANTOM2
 70
     0
  3
___ _ _ ___ _ _ ___ _ _ ___ _ _
 72
    65
 73
     6
 40
1.25
 49
0.625
 49
-0.125
 49
0.125
 49
-0.125
 49
0.125
 49
-0.125
  0
ENDTAB
  0
TABLE
  2
LAYER
 70
     2
  0
LAYER
  2
0
 70
     0
 62
   255
  6
CONTINUOUS
  0
LAYER
  2
DEFPOINTS
 70
     0
 62
     7
  6
CONTINUOUS
  0
ENDTAB
  0
TABLE
  2
STYLE
 70
     1
  0
STYLE
  2
STANDARD
 70
     0
 40
0.0
 41
0.8
 50
0.0
 71
     0
 42
0.2
  3
txt
  4

  0
ENDTAB
  0
TABLE
  2
VIEW
 70
     0
  0
ENDTAB
  0
TABLE
  2
UCS
 70
     0
  0
ENDTAB
  0
TABLE
  2
APPID
 70
     9
  0
APPID
  2
ACAD
 70
     0
  0
APPID
  2
ACAD_MLEADERVER
 70
     0
  0
APPID
  2
ACAD_EXEMPT_FROM_CAD_STANDARDS
 70
     0
  0
APPID
  2
ACAD_NAV_VCDISPLAY
 70
     0
  0
APPID
  2
ACAECLAYERSTANDARD
 70
     0
  0
APPID
  2
ACCMTRANSPARENCY
 70
     0
  0
APPID
  2
ACAD_DSTYLE_DIMJAG
 70
     0
  0
APPID
  2
ACAD_DSTYLE_DIMTALN
 70
     0
  0
APPID
  2
ACDBATTR
 70
     0
  0
ENDTAB
  0
TABLE
  2
DIMSTYLE
 70
     1
  0
DIMSTYLE
  2
STANDARD
 70
     0
  3

  4

  5

  6

  7

 40
1.0
 41
0.1875
 42
0.0625
 43
0.38
 44
0.125
 45
0.0
 46
0.0
 47
0.01
 48
0.01
140
0.15625
141
0.09
142
0.0
143
25.3999999999999986
144
1.0
145
0.0
146
1.0
147
0.09
 71
     1
 72
     0
 73
     1
 74
     1
 75
     0
 76
     0
 77
     0
 78
     4
170
     0
171
     2
172
     0
173
     0
174
     0
175
     0
176
     0
177
     0
178
     0
  0
ENDTAB
  0
ENDSEC
  0
SECTION
  2
BLOCKS
  0
BLOCK
  8
0
  2
$MODEL_SPACE
 70
     0
 10
0.0
 20
0.0
 30
0.0
  3
$MODEL_SPACE
  1

  0
ENDBLK
  5
21
  8
0
  0
BLOCK
 67
     1
  8
0
  2
$PAPER_SPACE
 70
     0
 10
0.0
 20
0.0
 30
0.0
  3
$PAPER_SPACE
  1

  0
ENDBLK
  5
1D
 67
     1
  8
0
  0
ENDSEC
  0
SECTION
  2
ENTITIES
  0
ATTDEF
  5
3930
  8
DEFPOINTS
 10
4235.4909442710159055
 20
211.6061043069466052
 30
0.0
 40
0.001
  1
K-72698T-B4
  3

  2
MODELNUMBER
 70
     0
1001
ACDBATTR
1070
     0
1070
     1
  0
ATTDEF
  5
3931
  8
DEFPOINTS
 10
4235.4909442710159055
 20
211.6044376402799116
 30
0.0
 40
0.001
  1
ARCHER
  3

  2
TRADENAME
 70
     0
1001
ACDBATTR
1070
     0
1070
     1
  0
ATTDEF
  5
3932
  8
DEFPOINTS
 10
4235.4909442710159055
 20
211.6027709736131897
 30
0.0
 40
0.001
  1
BATH AND SHOWER FAUCET
  3

  2
PRODUCT
 70
     0
1001
ACDBATTR
1070
     0
1070
     1
  0
LINE
  5
10F5E
  8
0
 10
4227.5572007292594208
 20
243.7856746300251132
 30
0.0
 11
4224.9465398528027436
 21
247.3789599987341887
 31
0.0
  0
LINE
  5
10F5F
  8
0
 10
4224.9642172728208607
 20
247.3546289891860113
 30
0.0
 11
4224.9578965242044433
 21
247.3499852886494921
 31
0.0
  0
ARC
  5
10F60
  8
0
 10
4224.9648900597776446
 20
247.3404660744014052
 30
0.0
 40
0.0118120692397849
 50
126.3038214362652951
 51
200.2936818069944138
  0
LINE
  5
10F61
  8
0
 10
4224.9538111989086246
 20
247.3363692681406008
 30
0.0
 11
4225.056684285904339
 21
247.0695881968242134
 31
0.0
  0
LINE
  5
10F62
  8
0
 10
4225.0337243743251747
 20
247.1291268826780936
 30
0.0
 11
4224.9933757401704497
 21
247.0901624144059952
 31
0.0
  0
ARC
  5
10F63
  8
0
 10
4225.0097859119841814
 20
247.0731692909687069
 30
0.0
 40
0.0236232932328775
 50
134.0001801609589904
 51
215.9656882324744913
  0
LINE
  5
10F64
  8
0
 10
4224.990665954391261
 20
247.0592953151574136
 30
0.0
 11
4225.079083136924055
 21
246.9374461204137958
 31
0.0
  0
ARC
  5
10F65
  8
0
 10
4225.0981725577803445
 20
246.9512979379146032
 30
0.0
 40
0.0235855641585096
 50
215.965688232471507
 51
294.354927949225214
  0
LINE
  5
10F66
  8
0
 10
4225.1078989592324433
 20
246.9298112920280914
 30
0.0
 11
4225.1279349444439504
 21
246.9387590250935034
 31
0.0
  0
ARC
  5
10F67
  8
0
 10
4225.1277840054026456
 20
246.9390888876793895
 30
0.0
 40
0.0003636475115464
 50
294.583326433422485
 51
331.6718293737691852
  0
ARC
  5
10F68
  8
0
 10
4225.10788858550859
 20
246.9389659885671051
 30
0.0
 40
0.020215579482208
 50
359.8592535755527138
 51
18.5426841525717805
  0
ARC
  5
10F69
  8
0
 10
4224.3434799368742461
 20
246.6877987696315984
 30
0.0
 40
0.8248303634161469
 50
18.1980017550115214
 51
28.4362980385966893
  0
ARC
  5
10F6A
  8
0
 10
4225.0684105660793648
 20
247.0801982464618902
 30
0.0
 40
0.0005310589660786
 50
44.0730261193324466
 51
135.2123459216047934
  0
LINE
  5
10F6B
  8
0
 10
4225.0680336615523629
 20
247.0805723675713068
 30
0.0
 11
4225.028272989294237
 21
247.042084446379306
 31
0.0
  0
ARC
  5
10F6C
  8
0
 10
4225.0448804008747175
 20
247.0250249201095016
 30
0.0
 40
0.0238082665472869
 50
134.2306188763936063
 51
212.041877212383099
  0
LINE
  5
10F6D
  8
0
 10
4227.539522967918856
 20
243.8100061093614102
 30
0.0
 11
4227.4758289202509332
 21
243.7642372929853138
 31
0.0
  0
ARC
  5
10F6E
  8
0
 10
4224.9940864993277501
 20
241.9355223992980086
 30
0.0
 40
3.0827331389858799
 50
33.6441355473948178
 51
36.385288240395063
  0
ARC
  5
10F6F
  8
0
 10
4227.2057012129143914
 20
243.3906246916571945
 30
0.0
 40
0.4356240900622012
 50
24.2539982701325307
 51
35.4782539984776335
  0
ARC
  5
10F70
  8
0
 10
4227.3423876274464419
 20
243.4471442941909913
 30
0.0
 40
0.2878223035925429
 50
357.8877061311753778
 51
25.1732423498920284
  0
ARC
  5
10F71
  8
0
 10
4227.5441042314860169
 20
243.4337006365379068
 30
0.0
 40
0.0859568930107826
 50
292.8026754958876268
 51
1.8900954412733759
  0
ARC
  5
10F72
  8
0
 10
4227.4203472047865944
 20
243.7931930997060022
 30
0.0
 40
0.4660003649471624
 50
271.4488189808719198
 51
289.6978907917950892
  0
ARC
  5
10F73
  8
0
 10
4227.4433676666403699
 20
243.5893496279452108
 30
0.0
 40
0.2622488210415737
 50
201.2053323913550003
 51
267.5439572482487165
  0
ARC
  5
10F74
  8
0
 10
4227.799856786377859
 20
243.6949088262848022
 30
0.0
 40
0.6335183480556426
 50
168.509845731063308
 51
198.4427165504845902
  0
ARC
  5
10F75
  8
0
 10
4225.4071799213388658
 20
244.0151898606038969
 30
0.0
 40
1.7824529540014431
 50
353.7488880219216867
 51
357.4216437514086806
  0
ARC
  5
10F76
  8
0
 10
4250.5120978145641857
 20
244.3330304558544128
 30
0.0
 40
23.3276653087033985
 50
180.7084722619073034
 51
180.9776494460377876
  0
LINE
  5
10F77
  8
0
 10
4225.1692865032700865
 20
246.9384147620708916
 30
0.0
 11
4225.1307653309440866
 21
246.9008824860866014
 31
0.0
  0
ARC
  5
10F78
  8
0
 10
4225.1472546368786425
 20
246.8839587217049996
 30
0.0
 40
0.0236286057790437
 50
134.2550450346896014
 51
217.280013916333786
  0
LINE
  5
10F79
  8
0
 10
4225.1284537140581961
 20
246.8696466180111884
 30
0.0
 11
4225.1802643733317382
 21
246.79833525737439
 31
0.0
  0
ARC
  5
10F7A
  8
0
 10
4225.2008764562706347
 20
246.8107578307946994
 30
0.0
 40
0.0240661233568386
 50
211.0766992422506121
 51
293.5976458344483149
  0
LINE
  5
10F7B
  8
0
 10
4225.2105103993408193
 20
246.7887041364479899
 30
0.0
 11
4225.2310156135290526
 21
246.7979392508632088
 31
0.0
  0
ARC
  5
10F7C
  8
0
 10
4225.2263174977560993
 20
246.8095107918219924
 30
0.0
 40
0.012488909158973
 50
292.0974506187941984
 51
296.7341051192393024
  0
ARC
  5
10F7D
  8
0
 10
4225.2312789415482257
 20
246.7994408787666032
 30
0.0
 40
0.0012673854712101
 50
301.2084974659925933
 51
333.4163547788891719
  0
ARC
  5
10F7E
  8
0
 10
4225.1848214953697607
 20
246.800859110628295
 30
0.0
 40
0.0476322414220063
 50
357.6111237329504888
 51
20.4019325234595001
  0
ARC
  5
10F7F
  8
0
 10
4224.6854579839646249
 20
246.6399410725663017
 30
0.0
 40
0.5722401838008981
 50
18.0727485061047908
 51
29.6617129736844483
  0
ARC
  5
10F80
  8
0
 10
4225.1245183323408128
 20
246.8912971162600911
 30
0.0
 40
0.0663324005597364
 50
28.6790451796503199
 51
44.8485780425672473
  0
ARC
  5
10F81
  8
0
 10
4225.17022235553668
 20
246.9369484455035035
 30
0.0
 40
0.001739665278044
 50
40.4487572926054071
 51
122.5164051746268967
  0
LINE
  5
10F82
  8
0
 10
4225.209398622637309
 20
246.7723169738189029
 30
0.0
 11
4225.1708774503113091
 21
246.7347846978346126
 31
0.0
  0
ARC
  5
10F83
  8
0
 10
4225.1873667562467745
 20
246.7178609334532098
 30
0.0
 40
0.0236286057790437
 50
134.2550450346896014
 51
217.280013916333786
  0
LINE
  5
10F84
  8
0
 10
4225.1685658334254185
 20
246.7035488297593133
 30
0.0
 11
4225.2203764926989606
 21
246.6322374691224866
 31
0.0
  0
ARC
  5
10F85
  8
0
 10
4225.2409885756369476
 20
246.644660042542796
 30
0.0
 40
0.0240661233568386
 50
211.0766992422506121
 51
293.5976458344483149
  0
LINE
  5
10F86
  8
0
 10
4225.2506225187080418
 20
246.6226063481960864
 30
0.0
 11
4225.2711277328971846
 21
246.6318414626113906
 31
0.0
  0
ARC
  5
10F87
  8
0
 10
4225.2664296171242313
 20
246.6434130035700036
 30
0.0
 40
0.012488909158973
 50
292.0974506187941984
 51
296.7341051192393024
  0
ARC
  5
10F88
  8
0
 10
4225.2713910609172672
 20
246.6333430905148134
 30
0.0
 40
0.0012673854712101
 50
301.2084974659925933
 51
333.4163547788891719
  0
ARC
  5
10F89
  8
0
 10
4225.2249336147378926
 20
246.6347613223765052
 30
0.0
 40
0.0476322414220063
 50
357.6111237329504888
 51
20.4019325234595001
  0
ARC
  5
10F8A
  8
0
 10
4224.7255701033309379
 20
246.4738432843143983
 30
0.0
 40
0.5722401838008981
 50
18.0727485061047908
 51
29.6617129736844483
  0
ARC
  5
10F8B
  8
0
 10
4225.1646304517080353
 20
246.7251993280081876
 30
0.0
 40
0.0663324005597364
 50
28.6790451796503199
 51
44.8485780425672473
  0
ARC
  5
10F8C
  8
0
 10
4225.2103344749048119
 20
246.7708506572516001
 30
0.0
 40
0.001739665278044
 50
40.4487572926054071
 51
122.5164051746268967
  0
LINE
  5
10F8D
  8
0
 10
4225.3364398547446399
 20
246.7145342954208047
 30
0.0
 11
4225.2979186824177305
 21
246.6770020194364008
 31
0.0
  0
ARC
  5
10F8E
  8
0
 10
4225.3144079883531958
 20
246.660078255054998
 30
0.0
 40
0.0236286057790437
 50
134.2550450346896014
 51
217.280013916333786
  0
LINE
  5
10F8F
  8
0
 10
4225.2956070655318399
 20
246.6457661513611868
 30
0.0
 11
4225.347417724807201
 21
246.5744547907243032
 31
0.0
  0
ARC
  5
10F90
  8
0
 10
4225.3680298077460975
 20
246.5868773641448115
 30
0.0
 40
0.0240661233568386
 50
211.0766992422506121
 51
293.5976458344483149
  0
LINE
  5
10F91
  8
0
 10
4225.3776637508153726
 20
246.564823669797903
 30
0.0
 11
4225.398168965003606
 21
246.5740587842132072
 31
0.0
  0
ARC
  5
10F92
  8
0
 10
4225.3934708492306527
 20
246.5856303251719908
 30
0.0
 40
0.012488909158973
 50
292.0974506187941984
 51
296.7341051192393024
  0
ARC
  5
10F93
  8
0
 10
4225.3984322930218696
 20
246.5755604121166016
 30
0.0
 40
0.0012673854712101
 50
301.2084974659925933
 51
333.4163547788891719
  0
ARC
  5
10F94
  8
0
 10
4225.3519748468452235
 20
246.5769786439782933
 30
0.0
 40
0.0476322414220063
 50
357.6111237329504888
 51
20.4019325234595001
  0
ARC
  5
10F95
  8
0
 10
4224.8526113354391782
 20
246.4160606059161864
 30
0.0
 40
0.5722401838008981
 50
18.0727485061047908
 51
29.6617129736844483
  0
ARC
  5
10F96
  8
0
 10
4225.2916716838153661
 20
246.6674166496098906
 30
0.0
 40
0.0663324005597364
 50
28.6790451796503199
 51
44.8485780425672473
  0
ARC
  5
10F97
  8
0
 10
4225.3373757070121428
 20
246.7130679788533882
 30
0.0
 40
0.001739665278044
 50
40.4487572926054071
 51
122.5164051746268967
  0
LINE
  5
10F98
  8
0
 10
4225.3145554847833409
 20
246.6079126869051947
 30
0.0
 11
4225.2760343124564315
 21
246.5703804109207908
 31
0.0
  0
ARC
  5
10F99
  8
0
 10
4225.2925236183909874
 20
246.553456646539388
 30
0.0
 40
0.0236286057790437
 50
134.2550450346896014
 51
217.280013916333786
  0
LINE
  5
10F9A
  8
0
 10
4225.2737226955714505
 20
246.5391445428454915
 30
0.0
 11
4225.3255333548449926
 21
246.4678331822086932
 31
0.0
  0
ARC
  5
10F9B
  8
0
 10
4225.3461454377820701
 20
246.4802557556290026
 30
0.0
 40
0.0240661233568386
 50
211.0766992422506121
 51
293.5976458344483149
  0
LINE
  5
10F9C
  8
0
 10
4225.3557793808531642
 20
246.458202061282293
 30
0.0
 11
4225.376284595042307
 21
246.4674371756975972
 31
0.0
  0
ARC
  5
10F9D
  8
0
 10
4225.3715864792684442
 20
246.4790087166562955
 30
0.0
 40
0.012488909158973
 50
292.0974506187941984
 51
296.7341051192393024
  0
ARC
  5
10F9E
  8
0
 10
4225.3765479230605706
 20
246.4689388036009063
 30
0.0
 40
0.0012673854712101
 50
301.2084974659925933
 51
333.4163547788891719
  0
ARC
  5
10F9F
  8
0
 10
4225.3300904768830151
 20
246.4703570354627971
 30
0.0
 40
0.0476322414220063
 50
357.6111237329504888
 51
20.4019325234595001
  0
ARC
  5
10FA0
  8
0
 10
4224.8307269654769698
 20
246.3094389974006049
 30
0.0
 40
0.5722401838008981
 50
18.0727485061047908
 51
29.6617129736844483
  0
ARC
  5
10FA1
  8
0
 10
4225.2697873138540672
 20
246.5607950410943943
 30
0.0
 40
0.0663324005597364
 50
28.6790451796503199
 51
44.8485780425672473
  0
ARC
  5
10FA2
  8
0
 10
4225.3154913370499344
 20
246.6064463703378067
 30
0.0
 40
0.001739665278044
 50
40.4487572926054071
 51
122.5164051746268967
  0
LINE
  5
10FA3
  8
0
 10
4225.3590768770936847
 20
246.4596871837873096
 30
0.0
 11
4225.3295059204710924
 21
246.4308753580286862
 31
0.0
  0
ARC
  5
10FA4
  8
0
 10
4225.3459952264056483
 20
246.413951593647397
 30
0.0
 40
0.0236286057790437
 50
134.2550450346896014
 51
217.280013916333786
  0
LINE
  5
10FA5
  8
0
 10
4225.3271943035861113
 20
246.3996394899535005
 30
0.0
 11
4225.379004962858744
 21
246.3283281293165885
 31
0.0
  0
ARC
  5
10FA6
  8
0
 10
4225.399617045796731
 20
246.3407507027370116
 30
0.0
 40
0.0240661233568386
 50
211.0766992422506121
 51
293.5976458344483149
  0
LINE
  5
10FA7
  8
0
 10
4225.4092509888669156
 20
246.3186970083901883
 30
0.0
 11
4225.4297562030578774
 21
246.3279321228054926
 31
0.0
  0
ARC
  5
10FA8
  8
0
 10
4225.4250580872840146
 20
246.3395036637641908
 30
0.0
 40
0.012488909158973
 50
292.0974506187941984
 51
296.7341051192393024
  0
ARC
  5
10FA9
  8
0
 10
4225.4300195310752315
 20
246.3294337507088017
 30
0.0
 40
0.0012673854712101
 50
301.2084974659925933
 51
333.4163547788891719
  0
ARC
  5
10FAA
  8
0
 10
4225.3835620848967665
 20
246.3308519825706071
 30
0.0
 40
0.0476322414220063
 50
357.6111237329504888
 51
20.4019325234595001
  0
ARC
  5
10FAB
  8
0
 10
4224.8841985734916307
 20
246.1699339445085002
 30
0.0
 40
0.5722401838008981
 50
18.0727485061047908
 51
29.6617129736844483
  0
ARC
  5
10FAC
  8
0
 10
4225.3232589218687281
 20
246.4212899882022043
 30
0.0
 40
0.0663324005597364
 50
28.6790451796503199
 51
42.0676109807047069
  0
LINE
  5
10FAD
  8
0
 10
4225.5478942764593739
 20
246.4163372956888907
 30
0.0
 11
4225.509373104133374
 21
246.3788050197044015
 31
0.0
  0
ARC
  5
10FAE
  8
0
 10
4225.5258624100679299
 20
246.3618812553229134
 30
0.0
 40
0.0236286057790437
 50
134.2550450346896014
 51
217.280013916333786
  0
LINE
  5
10FAF
  8
0
 10
4225.507061487246574
 20
246.3475691516291022
 30
0.0
 11
4225.5588721465201161
 21
246.2762577909923039
 31
0.0
  0
ARC
  5
10FB0
  8
0
 10
4225.5794842294581031
 20
246.2886803644126132
 30
0.0
 40
0.0240661233568386
 50
211.0766992422506121
 51
293.5976458344483149
  0
LINE
  5
10FB1
  8
0
 10
4225.5891181725301067
 20
246.2666266700659037
 30
0.0
 11
4225.6096233867192495
 21
246.275861784481009
 31
0.0
  0
ARC
  5
10FB2
  8
0
 10
4225.6049252709453867
 20
246.2874333254397925
 30
0.0
 40
0.012488909158973
 50
292.0974506187941984
 51
296.7341051192393024
  0
ARC
  5
10FB3
  8
0
 10
4225.6098867147384226
 20
246.2773634123844886
 30
0.0
 40
0.0012673854712101
 50
301.2084974659925933
 51
333.4163547788891719
  0
ARC
  5
10FB4
  8
0
 10
4225.5634292685599576
 20
246.278781644246294
 30
0.0
 40
0.0476322414220063
 50
357.6111237329504888
 51
20.4019325234595001
  0
ARC
  5
10FB5
  8
0
 10
4225.0640657571539123
 20
246.1178636061841019
 30
0.0
 40
0.5722401838008981
 50
18.0727485061047908
 51
29.6617129736844483
  0
ARC
  5
10FB6
  8
0
 10
4225.5031261055301002
 20
246.3692196498778912
 30
0.0
 40
0.0663324005597364
 50
28.6790451796503199
 51
44.8485780425672473
  0
ARC
  5
10FB7
  8
0
 10
4225.5488301287268769
 20
246.4148709791213889
 30
0.0
 40
0.001739665278044
 50
40.4487572926054071
 51
122.5164051746268967
  0
LINE
  5
10FB8
  8
0
 10
4225.4953992049377121
 20
246.2974904787220964
 30
0.0
 11
4225.4568780326117121
 21
246.2599582027376073
 31
0.0
  0
ARC
  5
10FB9
  8
0
 10
4225.473367338548087
 20
246.2430344383562044
 30
0.0
 40
0.0236286057790437
 50
134.2550450346896014
 51
217.280013916333786
  0
LINE
  5
10FBA
  8
0
 10
4225.4545664157258216
 20
246.2287223346625069
 30
0.0
 11
4225.5063770750011827
 21
246.1574109740255096
 31
0.0
  0
ARC
  5
10FBB
  8
0
 10
4225.5269891579391697
 20
246.1698335474459043
 30
0.0
 40
0.0240661233568386
 50
211.0766992422506121
 51
293.5976458344483149
  0
LINE
  5
10FBC
  8
0
 10
4225.5366231010093543
 20
246.1477798530991095
 30
0.0
 11
4225.5571283151994066
 21
246.1570149675144137
 31
0.0
  0
ARC
  5
10FBD
  8
0
 10
4225.5524301994246343
 20
246.168586508473112
 30
0.0
 40
0.012488909158973
 50
292.0974506187941984
 51
296.7341051192393024
  0
ARC
  5
10FBE
  8
0
 10
4225.5573916432167607
 20
246.1585165954176091
 30
0.0
 40
0.0012673854712101
 50
301.2084974659925933
 51
333.4163547788891719
  0
ARC
  5
10FBF
  8
0
 10
4225.5109341970401147
 20
246.1599348272794998
 30
0.0
 40
0.0476322414220063
 50
357.6111237329504888
 51
20.4019325234595001
  0
ARC
  5
10FC0
  8
0
 10
4225.0115706856340694
 20
245.9990167892173929
 30
0.0
 40
0.5722401838008981
 50
18.0727485061047908
 51
29.6617129736844483
  0
ARC
  5
10FC1
  8
0
 10
4225.4506310340102573
 20
246.250372832911097
 30
0.0
 40
0.0663324005597364
 50
28.6790451796503199
 51
44.8485780425672473
  0
ARC
  5
10FC2
  8
0
 10
4225.496335057207034
 20
246.2960241621547084
 30
0.0
 40
0.001739665278044
 50
40.4487572926054071
 51
122.5164051746268967
  0
LINE
  5
10FC3
  8
0
 10
4225.8019008943001609
 20
246.0673762049013931
 30
0.0
 11
4225.7633797219741609
 21
246.0298439289171881
 31
0.0
  0
ARC
  5
10FC4
  8
0
 10
4225.7798690279087168
 20
246.0129201645355863
 30
0.0
 40
0.0236286057790437
 50
134.2550450346896014
 51
217.280013916333786
  0
LINE
  5
10FC5
  8
0
 10
4225.7610681050891799
 20
245.9986080608418035
 30
0.0
 11
4225.8128787643618125
 21
245.9272967002050052
 31
0.0
  0
ARC
  5
10FC6
  8
0
 10
4225.83349084729889
 20
245.9397192736253999
 30
0.0
 40
0.0240661233568386
 50
211.0766992422506121
 51
293.5976458344483149
  0
LINE
  5
10FC7
  8
0
 10
4225.8431247903699841
 20
245.917665579278605
 30
0.0
 11
4225.8636300045600365
 21
245.9269006936937956
 31
0.0
  0
ARC
  5
10FC8
  8
0
 10
4225.8589318887861737
 20
245.9384722346526075
 30
0.0
 40
0.012488909158973
 50
292.0974506187941984
 51
296.7341051192393024
  0
ARC
  5
10FC9
  8
0
 10
4225.8638933325783
 20
245.9284023215973036
 30
0.0
 40
0.0012673854712101
 50
301.2084974659925933
 51
333.4163547788891719
  0
ARC
  5
10FCA
  8
0
 10
4225.817435886399835
 20
245.9298205534589954
 30
0.0
 40
0.0476322414220063
 50
357.6111237329504888
 51
20.4019325234595001
  0
ARC
  5
10FCB
  8
0
 10
4225.3180723749946992
 20
245.7689025153968032
 30
0.0
 40
0.5722401838008981
 50
18.0727485061047908
 51
29.6617129736844483
  0
ARC
  5
10FCC
  8
0
 10
4225.7571327233708871
 20
246.0202585590907063
 30
0.0
 40
0.0663324005597364
 50
28.6790451796503199
 51
44.8485780425672473
  0
ARC
  5
10FCD
  8
0
 10
4225.8028367465658448
 20
246.065909888334204
 30
0.0
 40
0.001739665278044
 50
40.4487572926054071
 51
122.5164051746268967
  0
LINE
  5
10FCE
  8
0
 10
4225.6907199094766838
 20
246.1256661584056928
 30
0.0
 11
4225.6521987371497744
 21
246.0881338824214026
 31
0.0
  0
ARC
  5
10FCF
  8
0
 10
4225.6686880430852398
 20
246.0712101180398008
 30
0.0
 40
0.0236286057790437
 50
134.2550450346896014
 51
217.280013916333786
  0
LINE
  5
10FD0
  8
0
 10
4225.6498871202647933
 20
246.0568980143459896
 30
0.0
 11
4225.7016977795383355
 21
245.985586653709106
 31
0.0
  0
ARC
  5
10FD1
  8
0
 10
4225.722309862475413
 20
245.998009227129387
 30
0.0
 40
0.0240661233568386
 50
211.0766992422506121
 51
293.5976458344483149
  0
LINE
  5
10FD2
  8
0
 10
4225.7319438055474166
 20
245.9759555327827059
 30
0.0
 11
4225.7524490197356499
 21
245.9851906471980101
 31
0.0
  0
ARC
  5
10FD3
  8
0
 10
4225.7477509039617871
 20
245.9967621881567936
 30
0.0
 40
0.012488909158973
 50
292.0974506187941984
 51
296.7341051192393024
  0
ARC
  5
10FD4
  8
0
 10
4225.7527123477539135
 20
245.9866922751014044
 30
0.0
 40
0.0012673854712101
 50
301.2084974659925933
 51
333.4163547788891719
  0
ARC
  5
10FD5
  8
0
 10
4225.706254901576358
 20
245.9881105069632099
 30
0.0
 40
0.0476322414220063
 50
357.6111237329504888
 51
20.4019325234595001
  0
ARC
  5
10FD6
  8
0
 10
4225.2068913901703127
 20
245.827192468901103
 30
0.0
 40
0.5722401838008981
 50
18.0727485061047908
 51
29.6617129736844483
  0
ARC
  5
10FD7
  8
0
 10
4225.6459517385474101
 20
246.0785485125948924
 30
0.0
 40
0.0663324005597364
 50
28.6790451796503199
 51
44.8485780425672473
  0
ARC
  5
10FD8
  8
0
 10
4225.6916557617432773
 20
246.1241998418383048
 30
0.0
 40
0.001739665278044
 50
40.4487572926054071
 51
122.5164051746268967
  0
LINE
  5
10FD9
  8
0
 10
4226.0782931635139903
 20
245.7037836502456116
 30
0.0
 11
4226.0397719911879904
 21
245.666251374261094
 31
0.0
  0
ARC
  5
10FDA
  8
0
 10
4226.0562612971243652
 20
245.6493276098796912
 30
0.0
 40
0.0236286057790437
 50
134.2550450346896014
 51
217.280013916333786
  0
LINE
  5
10FDB
  8
0
 10
4226.0374603743020998
 20
245.6350155061859084
 30
0.0
 11
4226.0892710335756419
 21
245.5637041455489964
 31
0.0
  0
ARC
  5
10FDC
  8
0
 10
4226.1098831165154479
 20
245.5761267189693058
 30
0.0
 40
0.0240661233568386
 50
211.0766992422506121
 51
293.5976458344483149
  0
LINE
  5
10FDD
  8
0
 10
4226.119517059584723
 20
245.5540730246225962
 30
0.0
 11
4226.1400222737738659
 21
245.5633081390379004
 31
0.0
  0
ARC
  5
10FDE
  8
0
 10
4226.1353241580009126
 20
245.5748796799965987
 30
0.0
 40
0.012488909158973
 50
292.0974506187941984
 51
296.7341051192393024
  0
ARC
  5
10FDF
  8
0
 10
4226.1402856017930389
 20
245.5648097669412095
 30
0.0
 40
0.0012673854712101
 50
301.2084974659925933
 51
333.4163547788891719
  0
ARC
  5
10FE0
  8
0
 10
4226.0938281556145739
 20
245.5662279988031003
 30
0.0
 40
0.0476322414220063
 50
357.6111237329504888
 51
20.4019325234595001
  0
ARC
  5
10FE1
  8
0
 10
4225.5944646442094381
 20
245.4053099607409081
 30
0.0
 40
0.5722401838008981
 50
18.0727485061047908
 51
29.6617129736844483
  0
ARC
  5
10FE2
  8
0
 10
4226.033524992585626
 20
245.6566660044346122
 30
0.0
 40
0.0663324005597364
 50
28.6790451796503199
 51
44.8485780425672473
  0
ARC
  5
10FE3
  8
0
 10
4226.0792290157824027
 20
245.7023173336781099
 30
0.0
 40
0.001739665278044
 50
40.4487572926054071
 51
122.5164051746268967
  0
LINE
  5
10FE4
  8
0
 10
4225.920549130539257
 20
245.8107052367008976
 30
0.0
 11
4225.8820279582123476
 21
245.7731729607164937
 31
0.0
  0
ARC
  5
10FE5
  8
0
 10
4225.8985172641469035
 20
245.7562491963350908
 30
0.0
 40
0.0236286057790437
 50
134.2550450346896014
 51
217.280013916333786
  0
LINE
  5
10FE6
  8
0
 10
4225.8797163413273665
 20
245.741937092641308
 30
0.0
 11
4225.9315270006009087
 21
245.670625732004396
 31
0.0
  0
ARC
  5
10FE7
  8
0
 10
4225.9521390835379862
 20
245.6830483054247054
 30
0.0
 40
0.0240661233568386
 50
211.0766992422506121
 51
293.5976458344483149
  0
LINE
  5
10FE8
  8
0
 10
4225.9617730266090803
 20
245.6609946110779958
 30
0.0
 11
4225.9822782407982231
 21
245.6702297254933001
 31
0.0
  0
ARC
  5
10FE9
  8
0
 10
4225.9775801250252698
 20
245.6818012664519131
 30
0.0
 40
0.012488909158973
 50
292.0974506187941984
 51
296.7341051192393024
  0
ARC
  5
10FEA
  8
0
 10
4225.9825415688173962
 20
245.6717313533966944
 30
0.0
 40
0.0012673854712101
 50
301.2084974659925933
 51
333.4163547788891719
  0
ARC
  5
10FEB
  8
0
 10
4225.9360841226389311
 20
245.6731495852583862
 30
0.0
 40
0.0476322414220063
 50
357.6111237329504888
 51
20.4019325234595001
  0
ARC
  5
10FEC
  8
0
 10
4225.4367206112328859
 20
245.5122315471963077
 30
0.0
 40
0.5722401838008981
 50
18.0727485061047908
 51
29.6617129736844483
  0
ARC
  5
10FED
  8
0
 10
4225.8757809596099833
 20
245.7635875908900118
 30
0.0
 40
0.0663324005597364
 50
28.6790451796503199
 51
44.8485780425672473
  0
ARC
  5
10FEE
  8
0
 10
4225.9214849828058504
 20
245.8092389201335095
 30
0.0
 40
0.001739665278044
 50
40.4487572926054071
 51
122.5164051746268967
  0
LINE
  5
10FEF
  8
0
 10
4225.8315810856065582
 20
245.8094471041513032
 30
0.0
 11
4225.7930599132823772
 21
245.771914828167013
 31
0.0
  0
ARC
  5
10FF0
  8
0
 10
4225.8095492192160236
 20
245.7549910637854964
 30
0.0
 40
0.0236286057790437
 50
134.2550450346896014
 51
217.280013916333786
  0
LINE
  5
10FF1
  8
0
 10
4225.7907482963955772
 20
245.7406789600915999
 30
0.0
 11
4225.8425589556700288
 21
245.6693675994548016
 31
0.0
  0
ARC
  5
10FF2
  8
0
 10
4225.8631710386080158
 20
245.6817901728751963
 30
0.0
 40
0.0240661233568386
 50
211.0766992422506121
 51
293.5976458344483149
  0
LINE
  5
10FF3
  8
0
 10
4225.8728049816782004
 20
245.6597364785284014
 30
0.0
 11
4225.8933101958682528
 21
245.6689715929437057
 31
0.0
  0
ARC
  5
10FF4
  8
0
 10
4225.88861208009439
 20
245.680543133902404
 30
0.0
 40
0.012488909158973
 50
292.0974506187941984
 51
296.7341051192393024
  0
ARC
  5
10FF5
  8
0
 10
4225.8935735238856068
 20
245.6704732208471
 30
0.0
 40
0.0012673854712101
 50
301.2084974659925933
 51
333.4163547788891719
  0
ARC
  5
10FF6
  8
0
 10
4225.8471160777089608
 20
245.6718914527089055
 30
0.0
 40
0.0476322414220063
 50
357.6111237329504888
 51
20.4019325234595001
  0
ARC
  5
10FF7
  8
0
 10
4225.347752566302006
 20
245.5109734146467133
 30
0.0
 40
0.5722401838008981
 50
18.0727485061047908
 51
29.6617129736844483
  0
ARC
  5
10FF8
  8
0
 10
4225.7868129146791034
 20
245.7623294583405027
 30
0.0
 40
0.0663324005597364
 50
28.6790451796503199
 51
44.8485780425672473
  0
ARC
  5
10FF9
  8
0
 10
4225.8325169378749706
 20
245.8079807875838867
 30
0.0
 40
0.001739665278044
 50
40.4487572926054071
 51
122.5164051746268967
  0
LINE
  5
10FFA
  8
0
 10
4226.0406659608879636
 20
245.5194817913942131
 30
0.0
 11
4226.0132308560960155
 21
245.4929880187563924
 31
0.0
  0
ARC
  5
10FFB
  8
0
 10
4226.030710492606886
 20
245.4748873252069927
 30
0.0
 40
0.0251629250999829
 50
133.9999998952060878
 51
212.9370879561654988
  0
LINE
  5
10FFC
  8
0
 10
4226.0095920525691326
 20
245.4612057942283911
 30
0.0
 11
4226.061743690583171
 21
245.3894252224629042
 31
0.0
  0
ARC
  5
10FFD
  8
0
 10
4226.0809289351345797
 20
245.4032072258025039
 30
0.0
 40
0.0236220471989731
 50
216.0000000014682087
 51
290.0000000014313741
  0
ARC
  5
10FFE
  8
0
 10
4225.4674552212236449
 20
246.6068811755991135
 30
0.0
 40
1.374441256087775
 50
296.8863514278737057
 51
298.3768476405444972
  0
ARC
  5
10FFF
  8
0
 10
4226.0423422615103846
 20
245.5175388103475882
 30
0.0
 40
0.0025650286229492
 50
81.2972627899944769
 51
130.7928711029258011
  0
ARC
  5
11000
  8
0
 10
4225.9698844366357662
 20
245.4022287781849911
 30
0.0
 40
0.1385427688215912
 50
34.7776587158240176
 51
58.2778142910362007
  0
ARC
  5
11001
  8
0
 10
4225.7600185519731895
 20
245.2251605051999093
 30
0.0
 40
0.4127222121929593
 50
31.3330306935997989
 51
38.3523044312970782
  0
LINE
  5
11002
  8
0
 10
4226.1404440673850331
 20
245.4678261420509102
 30
0.0
 11
4226.1137720111846647
 21
245.4410339329407122
 31
0.0
  0
ARC
  5
11003
  8
0
 10
4226.130570521872869
 20
245.4243107572119982
 30
0.0
 40
0.0237034716394979
 50
135.1287634478094901
 51
215.7629064690464133
  0
LINE
  5
11004
  8
0
 10
4226.1113365210703705
 20
245.4104576788222971
 30
0.0
 11
4226.1638794134369164
 21
245.3375056601020106
 31
0.0
  0
ARC
  5
11005
  8
0
 10
4226.1828589776532681
 20
245.3511754833270118
 30
0.0
 40
0.0233899107489229
 50
215.7629064690437986
 51
298.5111375685298185
  0
LINE
  5
11006
  8
0
 10
4226.1940236739774264
 20
245.3306221993834129
 30
0.0
 11
4226.2292737493116874
 21
245.3485596620444937
 31
0.0
  0
ARC
  5
11007
  8
0
 10
4226.2266593732347246
 20
245.3526550872635994
 30
0.0
 40
0.0048587518962925
 50
302.552735709639478
 51
7.5096575648548978
  0
ARC
  5
11008
  8
0
 10
4226.0880613524532237
 20
245.3160814846451956
 30
0.0
 40
0.1481633255390625
 50
14.5445308669405708
 51
37.6279552065962903
  0
ARC
  5
11009
  8
0
 10
4225.9762890401607365
 20
245.2537276721521096
 30
0.0
 40
0.2754013876233492
 50
33.7018225102987188
 51
49.2153859656821311
  0
ARC
  5
1100A
  8
0
 10
4226.1366163380762373
 20
245.4395961678669096
 30
0.0
 40
0.029938687065743
 50
49.1820530302634893
 51
77.4419816031631854
  0
ARC
  5
1100B
  8
0
 10
4226.143016972485384
 20
245.4649933154225039
 30
0.0
 40
0.0038268456154004
 50
88.3696546662011713
 51
132.2471912368687015
  0
LINE
  5
1100C
  8
0
 10
4226.3431571564187834
 20
245.2977842631474914
 30
0.0
 11
4226.3164851002193245
 21
245.2709920540372082
 31
0.0
  0
ARC
  5
1100D
  8
0
 10
4226.3332836109057098
 20
245.2542688783084941
 30
0.0
 40
0.0237034716394979
 50
135.1287634478094901
 51
215.7629064690464133
  0
LINE
  5
1100E
  8
0
 10
4226.3140496101032113
 20
245.2404157999189067
 30
0.0
 11
4226.3665925024715762
 21
245.1674637811987054
 31
0.0
  0
ARC
  5
1100F
  8
0
 10
4226.3855720666879279
 20
245.1811336044235929
 30
0.0
 40
0.0233899107489229
 50
215.7629064690437986
 51
298.5111375685298185
  0
LINE
  5
11010
  8
0
 10
4226.3967367630093577
 20
245.1605803204799088
 30
0.0
 11
4226.4319868383463472
 21
245.1785177831409044
 31
0.0
  0
ARC
  5
11011
  8
0
 10
4226.4293724622702939
 20
245.18261320836001
 30
0.0
 40
0.0048587518962925
 50
302.552735709639478
 51
7.5096575648548978
  0
ARC
  5
11012
  8
0
 10
4226.2907744414860645
 20
245.1460396057418052
 30
0.0
 40
0.1481633255390625
 50
14.5445308669405708
 51
37.6279552065962903
  0
ARC
  5
11013
  8
0
 10
4226.1790021291963058
 20
245.0836857932486907
 30
0.0
 40
0.2754013876233492
 50
33.7018225102987188
 51
49.2153859656821311
  0
ARC
  5
11014
  8
0
 10
4226.3393294271099876
 20
245.2695542889634908
 30
0.0
 40
0.029938687065743
 50
49.1820530302634893
 51
77.4419816031631854
  0
ARC
  5
11015
  8
0
 10
4226.3457300615191343
 20
245.2949514365191135
 30
0.0
 40
0.0038268456154004
 50
88.3696546662011713
 51
132.2471912368687015
  0
LINE
  5
11016
  8
0
 10
4226.239165081318788
 20
245.2380951025477032
 30
0.0
 11
4226.2124930251211481
 21
245.2113028934375052
 31
0.0
  0
ARC
  5
11017
  8
0
 10
4226.2292915358084429
 20
245.1945797177087911
 30
0.0
 40
0.0237034716394979
 50
135.1287634478094901
 51
215.7629064690464133
  0
LINE
  5
11018
  8
0
 10
4226.2100575350050349
 20
245.1807266393190901
 30
0.0
 11
4226.2626004273733997
 21
245.1077746205988035
 31
0.0
  0
ARC
  5
11019
  8
0
 10
4226.2815799915897514
 20
245.1214444438238047
 30
0.0
 40
0.0233899107489229
 50
215.7629064690437986
 51
298.5111375685298185
  0
LINE
  5
1101A
  8
0
 10
4226.2927446879130002
 20
245.1008911598802058
 30
0.0
 11
4226.3279947632463518
 21
245.1188286225410877
 31
0.0
  0
ARC
  5
1101B
  8
0
 10
4226.3253803871721175
 20
245.1229240477601934
 30
0.0
 40
0.0048587518962925
 50
302.552735709639478
 51
7.5096575648548978
  0
ARC
  5
1101C
  8
0
 10
4226.1867823663887975
 20
245.0863504451419033
 30
0.0
 40
0.1481633255390625
 50
14.5445308669405708
 51
37.6279552065962903
  0
ARC
  5
1101D
  8
0
 10
4226.0750100540972198
 20
245.0239966326489025
 30
0.0
 40
0.2754013876233492
 50
33.7018225102987188
 51
49.2153859656821311
  0
ARC
  5
1101E
  8
0
 10
4226.2353373520109017
 20
245.2098651283637025
 30
0.0
 40
0.029938687065743
 50
49.1820530302634893
 51
77.4419816031631854
  0
ARC
  5
1101F
  8
0
 10
4226.2417379864209579
 20
245.2352622759192968
 30
0.0
 40
0.0038268456154004
 50
88.3696546662011713
 51
132.2471912368687015
  0
LINE
  5
11020
  8
0
 10
4226.3749123925717868
 20
245.1433563287860125
 30
0.0
 11
4226.3482403363741469
 21
245.1165641196755871
 31
0.0
  0
ARC
  5
11021
  8
0
 10
4226.3650388470614416
 20
245.0998409439469867
 30
0.0
 40
0.0237034716394979
 50
135.1287634478094901
 51
215.7629064690464133
  0
LINE
  5
11022
  8
0
 10
4226.3458048462580336
 20
245.0859878655573993
 30
0.0
 11
4226.3983477386245795
 21
245.0130358468371128
 31
0.0
  0
ARC
  5
11023
  8
0
 10
4226.4173273028418407
 20
245.026705670062114
 30
0.0
 40
0.0233899107489229
 50
215.7629064690437986
 51
298.5111375685298185
  0
LINE
  5
11024
  8
0
 10
4226.4284919991650895
 20
245.0061523861184014
 30
0.0
 11
4226.4637420744993506
 21
245.024089848779397
 31
0.0
  0
ARC
  5
11025
  8
0
 10
4226.4611276984232973
 20
245.0281852739985027
 30
0.0
 40
0.0048587518962925
 50
302.552735709639478
 51
7.5096575648548978
  0
ARC
  5
11026
  8
0
 10
4226.3225296776408868
 20
244.9916116713802978
 30
0.0
 40
0.1481633255390625
 50
14.5445308669405708
 51
37.6279552065962903
  0
ARC
  5
11027
  8
0
 10
4226.2107573653502186
 20
244.9292578588872118
 30
0.0
 40
0.2754013876233492
 50
33.7018225102987188
 51
49.2153859656821311
  0
ARC
  5
11028
  8
0
 10
4226.3710846632629909
 20
245.1151263546018981
 30
0.0
 40
0.029938687065743
 50
49.1820530302634893
 51
77.4419816031631854
  0
ARC
  5
11029
  8
0
 10
4226.3774852976730472
 20
245.1405235021576061
 30
0.0
 40
0.0038268456154004
 50
88.3696546662011713
 51
132.2471912368687015
  0
LINE
  5
1102A
  8
0
 10
4226.5982478346613789
 20
244.9411572164383983
 30
0.0
 11
4226.57157577846192
 21
244.9143650073280867
 31
0.0
  0
ARC
  5
1102B
  8
0
 10
4226.5883742891492147
 20
244.897641831599401
 30
0.0
 40
0.0237034716394979
 50
135.1287634478094901
 51
215.7629064690464133
  0
LINE
  5
1102C
  8
0
 10
4226.5691402883458068
 20
244.8837887532098136
 30
0.0
 11
4226.6034147187410781
 21
244.836201177133205
 31
0.0
  0
ARC
  5
1102D
  8
0
 10
4226.6406627449296138
 20
244.8245065577143862
 30
0.0
 40
0.0233899107489229
 50
257.1370220187586142
 51
298.5111375685298185
  0
LINE
  5
1102E
  8
0
 10
4226.6518274412519531
 20
244.8039532737707873
 30
0.0
 11
4226.6870775165871237
 21
244.8218907364318966
 31
0.0
  0
ARC
  5
1102F
  8
0
 10
4226.6844631405119799
 20
244.8259861616510022
 30
0.0
 40
0.0048587518962925
 50
302.552735709639478
 51
7.5096575648548978
  0
ARC
  5
11030
  8
0
 10
4226.5458651197295694
 20
244.7894125590327121
 30
0.0
 40
0.1481633255390625
 50
14.5445308669405708
 51
37.6279552065962903
  0
ARC
  5
11031
  8
0
 10
4226.4340928074379917
 20
244.7270587465395977
 30
0.0
 40
0.2754013876233492
 50
33.7018225102987188
 51
49.2153859656821311
  0
ARC
  5
11032
  8
0
 10
4226.5944201053516736
 20
244.9129272422543977
 30
0.0
 40
0.029938687065743
 50
49.1820530302634893
 51
77.4419816031631854
  0
ARC
  5
11033
  8
0
 10
4226.6008207397599108
 20
244.9383243898099067
 30
0.0
 40
0.0038268456154004
 50
88.3696546662011713
 51
132.2471912368687015
  0
LINE
  5
11034
  8
0
 10
4226.5825383250003142
 20
244.8463160752409919
 30
0.0
 11
4226.5558662687999458
 21
244.819523866130595
 31
0.0
  0
ARC
  5
11035
  8
0
 10
4226.5726647794881501
 20
244.8028006904021083
 30
0.0
 40
0.0237034716394979
 50
135.1287634478094901
 51
215.7629064690464133
  0
LINE
  5
11036
  8
0
 10
4226.5534307786847421
 20
244.7889476120124925
 30
0.0
 11
4226.605973671053107
 21
244.7159955932920923
 31
0.0
  0
ARC
  5
11037
  8
0
 10
4226.6249532352676397
 20
244.7296654165170935
 30
0.0
 40
0.0233899107489229
 50
215.7629064690437986
 51
298.5111375685298185
  0
LINE
  5
11038
  8
0
 10
4226.636117931591798
 20
244.7091121325734946
 30
0.0
 11
4226.6713680069269685
 21
244.7270495952344049
 31
0.0
  0
ARC
  5
11039
  8
0
 10
4226.6687536308509152
 20
244.7311450204537095
 30
0.0
 40
0.0048587518962925
 50
302.552735709639478
 51
7.5096575648548978
  0
ARC
  5
1103A
  8
0
 10
4226.5301556100694143
 20
244.6945714178353057
 30
0.0
 40
0.1481633255390625
 50
14.5445308669405708
 51
37.6279552065962903
  0
ARC
  5
1103B
  8
0
 10
4226.4183832977769271
 20
244.6322176053421913
 30
0.0
 40
0.2754013876233492
 50
33.7018225102987188
 51
49.2153859656821311
  0
ARC
  5
1103C
  8
0
 10
4226.5787105956906089
 20
244.818086101057105
 30
0.0
 40
0.029938687065743
 50
49.1820530302634893
 51
77.4419816031631854
  0
ARC
  5
1103D
  8
0
 10
4226.5851112300988461
 20
244.843483248612614
 30
0.0
 40
0.0038268456154004
 50
88.3696546662011713
 51
132.2471912368687015
  0
LINE
  5
1103E
  8
0
 10
4226.8367606292549681
 20
244.6098577005566028
 30
0.0
 11
4226.8100885730545997
 21
244.5830654914462912
 31
0.0
  0
ARC
  5
1103F
  8
0
 10
4226.8268870837437134
 20
244.5663423157176908
 30
0.0
 40
0.0237034716394979
 50
135.1287634478094901
 51
215.7629064690464133
  0
LINE
  5
11040
  8
0
 10
4226.8076530829403055
 20
244.5524892373281034
 30
0.0
 11
4226.8601959753077608
 21
244.4795372186077884
 31
0.0
  0
ARC
  5
11041
  8
0
 10
4226.8791755395241125
 20
244.4932070418327044
 30
0.0
 40
0.0233899107489229
 50
215.7629064690437986
 51
298.5111375685298185
  0
LINE
  5
11042
  8
0
 10
4226.8903402358473613
 20
244.4726537578891907
 30
0.0
 11
4226.9255903111816224
 21
244.4905912205499874
 31
0.0
  0
ARC
  5
11043
  8
0
 10
4226.9229759351055691
 20
244.4946866457692067
 30
0.0
 40
0.0048587518962925
 50
302.552735709639478
 51
7.5096575648548978
  0
ARC
  5
11044
  8
0
 10
4226.7843779143240681
 20
244.4581130431508882
 30
0.0
 40
0.1481633255390625
 50
14.5445308669405708
 51
37.6279552065962903
  0
ARC
  5
11045
  8
0
 10
4226.6726056020315809
 20
244.3957592306578874
 30
0.0
 40
0.2754013876233492
 50
33.7018225102987188
 51
49.2153859656821311
  0
ARC
  5
11046
  8
0
 10
4226.8329328999461723
 20
244.5816277263726022
 30
0.0
 40
0.029938687065743
 50
49.1820530302634893
 51
77.4419816031631854
  0
ARC
  5
11047
  8
0
 10
4226.839333534355319
 20
244.6070248739281965
 30
0.0
 40
0.0038268456154004
 50
88.3696546662011713
 51
132.2471912368687015
  0
LINE
  5
11048
  8
0
 10
4226.7639010010007041
 20
244.58437638354971
 30
0.0
 11
4226.7372289448030642
 21
244.5575841744393983
 31
0.0
  0
ARC
  5
11049
  8
0
 10
4226.754027455490359
 20
244.5408609987107127
 30
0.0
 40
0.0237034716394979
 50
135.1287634478094901
 51
215.7629064690464133
  0
LINE
  5
1104A
  8
0
 10
4226.734793454686951
 20
244.5270079203210969
 30
0.0
 11
4226.7873363470553159
 21
244.4540559016006966
 31
0.0
  0
ARC
  5
1104B
  8
0
 10
4226.8063159112716676
 20
244.4677257248258115
 30
0.0
 40
0.0233899107489229
 50
215.7629064690437986
 51
298.5111375685298185
  0
LINE
  5
1104C
  8
0
 10
4226.8174806075940069
 20
244.4471724408820137
 30
0.0
 11
4226.8527306829282679
 21
244.4651099035430946
 31
0.0
  0
ARC
  5
1104D
  8
0
 10
4226.8501163068540336
 20
244.4692053287623139
 30
0.0
 40
0.0048587518962925
 50
302.552735709639478
 51
7.5096575648548978
  0
ARC
  5
1104E
  8
0
 10
4226.7115182860698042
 20
244.4326317261439954
 30
0.0
 40
0.1481633255390625
 50
14.5445308669405708
 51
37.6279552065962903
  0
ARC
  5
1104F
  8
0
 10
4226.5997459737782265
 20
244.3702779136509093
 30
0.0
 40
0.2754013876233492
 50
37.9820443603674605
 51
49.2153859656821311
  0
ARC
  5
11050
  8
0
 10
4226.7600732716928178
 20
244.5561464093657094
 30
0.0
 40
0.029938687065743
 50
49.1820530302634893
 51
77.4419816031631854
  0
ARC
  5
11051
  8
0
 10
4226.7664739061019645
 20
244.58154355692119
 30
0.0
 40
0.0038268456154004
 50
88.3696546662011713
 51
132.2471912368687015
  0
LINE
  5
11052
  8
0
 10
4226.8256692708282571
 20
244.4278120569935027
 30
0.0
 11
4226.7989972146278888
 21
244.4010198478831057
 31
0.0
  0
ARC
  5
11053
  8
0
 10
4226.815795725316093
 20
244.3842966721545054
 30
0.0
 40
0.0237034716394979
 50
135.1287634478094901
 51
215.7629064690464133
  0
LINE
  5
11054
  8
0
 10
4226.7965617245117755
 20
244.3704435937648896
 30
0.0
 11
4226.8491046168810499
 21
244.297491575044603
 31
0.0
  0
ARC
  5
11055
  8
0
 10
4226.8680841810983111
 20
244.3111613982694053
 30
0.0
 40
0.0233899107489229
 50
215.7629064690437986
 51
298.5111375685298185
  0
LINE
  5
11056
  8
0
 10
4226.8792488774188314
 20
244.2906081143258916
 30
0.0
 11
4226.9144989527540019
 21
244.3085455769868872
 31
0.0
  0
ARC
  5
11057
  8
0
 10
4226.9118845766788581
 20
244.3126410022059929
 30
0.0
 40
0.0048587518962925
 50
302.552735709639478
 51
7.5096575648548978
  0
ARC
  5
11058
  8
0
 10
4226.7732865558964477
 20
244.276067399587788
 30
0.0
 40
0.1481633255390625
 50
14.5445308669405708
 51
37.6279552065962903
  0
ARC
  5
11059
  8
0
 10
4226.66151424360487
 20
244.213713587094702
 30
0.0
 40
0.2754013876233492
 50
33.7018225102987188
 51
49.2153859656821311
  0
ARC
  5
1105A
  8
0
 10
4226.8218415415203708
 20
244.3995820828093883
 30
0.0
 40
0.029938687065743
 50
49.1820530302634893
 51
77.4419816031631854
  0
ARC
  5
1105B
  8
0
 10
4226.828242175928608
 20
244.4249792303650963
 30
0.0
 40
0.0038268456154004
 50
88.3696546662011713
 51
132.2471912368687015
  0
LINE
  5
1105C
  8
0
 10
4227.0278393333146596
 20
244.342129170598497
 30
0.0
 11
4227.0011672771152007
 21
244.3153369614882138
 31
0.0
  0
ARC
  5
1105D
  8
0
 10
4227.017965787801586
 20
244.2986137857594997
 30
0.0
 40
0.0237034716394979
 50
135.1287634478094901
 51
215.7629064690464133
  0
LINE
  5
1105E
  8
0
 10
4226.9987317869990875
 20
244.2847607073699123
 30
0.0
 11
4227.0512746793683618
 21
244.211808688649711
 31
0.0
  0
ARC
  5
1105F
  8
0
 10
4227.0702542435838041
 20
244.2254785118747122
 30
0.0
 40
0.0233899107489229
 50
215.7629064690437986
 51
298.5111375685298185
  0
LINE
  5
11060
  8
0
 10
4227.0814189399061434
 20
244.204925227930886
 30
0.0
 11
4227.1166690152413139
 21
244.2228626905919953
 31
0.0
  0
ARC
  5
11061
  8
0
 10
4227.1140546391661701
 20
244.2269581158111862
 30
0.0
 40
0.0048587518962925
 50
302.552735709639478
 51
7.5096575648548978
  0
ARC
  5
11062
  8
0
 10
4226.9754566183837596
 20
244.1903845131928108
 30
0.0
 40
0.1481633255390625
 50
14.5445308669405708
 51
37.6279552065962903
  0
ARC
  5
11063
  8
0
 10
4226.8636843060921819
 20
244.1280307006996964
 30
0.0
 40
0.2754013876233492
 50
33.7018225102987188
 51
49.2153859656821311
  0
ARC
  5
11064
  8
0
 10
4227.0240116040049543
 20
244.3138991964144964
 30
0.0
 40
0.029938687065743
 50
49.1820530302634893
 51
77.4419816031631854
  0
ARC
  5
11065
  8
0
 10
4227.0304122384150105
 20
244.3392963439700054
 30
0.0
 40
0.0038268456154004
 50
88.3696546662011713
 51
132.2471912368687015
  0
LINE
  5
11066
  8
0
 10
4226.9892556938602866
 20
244.2771163865679966
 30
0.0
 11
4226.9625836376617372
 21
244.2503241774577987
 31
0.0
  0
ARC
  5
11067
  8
0
 10
4226.9793821483490319
 20
244.233601001729113
 30
0.0
 40
0.0237034716394979
 50
135.1287634478094901
 51
215.7629064690464133
  0
LINE
  5
11068
  8
0
 10
4226.9601481475447144
 20
244.2197479233394972
 30
0.0
 11
4227.0126910399148983
 21
244.1467959046192107
 31
0.0
  0
ARC
  5
11069
  8
0
 10
4227.0316706041303405
 20
244.1604657278442119
 30
0.0
 40
0.0233899107489229
 50
215.7629064690437986
 51
298.5111375685298185
  0
LINE
  5
1106A
  8
0
 10
4227.0428353004517703
 20
244.1399124439004993
 30
0.0
 11
4227.0780853757869409
 21
244.1578499065616086
 31
0.0
  0
ARC
  5
1106B
  8
0
 10
4227.0754709997127065
 20
244.1619453317806858
 30
0.0
 40
0.0048587518962925
 50
302.552735709639478
 51
7.5096575648548978
  0
ARC
  5
1106C
  8
0
 10
4226.9368729789293866
 20
244.1253717291623957
 30
0.0
 40
0.1481633255390625
 50
14.5445308669405708
 51
31.7210843832889786
  0
ARC
  5
1106D
  8
0
 10
4226.8251006666387184
 20
244.0630179166693949
 30
0.0
 40
0.2754013876233492
 50
46.6049504888702373
 51
49.2153859656821311
  0
ARC
  5
1106E
  8
0
 10
4226.9854279645524002
 20
244.2488864123841097
 30
0.0
 40
0.029938687065743
 50
49.1820530302634893
 51
77.4419816031631854
  0
ARC
  5
1106F
  8
0
 10
4226.9918285989606375
 20
244.2742835599395903
 30
0.0
 40
0.0038268456154004
 50
88.3696546662011713
 51
132.2471912368687015
  0
LINE
  5
11070
  8
0
 10
4227.1668152070069482
 20
244.1693057678741923
 30
0.0
 11
4227.1401431508093083
 21
244.1425135587637953
 31
0.0
  0
ARC
  5
11071
  8
0
 10
4227.156941661496603
 20
244.125790383035195
 30
0.0
 40
0.0237034716394979
 50
135.1287634478094901
 51
215.7629064690464133
  0
LINE
  5
11072
  8
0
 10
4227.1377076606931951
 20
244.1119373046454939
 30
0.0
 11
4227.1902505530597409
 21
244.0389852859252073
 31
0.0
  0
ARC
  5
11073
  8
0
 10
4227.2092301172770021
 20
244.0526551091502085
 30
0.0
 40
0.0233899107489229
 50
215.7629064690437986
 51
298.5111375685298185
  0
LINE
  5
11074
  8
0
 10
4227.2203948136002509
 20
244.0321018252066096
 30
0.0
 11
4227.2556448889336025
 21
244.0500392878676053
 31
0.0
  0
ARC
  5
11075
  8
0
 10
4227.2530305128593682
 20
244.0541347130867109
 30
0.0
 40
0.0048587518962925
 50
302.552735709639478
 51
7.5096575648548978
  0
ARC
  5
11076
  8
0
 10
4227.1144324920769577
 20
244.0175611104683924
 30
0.0
 40
0.1481633255390625
 50
14.5445308669405708
 51
37.6279552065962903
  0
ARC
  5
11077
  8
0
 10
4227.00266017978538
 20
243.9552072979753916
 30
0.0
 40
0.2754013876233492
 50
33.7018225102987188
 51
49.2153859656821311
  0
ARC
  5
11078
  8
0
 10
4227.1629874776990619
 20
244.1410757936901064
 30
0.0
 40
0.029938687065743
 50
49.1820530302634893
 51
77.4419816031631854
  0
ARC
  5
11079
  8
0
 10
4227.1693881121082086
 20
244.1664729412457007
 30
0.0
 40
0.0038268456154004
 50
88.3696546662011713
 51
132.2471912368687015
  0
LINE
  5
1107A
  8
0
 10
4225.1154139423915694
 20
246.9331669904597959
 30
0.0
 11
4225.1298656022809155
 21
246.8999566117780944
 31
0.0
  0
LINE
  5
1107B
  8
0
 10
4225.1807395614514462
 20
246.797578917314496
 30
0.0
 11
4225.1975926819677625
 21
246.7608141093749907
 31
0.0
  0
LINE
  5
1107C
  8
0
 10
4225.2563466145757047
 20
246.6251843598074913
 30
0.0
 11
4225.2809980625179378
 21
246.5752167340637016
 31
0.0
  0
LINE
  5
1107D
  8
0
 10
4225.1434923943688773
 20
246.8489475443957133
 30
0.0
 11
4225.1128492716134133
 21
246.8193476527671066
 31
0.0
  0
ARC
  5
1107E
  8
0
 10
4225.1292611448316165
 20
246.8023573525310894
 30
0.0
 40
0.0236224445110125
 50
134.0079054395440892
 51
216.0594193035074966
  0
LINE
  5
1107F
  8
0
 10
4225.1101645955832282
 20
246.7884526162359009
 30
0.0
 11
4225.1640175551401626
 21
246.7144917965119078
 31
0.0
  0
LINE
  5
11080
  8
0
 10
4225.263145474198609
 20
246.6114033083300114
 30
0.0
 11
4225.2254884282883722
 21
246.5750132444310054
 31
0.0
  0
ARC
  5
11081
  8
0
 10
4225.2419035335988156
 20
246.5580266192922068
 30
0.0
 40
0.0236220472421177
 50
134.0197370422609993
 51
215.9999997983647972
  0
LINE
  5
11082
  8
0
 10
4225.2227928958891425
 20
246.5441419283615119
 30
0.0
 11
4225.2496024268803012
 21
246.5072417743344033
 31
0.0
  0
LINE
  5
11083
  8
0
 10
4225.2689052029254526
 20
246.5541505211189985
 30
0.0
 11
4225.2523038118288241
 21
246.5381187441055033
 31
0.0
  0
ARC
  5
11084
  8
0
 10
4225.2687130650747349
 20
246.5211264649263114
 30
0.0
 40
0.0236220478325621
 50
133.9999999730810032
 51
216.0122167608963935
  0
LINE
  5
11085
  8
0
 10
4225.2496053879021929
 20
246.5072376990750911
 30
0.0
 11
4225.3018439971447151
 21
246.435369651758208
 31
0.0
  0
ARC
  5
11086
  8
0
 10
4225.3209687264588865
 20
246.449270812271692
 30
0.0
 40
0.0236431287051774
 50
216.012216760889288
 51
281.6348081591406753
  0
ARC
  5
11087
  8
0
 10
4225.4277186091348995
 20
246.3186101515194935
 30
0.0
 40
0.0931334732643598
 50
34.6669646312151229
 51
49.0697954154607103
  0
ARC
  5
11088
  8
0
 10
4225.4857025611891004
 20
246.3854773951362063
 30
0.0
 40
0.0046271629532648
 50
49.0697954154569089
 51
111.7227949269566949
  0
LINE
  5
11089
  8
0
 10
4225.4839899723883718
 20
246.389775961942604
 30
0.0
 11
4225.4493705222203062
 21
246.3559177358538932
 31
0.0
  0
ARC
  5
1108A
  8
0
 10
4225.465887290106366
 20
246.3390286811120973
 30
0.0
 40
0.0236209487287817
 50
134.3612172739863126
 51
215.993879503884898
  0
LINE
  5
1108B
  8
0
 10
4225.4467760581374023
 20
246.3251466772404115
 30
0.0
 11
4225.4786898499996823
 21
246.2812112422028861
 31
0.0
  0
LINE
  5
1108C
  8
0
 10
4225.4123865409937935
 20
246.3201091946949077
 30
0.0
 11
4225.4564186359657469
 21
246.25949811023861
 31
0.0
  0
LINE
  5
1108D
  8
0
 10
4225.5372813497369862
 20
246.1480763143918864
 30
0.0
 11
4225.6199378818691912
 21
246.0343093579606943
 31
0.0
  0
LINE
  5
1108E
  8
0
 10
4225.6476597290593418
 20
246.0604341716637862
 30
0.0
 11
4225.6188938589903046
 21
246.0335508310446073
 31
0.0
  0
ARC
  5
1108F
  8
0
 10
4225.6347270534033669
 20
246.0166089033382946
 30
0.0
 40
0.0231887679646615
 50
133.0625084343228934
 51
216.9468355230515044
  0
LINE
  5
11090
  8
0
 10
4225.6161947387454347
 20
246.0026707444513079
 30
0.0
 11
4225.6683766054793523
 21
245.9308485664712975
 31
0.0
  0
ARC
  5
11091
  8
0
 10
4225.6875293568700727
 20
245.944675292880504
 30
0.0
 40
0.0236220471989614
 50
216.0000000014753994
 51
298.0000000015190835
  0
LINE
  5
11092
  8
0
 10
4225.698619236284685
 20
245.9238182631681013
 30
0.0
 11
4225.7280027527776838
 21
245.9394417560241095
 31
0.0
  0
ARC
  5
11093
  8
0
 10
4225.7236523716319425
 20
245.9429611619825948
 30
0.0
 40
0.0055957157209835
 50
321.0275582300085944
 51
17.0747116990586782
  0
ARC
  5
11094
  8
0
 10
4225.1353578260568611
 20
245.7647029134957961
 30
0.0
 40
0.6203041233463829
 50
16.8592163226696314
 51
19.7329468330685209
  0
LINE
  5
11095
  8
0
 10
4225.6959628729318865
 20
245.9226100051940023
 30
0.0
 11
4225.800314049395638
 21
245.7789827397133138
 31
0.0
  0
LINE
  5
11096
  8
0
 10
4225.8830575887732266
 20
245.6643540357360109
 30
0.0
 11
4226.010413773298751
 21
245.4897606565390049
 31
0.0
  0
LINE
  5
11097
  8
0
 10
4226.0893625612416145
 20
245.381141980175812
 30
0.0
 11
4226.2124930251211481
 21
245.2113028934375052
 31
0.0
  0
LINE
  5
11098
  8
0
 10
4226.2928946357269524
 20
245.1009674627902939
 30
0.0
 11
4226.4037231315041936
 21
244.9484618398984992
 31
0.0
  0
LINE
  5
11099
  8
0
 10
4226.4296312112719534
 20
244.9737305639839064
 30
0.0
 11
4226.4037231315041936
 21
244.9484618398984992
 31
0.0
  0
ARC
  5
1109A
  8
0
 10
4226.4180968621058128
 20
244.933724421509794
 30
0.0
 40
0.0205862971945552
 50
134.2842367282750899
 51
222.7981555060727885
  0
LINE
  5
1109B
  8
0
 10
4226.402991630780889
 20
244.9197377271617029
 30
0.0
 11
4226.4548506897999687
 21
244.848359855945489
 31
0.0
  0
ARC
  5
1109C
  8
0
 10
4226.4743268669317331
 20
244.8617563319970998
 30
0.0
 40
0.023638676914929
 50
214.5217138687484066
 51
290.9068225039665094
  0
LINE
  5
1109D
  8
0
 10
4226.4827623107612453
 20
244.8396739785513887
 30
0.0
 11
4226.5254934761651384
 21
244.8621904287795985
 31
0.0
  0
ARC
  5
1109E
  8
0
 10
4226.5141008657437851
 20
244.8665757936398961
 30
0.0
 40
0.012207497580106
 50
338.9467553394072752
 51
44.9548296416322515
  0
ARC
  5
1109F
  8
0
 10
4226.2272739601812646
 20
244.6966692092784967
 30
0.0
 40
0.3452152719169461
 50
31.1419906124567412
 51
53.4015190734570808
  0
ARC
  5
110A0
  8
0
 10
4226.4314429511177877
 20
244.9706204051298926
 30
0.0
 40
0.0035993734690057
 50
62.722525888570452
 51
120.2217945919175008
  0
LINE
  5
110A1
  8
0
 10
4226.4827311987282883
 20
244.8397168005602964
 30
0.0
 11
4226.5667058052322318
 21
244.7241357474171082
 31
0.0
  0
LINE
  5
110A2
  8
0
 10
4226.5862702764407004
 20
244.7433523364749135
 30
0.0
 11
4226.5667058052322318
 21
244.7241357474171082
 31
0.0
  0
ARC
  5
110A3
  8
0
 10
4226.5849153854242104
 20
244.7093006267440956
 30
0.0
 40
0.0234876481624117
 50
140.8307200220012021
 51
216.1328267687320022
  0
LINE
  5
110A4
  8
0
 10
4226.5659455351842553
 20
244.6954509192366061
 30
0.0
 11
4226.6166172255352649
 21
244.6257073208238069
 31
0.0
  0
ARC
  5
110A5
  8
0
 10
4226.637833080537348
 20
244.6384362324340032
 30
0.0
 40
0.0247414165776969
 50
210.9625623081454933
 51
246.5336918071645016
  0
ARC
  5
110A6
  8
0
 10
4226.6373353485587359
 20
244.6372896839972952
 30
0.0
 40
0.0234914924039729
 50
246.5336918071645016
 51
301.4295844922580727
  0
LINE
  5
110A7
  8
0
 10
4226.6495849940993139
 20
244.6172448243194992
 30
0.0
 11
4226.6911665079287559
 21
244.6393565793634082
 31
0.0
  0
ARC
  5
110A8
  8
0
 10
4226.6905589890611736
 20
244.6403238915214047
 30
0.0
 40
0.0011422661627704
 50
302.1308103410407284
 51
350.4305580655297945
  0
ARC
  5
110A9
  8
0
 10
4226.6762396752974382
 20
244.6388487451289109
 30
0.0
 40
0.0154990665314647
 50
4.7566877858968004
 51
34.6413157217639878
  0
ARC
  5
110AA
  8
0
 10
4226.327020040655043
 20
244.4008698177941881
 30
0.0
 40
0.4380958740826622
 50
34.2858693174092366
 51
44.85408481579951
  0
LINE
  5
110AB
  8
0
 10
4226.6946705065420247
 20
244.5551876387536083
 30
0.0
 11
4226.6495849941193228
 21
244.6172448243304984
 31
0.0
  0
LINE
  5
110AC
  8
0
 10
4226.7144407546620641
 20
244.5742795455215912
 30
0.0
 11
4226.6936814946111554
 21
244.5542325610103092
 31
0.0
  0
ARC
  5
110AD
  8
0
 10
4226.7101417243129617
 20
244.5371874942736952
 30
0.0
 40
0.0236954312452673
 50
134.000000154402187
 51
220.1846615901667974
  0
LINE
  5
110AE
  8
0
 10
4226.6920391542817015
 20
244.5218979416268041
 30
0.0
 11
4226.7432063549013037
 21
244.4514723319755944
 31
0.0
  0
ARC
  5
110AF
  8
0
 10
4226.7623169925445836
 20
244.4653570230300943
 30
0.0
 40
0.0236220472617827
 50
216.0000001348996932
 51
297.9999997014106157
  0
LINE
  5
110B0
  8
0
 10
4226.77340687188007
 20
244.4444999932040901
 30
0.0
 11
4226.7885265867753333
 21
244.4525392881164976
 31
0.0
  0
ARC
  5
110B1
  8
0
 10
4226.7886923156038392
 20
244.4290545050471053
 30
0.0
 40
0.0236220471989542
 50
144.2317717242777917
 51
216.0000000014842101
  0
LINE
  5
110B2
  8
0
 10
4226.7695816779796587
 20
244.4151698140740905
 30
0.0
 11
4226.7920925106300274
 21
244.3841863110006898
 31
0.0
  0
LINE
  5
110B3
  8
0
 10
4226.9126179514460091
 20
244.3075884048267028
 30
0.0
 11
4226.9362703163087644
 21
244.2750338049899881
 31
0.0
  0
ARC
  5
110B4
  8
0
 10
4226.9553821847011932
 20
244.288919427504112
 30
0.0
 40
0.0236235904561761
 50
216.0000732626861009
 51
297.8716986340514836
  0
LINE
  5
110B5
  8
0
 10
4226.9664260530571482
 20
244.2680362525111946
 30
0.0
 11
4226.9985841922170948
 21
244.2850427783662042
 31
0.0
  0
ARC
  5
110B6
  8
0
 10
4226.3711816731038198
 20
243.6788998771534978
 30
0.0
 40
0.8955076904079131
 50
45.2918767959128701
 51
53.2393195766325817
  0
ARC
  5
110B7
  8
0
 10
4226.9051754347392489
 20
244.3937262646192892
 30
0.0
 40
0.0032487023986005
 50
53.2393195766325817
 51
128.637798243381809
  0
LINE
  5
110B8
  8
0
 10
4226.9031469610981731
 20
244.3962638544130073
 30
0.0
 11
4226.8838488381197749
 21
244.3762351314717023
 31
0.0
  0
LINE
  5
110B9
  8
0
 10
4227.0361833144879711
 20
244.1375152731631886
 30
0.0
 11
4227.0501098331842513
 21
244.118347064644297
 31
0.0
  0
ARC
  5
110BA
  8
0
 10
4227.0755772758393505
 20
244.1368502448405877
 30
0.0
 40
0.0314794903512681
 50
216.0000000408332141
 51
285.2653062511001281
  0
LINE
  5
110BB
  8
0
 10
4227.0838654775689065
 20
244.1064814446527009
 30
0.0
 11
4227.1316287152430959
 21
244.1318776085342961
 31
0.0
  0
LINE
  5
110BC
  8
0
 10
4227.1316287152430959
 20
244.1318776085342961
 30
0.0
 11
4227.0922907045178363
 21
244.1678275808181979
 31
0.0
  0
LINE
  5
110BD
  8
0
 10
4227.0803058060282638
 20
244.1614635456396059
 30
0.0
 11
4227.1013755342673903
 21
244.1726516664085977
 31
0.0
  0
ARC
  5
110BE
  8
0
 10
4227.1001581085865837
 20
244.1729911729381968
 30
0.0
 40
0.0012638789384519
 50
344.4176761337567996
 51
40.0089541832223219
  0
LINE
  5
110BF
  8
0
 10
4227.101126169048257
 20
244.1738037299583937
 30
0.0
 11
4227.0757185388383732
 21
244.2027358338831107
 31
0.0
  0
ARC
  5
110C0
  8
0
 10
4227.2213384858432619
 20
244.0253031232402066
 30
0.0
 40
0.0212813808308213
 50
164.9168748885948048
 51
213.3800439746177915
  0
LINE
  5
110C1
  8
0
 10
4227.2035676912955751
 20
244.0135943217985073
 30
0.0
 11
4227.2579976826809798
 21
243.9385806949080973
 31
0.0
  0
ARC
  5
110C2
  8
0
 10
4227.2771676181819203
 20
243.9523928939300959
 30
0.0
 40
0.0236275954968363
 50
215.7732624485323925
 51
297.9715009629026099
  0
LINE
  5
110C3
  8
0
 10
4227.2882497242271711
 20
243.9315254505179098
 30
0.0
 11
4227.3376584629113495
 21
243.9577650272040046
 31
0.0
  0
LINE
  5
110C4
  8
0
 10
4227.3376584629113495
 20
243.9577650272040046
 30
0.0
 11
4227.2411369590427057
 21
244.0426567376671869
 31
0.0
  0
LINE
  5
110C5
  8
0
 10
4227.3165651441086084
 20
243.9464922749332061
 30
0.0
 11
4227.5102664527630623
 21
243.7889831704985966
 31
0.0
  0
ARC
  5
110C6
  8
0
 10
4225.4259312809763287
 20
246.3073898711236893
 30
0.0
 40
0.0078740155957904
 50
152.8694885253484017
 51
204.2027949853429902
  0
LINE
  5
110C7
  8
0
 10
4225.4187493904182702
 20
246.3041617804134944
 30
0.0
 11
4225.4488568739652692
 21
246.2383933732957928
 31
0.0
  0
ARC
  5
110C8
  8
0
 10
4225.4720328679495651
 20
246.2409694103178026
 30
0.0
 40
0.0232805254511569
 50
152.2819780787029913
 51
186.6229952774934873
  0
ARC
  5
110C9
  8
0
 10
4225.4751750303021254
 20
246.2413342489340948
 30
0.0
 40
0.0264437977226035
 50
186.6229952774951926
 51
223.5462645550740035
  0
LINE
  5
110CA
  8
0
 10
4225.4560080815326728
 20
246.2231160571220983
 30
0.0
 11
4225.4689194511884125
 21
246.1958520991985893
 31
0.0
  0
ARC
  5
110CB
  8
0
 10
4225.4653742671889631
 20
246.1941391352731898
 30
0.0
 40
0.0039373309489015
 50
308.501705861849473
 51
25.7889295731110693
  0
LINE
  5
110CC
  8
0
 10
4225.4678254050750184
 20
246.191057820932599
 30
0.0
 11
4225.4339670799899977
 21
246.1641265242101895
 31
0.0
  0
ARC
  5
110CD
  8
0
 10
4225.4437704680167371
 20
246.1518019909032091
 30
0.0
 40
0.0157480328330823
 50
128.4976866325895912
 51
216.0182436435912052
  0
LINE
  5
110CE
  8
0
 10
4225.4310329898371492
 20
246.1425414732206036
 30
0.0
 11
4225.6728969916748611
 21
245.809867042780013
 31
0.0
  0
ARC
  5
110CF
  8
0
 10
4225.6856441025511231
 20
245.8191345637144991
 30
0.0
 40
0.0157599422579079
 50
216.0182436435922
 51
302.9818329711866909
  0
LINE
  5
110D0
  8
0
 10
4225.6942233909630886
 20
245.8059144430525009
 30
0.0
 11
4225.6998632459071814
 21
245.8095744657861985
 31
0.0
  0
ARC
  5
110D1
  8
0
 10
4225.6942845340190615
 20
245.8129475599259877
 30
0.0
 40
0.0065191863301918
 50
328.8413008471105172
 51
13.0600633549207696
  0
ARC
  5
110D2
  8
0
 10
4225.427080526033933
 20
245.742203131373202
 30
0.0
 40
0.2829266348911503
 50
14.7885168169972498
 51
27.1128327711562385
  0
ARC
  5
110D3
  8
0
 10
4224.6855657899177459
 20
245.3971989593221963
 30
0.0
 40
1.100622970571173
 50
25.5066886199376093
 51
32.9594563441680819
  0
ARC
  5
110D4
  8
0
 10
4225.4464153206918127
 20
245.8953756314062957
 30
0.0
 40
0.1912401754808093
 50
31.7425984047172491
 51
44.8567710439335485
  0
ARC
  5
110D5
  8
0
 10
4225.5787952653236061
 20
246.027324312341193
 30
0.0
 40
0.0043344727700377
 50
42.711042810236151
 51
105.0497085168137943
  0
LINE
  5
110D6
  8
0
 10
4225.5776697892897573
 20
246.0315101166710861
 30
0.0
 11
4225.5476768156213438
 21
246.0076526280957125
 31
0.0
  0
ARC
  5
110D7
  8
0
 10
4225.5574895194176861
 20
245.9952962939325118
 30
0.0
 40
0.0157787245922158
 50
128.4546214119532976
 51
210.1251818318083053
  0
LINE
  5
110D8
  8
0
 10
4225.6050347548953141
 20
245.9032088828122085
 30
0.0
 11
4225.5888377780947849
 21
245.8900434637371006
 31
0.0
  0
ARC
  5
110D9
  8
0
 10
4225.5938042958141523
 20
245.8839333223289998
 30
0.0
 40
0.0078740158919653
 50
129.1053109047578005
 51
174.8070825457197088
  0
LINE
  5
110DA
  8
0
 10
4225.5859625980747296
 20
245.8846459953697092
 30
0.0
 11
4225.5826714271433957
 21
245.8484325199167131
 31
0.0
  0
ARC
  5
110DB
  8
0
 10
4225.6023101347500415
 20
245.8466477052078005
 30
0.0
 40
0.0197196450280902
 50
174.8070825457180888
 51
210.8940577711717026
  0
LINE
  5
110DC
  8
0
 10
4225.5853883492191017
 20
245.8365226089385942
 30
0.0
 11
4225.5873674601270977
 21
245.8332149771437969
 31
0.0
  0
LINE
  5
110DD
  8
0
 10
4225.5876771082375853
 20
245.8334768301135114
 30
0.0
 11
4225.5821735453037036
 21
245.8291369894280081
 31
0.0
  0
ARC
  5
110DE
  8
0
 10
4225.5858306038817318
 20
245.824499295674002
 30
0.0
 40
0.0059061223149838
 50
128.2575850522283076
 51
209.7119443837898132
  0
LINE
  5
110DF
  8
0
 10
4225.5807009700511117
 20
245.8215719867440043
 30
0.0
 11
4225.6724257055848284
 21
245.6682456732818878
 31
0.0
  0
LINE
  5
110E0
  8
0
 10
4225.6205370738689453
 20
245.7532009066293881
 30
0.0
 11
4225.5976291912211309
 21
245.7337583327106927
 31
0.0
  0
ARC
  5
110E1
  8
0
 10
4225.6052719329636602
 20
245.7247534019996067
 30
0.0
 40
0.0118110235994801
 50
130.3222174398146933
 51
216.00000000148151
  0
LINE
  5
110E2
  8
0
 10
4225.5957166141506605
 20
245.7178110565131135
 30
0.0
 11
4225.7327825027041399
 21
245.5291560456066122
 31
0.0
  0
ARC
  5
110E3
  8
0
 10
4225.7423378215626144
 20
245.5360983911263872
 30
0.0
 40
0.011811023655988
 50
216.0000000014842101
 51
301.9996924439765849
  0
LINE
  5
110E4
  8
0
 10
4225.7485966567619471
 20
245.5260820414046066
 30
0.0
 11
4225.7612516766339468
 21
245.5339896810158109
 31
0.0
  0
LINE
  5
110E5
  8
0
 10
4225.5859625980747296
 20
245.8846459953697092
 30
0.0
 11
4226.3336251594100759
 21
244.8555767634092035
 31
0.0
  0
LINE
  5
110E6
  8
0
 10
4226.614764055415435
 20
244.6282613286055891
 30
0.0
 11
4226.554616870060272
 21
244.6858212664047016
 31
0.0
  0
LINE
  5
110E7
  8
0
 10
4226.5581720588943426
 20
244.6881744349659868
 30
0.0
 11
4226.5231505201245454
 21
244.6649941437486007
 31
0.0
  0
ARC
  5
110E8
  8
0
 10
4226.5144585958505559
 20
244.6781261859694041
 30
0.0
 40
0.0157480183033368
 50
215.9999542059150883
 51
303.5000459314991872
  0
LINE
  5
110E9
  8
0
 10
4226.5017181740167871
 20
244.6688697432408048
 30
0.0
 11
4226.3736513261228538
 21
244.8451389335650958
 31
0.0
  0
ARC
  5
110EA
  8
0
 10
4226.3863927795973723
 20
244.8543961258249908
 30
0.0
 40
0.0157492934831676
 50
129.4742509328972915
 51
215.9999542059831867
  0
ARC
  5
110EB
  8
0
 10
4226.4330485745385886
 20
244.7977462693849873
 30
0.0
 40
0.0891384577801339
 50
127.2994934086442953
 51
129.4742509328972915
  0
ARC
  5
110EC
  8
0
 10
4226.3770343395899545
 20
244.8712768117486007
 30
0.0
 40
0.0032971153345445
 50
307.2994934086464127
 51
2.71763615279876
  0
ARC
  5
110ED
  8
0
 10
4226.3856788278289969
 20
244.8750707334936862
 30
0.0
 40
0.0064704055970483
 50
188.4836698411787097
 51
214.2073359421225973
  0
ARC
  5
110EE
  8
0
 10
4226.3797521382657578
 20
244.8740579370455919
 30
0.0
 40
0.0004764884055941
 50
76.3910848235392734
 51
172.9801041139791096
  0
ARC
  5
110EF
  8
0
 10
4226.3556557217298177
 20
244.8264573812625997
 30
0.0
 40
0.0538160665040151
 50
47.7558508859378676
 51
63.266686243234517
  0
ARC
  5
110F0
  8
0
 10
4225.8621171964250607
 20
244.2454066884955068
 30
0.0
 40
0.8161532946027156
 50
45.9361569365075724
 51
49.5305119842898876
  0
ARC
  5
110F1
  8
0
 10
4225.1194796247236809
 20
243.4547327186978976
 30
0.0
 40
1.90084796831408
 50
41.0048123829908704
 51
46.4259168982657329
  0
ARC
  5
110F2
  8
0
 10
4226.4930584912563063
 20
244.6492282844263002
 30
0.0
 40
0.0805354521011736
 50
29.6399674664516084
 51
40.8656995772793081
  0
ARC
  5
110F3
  8
0
 10
4226.5615152188229331
 20
244.6882722070112948
 30
0.0
 40
0.0017290176740934
 50
345.2602441552131722
 51
26.9921417193883606
  0
ARC
  5
110F4
  8
0
 10
4226.5627820206436809
 20
244.6881278082944959
 30
0.0
 40
0.0005016070686436
 50
266.4323942030459875
 51
323.9044479164625159
  0
ARC
  5
110F5
  8
0
 10
4226.5601144195115921
 20
244.6849974608049934
 30
0.0
 40
0.0037236983739939
 50
44.927369710433112
 51
121.4410721936919941
  0
ARC
  5
110F6
  8
0
 10
4226.3586434206526974
 20
244.8527887745260898
 30
0.0
 40
0.0224513049069269
 50
37.8123742184463794
 51
61.8803073423993482
  0
ARC
  5
110F7
  8
0
 10
4226.3670202077328213
 20
244.8650310196022986
 30
0.0
 40
0.0078740158444168
 50
73.7388387460930375
 51
122.9999974983659996
  0
LINE
  5
110F8
  8
0
 10
4226.3627317116288395
 20
244.8716347251298089
 30
0.0
 11
4226.340151497849547
 21
244.8569709628629028
 31
0.0
  0
ARC
  5
110F9
  8
0
 10
4226.3353732182176827
 20
244.8633661936414114
 30
0.0
 40
0.0079831655963214
 50
257.3515667041020833
 51
306.7657240486032038
  0
LINE
  5
110FA
  8
0
 10
4226.3336251594100759
 20
244.8555767634092035
 30
0.0
 11
4226.2981669253922519
 21
244.8636372460279063
 31
0.0
  0
ARC
  5
110FB
  8
0
 10
4226.3026695771495724
 20
244.8832713396033114
 30
0.0
 40
0.0201437703044245
 50
218.114010138754594
 51
257.0845894784289953
  0
LINE
  5
110FC
  8
0
 10
4226.2868207785786581
 20
244.8708380348965932
 30
0.0
 11
4226.2812034247699557
 21
244.8670490818832093
 31
0.0
  0
ARC
  5
110FD
  8
0
 10
4226.2778559698599565
 20
244.8721313296408084
 30
0.0
 40
0.0060856139189704
 50
212.7169837441958009
 51
303.3711532475647914
  0
LINE
  5
110FE
  8
0
 10
4226.2727358349029601
 20
244.8688421177604937
 30
0.0
 11
4226.2626685041332166
 21
244.8798814133965038
 31
0.0
  0
ARC
  5
110FF
  8
0
 10
4226.2607052676821695
 20
244.874357175103512
 30
0.0
 40
0.0058627217296462
 50
70.4355037312830063
 51
122.1800291993610017
  0
LINE
  5
11100
  8
0
 10
4226.2575828917342733
 20
244.8793192587910994
 30
0.0
 11
4226.2306999948032171
 21
244.8625237232112113
 31
0.0
  0
ARC
  5
11101
  8
0
 10
4226.2244400224508354
 20
244.8725342209129963
 30
0.0
 40
0.0118066641385794
 50
215.9916663280561977
 51
302.0194213231090998
  0
LINE
  5
11102
  8
0
 10
4226.214887221225581
 20
244.8655958272354098
 30
0.0
 11
4226.084567407781833
 21
245.0450205372468986
 31
0.0
  0
ARC
  5
11103
  8
0
 10
4226.0952531910597827
 20
245.0504915519221925
 30
0.0
 40
0.0120049142370742
 50
130.3279444042607906
 51
207.1119945725353091
  0
LINE
  5
11104
  8
0
 10
4226.0874840706819668
 20
245.0596435317303872
 30
0.0
 11
4226.1290369313801421
 21
245.0945105221537972
 31
0.0
  0
ARC
  5
11105
  8
0
 10
4226.1425673134162935
 20
245.1076871759470919
 30
0.0
 40
0.0584072397659852
 50
198.8410685550161929
 51
221.4204124181503062
  0
ARC
  5
11106
  8
0
 10
4226.0952156284565717
 20
245.0899792666635904
 30
0.0
 40
0.0080096013404599
 50
120.7378278065966981
 51
188.2864939106304973
  0
LINE
  5
11107
  8
0
 10
4226.0911217240909536
 20
245.0968635509574085
 30
0.0
 11
4225.9761904446249901
 21
245.2476903887952915
 31
0.0
  0
LINE
  5
11108
  8
0
 10
4225.977816000695384
 20
245.2487165599146124
 30
0.0
 11
4225.9587691828492098
 21
245.2368043761997001
 31
0.0
  0
ARC
  5
11109
  8
0
 10
4225.9525090317501963
 20
245.2468139563520992
 30
0.0
 40
0.0118059809679943
 50
215.9771749374685044
 51
302.0225178310618048
  0
LINE
  5
1110A
  8
0
 10
4225.9429550288095925
 20
245.2398783803519109
 30
0.0
 11
4225.8703253002158817
 21
245.3399284180723043
 31
0.0
  0
ARC
  5
1110B
  8
0
 10
4225.8798980103947542
 20
245.3468775742944956
 30
0.0
 40
0.0118290976984538
 50
130.3211437860717865
 51
215.9771749375375975
  0
LINE
  5
1110C
  8
0
 10
4225.8722437421665745
 20
245.3558964284476076
 30
0.0
 11
4225.8886061165048886
 21
245.3696260908050135
 31
0.0
  0
ARC
  5
1110D
  8
0
 10
4225.8871158681504312
 20
245.3723789924212895
 30
0.0
 40
0.0031303845563804
 50
298.4283366154763826
 51
31.028606142335871
  0
ARC
  5
1110E
  8
0
 10
4225.893327417202272
 20
245.3761154898008101
 30
0.0
 40
0.0041183914997611
 50
166.1383529359565046
 51
211.02860614234541
  0
ARC
  5
1110F
  8
0
 10
4225.8902506980912221
 20
245.3768747155235133
 30
0.0
 40
0.0009493815284384
 50
49.7946779321099626
 51
166.1383529360576006
  0
ARC
  5
11110
  8
0
 10
4225.7488614843950927
 20
245.2095946955843999
 30
0.0
 40
0.2199779523134805
 50
36.030466752075121
 51
49.7946779321099626
  0
ARC
  5
11111
  8
0
 10
4224.3088036026611007
 20
244.1621609970559064
 30
0.0
 40
2.0006755840175501
 50
33.3138904463270293
 51
36.030466752075121
  0
ARC
  5
11112
  8
0
 10
4225.9563087154556342
 20
245.2449414228632065
 30
0.0
 40
0.0292074642652769
 50
4.388132198940724
 51
33.3138904463270293
  0
ARC
  5
11113
  8
0
 10
4225.9854090219514546
 20
245.2513858527520085
 30
0.0
 40
0.004209748745797
 50
227.7808333809005887
 51
270.2931615201246132
  0
ARC
  5
11114
  8
0
 10
4225.979993485052546
 20
245.2463181585509062
 30
0.0
 40
0.0032394084690973
 50
37.0113935752167222
 51
132.235990498223714
  0
LINE
  5
11115
  8
0
 10
4225.7549910469151655
 20
245.5430492951468864
 30
0.0
 11
4225.7625593402563027
 21
245.532117827878011
 31
0.0
  0
LINE
  5
11116
  8
0
 10
4225.7909839042704334
 20
245.5559739417460037
 30
0.0
 11
4225.7511599393301367
 21
245.5225525947529093
 31
0.0
  0
ARC
  5
11117
  8
0
 10
4225.7587525972730873
 20
245.5135053907685858
 30
0.0
 40
0.011811026820531
 50
130.0042825063526948
 51
216.0412393558160886
  0
LINE
  5
11118
  8
0
 10
4225.7492022751703189
 20
245.5065561676254049
 30
0.0
 11
4225.8460503595697446
 21
245.3734577792181142
 31
0.0
  0
ARC
  5
11119
  8
0
 10
4225.8546065373384408
 20
245.3815479725234923
 30
0.0
 40
0.0117753728490478
 50
223.3965290494996907
 51
302.0618008408611104
  0
LINE
  5
1111A
  8
0
 10
4225.8608573018918833
 20
245.3715686264415012
 30
0.0
 11
4225.9055944074289073
 21
245.3995234725381067
 31
0.0
  0
LINE
  5
1111B
  8
0
 10
4225.5851363076026246
 20
245.8369687214253076
 30
0.0
 11
4226.2981671970419484
 21
244.8636371842752908
 31
0.0
  0
ARC
  5
1111C
  8
0
 10
4225.663297791252262
 20
245.6450071325980957
 30
0.0
 40
0.0119872152819518
 50
130.2779362757302977
 51
208.3759686167502139
  0
LINE
  5
1111D
  8
0
 10
4225.6555481040450104
 20
245.6541523870183994
 30
0.0
 11
4225.6765381600680485
 21
245.6716796919207866
 31
0.0
  0
ARC
  5
1111E
  8
0
 10
4225.6739288771932479
 20
245.675001919044405
 30
0.0
 40
0.0042243993873837
 50
308.1461517879712915
 51
29.4768627448158718
  0
ARC
  5
1111F
  8
0
 10
4225.6791879152033289
 20
245.6779745367215071
 30
0.0
 40
0.0018166217722063
 50
134.7894255726342863
 51
209.4768627450017959
  0
ARC
  5
11120
  8
0
 10
4225.676900861230024
 20
245.6759539047602061
 30
0.0
 40
0.0034597542098005
 50
47.971917028116529
 51
73.0743837957052307
  0
ARC
  5
11121
  8
0
 10
4225.6056869989997722
 20
245.6047381197604977
 30
0.0
 40
0.104168227260741
 50
35.4316194600189505
 51
45.0994103239237418
  0
ARC
  5
11122
  8
0
 10
4225.2287088449702424
 20
245.3207449187964073
 30
0.0
 40
0.5761160933906205
 50
33.1389638494531269
 51
36.710082408814813
  0
ARC
  5
11123
  8
0
 10
4225.1400780377243791
 20
245.2381717824383998
 30
0.0
 40
0.695778934083979
 50
26.6657641905248113
 51
34.8430248973332866
  0
ARC
  5
11124
  8
0
 10
4225.7314286969713066
 20
245.5351475821518932
 30
0.0
 40
0.0340461875701171
 50
13.6330867919744296
 51
26.6657641905248113
  0
ARC
  5
11125
  8
0
 10
4225.7633009064793441
 20
245.5428777664355948
 30
0.0
 40
0.0012499455908182
 50
324.3147224871751746
 51
13.6330867919096601
  0
ARC
  5
11126
  8
0
 10
4225.7640374563097794
 20
245.5426489753004091
 30
0.0
 40
0.0005727262431544
 50
245.1965373010013138
 51
299.1184057901173219
  0
ARC
  5
11127
  8
0
 10
4225.7588228093864018
 20
245.5379550451750106
 30
0.0
 40
0.0064936184899037
 50
40.0002206031251788
 51
113.4175768502583992
  0
LINE
  5
11128
  8
0
 10
4225.7562420543863482
 20
245.543913802153611
 30
0.0
 11
4225.7420735447212792
 21
245.535060334766797
 31
0.0
  0
ARC
  5
11129
  8
0
 10
4225.7358000010372052
 20
245.5451365239921984
 30
0.0
 40
0.0118695804347982
 50
220.4188912253463002
 51
301.9071423999347985
  0
LINE
  5
1112A
  8
0
 10
4225.685862218730108
 20
245.8032656571317887
 30
0.0
 11
4225.8304902182044316
 21
245.604202293494609
 31
0.0
  0
LINE
  5
1112B
  8
0
 10
4225.8549998703765596
 20
245.6269879552903888
 30
0.0
 11
4225.8355021097941062
 21
245.6113688512928093
 31
0.0
  0
ARC
  5
1112C
  8
0
 10
4225.8452215256556883
 20
245.5992358349888036
 30
0.0
 40
0.01554596826529
 50
128.6972296886310971
 51
161.3691708119245902
  0
ARC
  5
1112D
  8
0
 10
4225.84565686832957
 20
245.5990890651698066
 30
0.0
 40
0.0160053859659978
 50
161.3691708119260966
 51
215.3814451029616066
  0
LINE
  5
1112E
  8
0
 10
4225.8326074314727521
 20
245.5898216719199922
 30
0.0
 11
4225.9606669571876409
 21
245.41356285598809
 31
0.0
  0
ARC
  5
1112F
  8
0
 10
4225.9734148473298774
 20
245.4228090612091933
 30
0.0
 40
0.0157480479445392
 50
215.953849648192886
 51
271.1088432199528029
  0
ARC
  5
11130
  8
0
 10
4225.9734148477937197
 20
245.4228090372961049
 30
0.0
 40
0.0157480240270186
 50
271.1088432199528029
 51
303.5000076109297993
  0
LINE
  5
11131
  8
0
 10
4225.982106766443394
 20
245.4096769844888968
 30
0.0
 11
4225.997855409857948
 21
245.4201007871826903
 31
0.0
  0
ARC
  5
11132
  8
0
 10
4225.9886216992872505
 20
245.4265736055484126
 30
0.0
 40
0.0112764705705831
 50
324.9695973490565848
 51
18.5233613204673695
  0
ARC
  5
11133
  8
0
 10
4225.5642183787222166
 20
245.2696029805674982
 30
0.0
 40
0.4637730810076079
 50
20.2543834234943994
 51
37.4365897572286173
  0
ARC
  5
11134
  8
0
 10
4225.5774541633845729
 20
245.3056138868325036
 30
0.0
 40
0.4318622017054996
 50
34.7094529248228767
 51
46.5905401901676868
  0
ARC
  5
11135
  8
0
 10
4225.8488417376211146
 20
245.5932962409870868
 30
0.0
 40
0.0363766431743613
 50
45.7322325833683223
 51
74.5135595470016057
  0
ARC
  5
11136
  8
0
 10
4225.8584080110913419
 20
245.6234208062149946
 30
0.0
 40
0.0049335560845706
 50
88.2964507681859345
 51
133.6941143978669118
  0
LINE
  5
11137
  8
0
 10
4225.9737195875122779
 20
245.4070639620514953
 30
0.0
 11
4226.157859105870557
 21
245.1536176752622112
 31
0.0
  0
LINE
  5
11138
  8
0
 10
4226.1721095073589822
 20
245.1681611270859946
 30
0.0
 11
4226.1628903527271177
 21
245.1607997131482932
 31
0.0
  0
ARC
  5
11139
  8
0
 10
4226.1725913356049205
 20
245.1486505714219959
 30
0.0
 40
0.0155470483846724
 50
128.6070576771641925
 51
161.3680030243681074
  0
ARC
  5
1113A
  8
0
 10
4226.1730250452210385
 20
245.1485043423217007
 30
0.0
 40
0.0160047458620509
 50
161.3680030243606893
 51
215.3826127316308998
  0
ARC
  5
1113B
  8
0
 10
4234.4024286837229738
 20
250.9930793114515097
 30
0.0
 40
10.1096730986051302
 50
215.3826127316308998
 51
216.6173872811916965
  0
ARC
  5
1113C
  8
0
 10
4226.3008312507063238
 20
244.972486632325797
 30
0.0
 40
0.0159415203138004
 50
216.6173872812578054
 51
302.8374250755466051
  0
LINE
  5
1113D
  8
0
 10
4226.309475653998561
 20
244.959092366328008
 30
0.0
 11
4226.3368076285860298
 21
244.977183005633691
 31
0.0
  0
ARC
  5
1113E
  8
0
 10
4226.3291295326116597
 20
244.9819718666217909
 30
0.0
 40
0.0090491075429329
 50
328.0480352225014258
 51
30.6783885187002383
  0
ARC
  5
1113F
  8
0
 10
4226.0137512832407083
 20
244.8266216475880981
 30
0.0
 40
0.360586296654007
 50
26.3357806079383607
 51
40.4985732667094993
  0
ARC
  5
11140
  8
0
 10
4225.8985757773807563
 20
244.7762779971475027
 30
0.0
 40
0.4822474173636284
 50
36.1559653560223495
 51
53.9941469033985797
  0
ARC
  5
11141
  8
0
 10
4226.1752779132666547
 20
245.1570440098442134
 30
0.0
 40
0.0115598050049567
 50
53.9941469033985797
 51
105.9076829787009046
  0
LINE
  5
11142
  8
0
 10
4226.3009953096761819
 20
244.956545956224403
 30
0.0
 11
4226.3627317116133781
 21
244.8716347251543084
 31
0.0
  0
ARC
  5
11143
  8
0
 10
4226.1351198342381394
 20
244.9954803300815911
 30
0.0
 40
0.011811023574781
 50
129.9999999925381076
 51
212.4858349784732923
  0
LINE
  5
11144
  8
0
 10
4226.1275278546281697
 20
245.0045280990595131
 30
0.0
 11
4226.1388488873690221
 21
245.0140275734547117
 31
0.0
  0
ARC
  5
11145
  8
0
 10
4226.1352057295316627
 20
245.0183693198978006
 30
0.0
 40
0.0056677474546638
 50
309.9999999925381076
 51
26.0156967613118013
  0
ARC
  5
11146
  8
0
 10
4226.1441705076513244
 20
245.0242291983311986
 30
0.0
 40
0.0051352088893783
 50
205.1724226845998942
 51
221.0725664892069062
  0
ARC
  5
11147
  8
0
 10
4226.139628654434091
 20
245.0221343639630049
 30
0.0
 40
0.0001384142251667
 50
80.6776292201142695
 51
220.2292924124321871
  0
ARC
  5
11148
  8
0
 10
4226.1345496100357195
 20
245.015061845819389
 30
0.0
 40
0.0088315423165234
 50
48.0499654857228791
 51
54.7151661440350523
  0
ARC
  5
11149
  8
0
 10
4224.9879083854411874
 20
243.9227286321523138
 30
0.0
 40
1.5924648608844421
 50
40.6941281568219821
 51
43.6351159682234382
  0
ARC
  5
1114A
  8
0
 10
4224.5564191232542726
 20
243.5230255102229933
 30
0.0
 40
2.1803433733623669
 50
39.4256741297979971
 51
41.264783017826737
  0
ARC
  5
1114B
  8
0
 10
4226.1566152209870779
 20
244.8383545959678997
 30
0.0
 40
0.1089387378965795
 50
34.7869212710419689
 51
39.5427170314371921
  0
ARC
  5
1114C
  8
0
 10
4226.2451115726589705
 20
244.8997851722876078
 30
0.0
 40
0.0012113440867023
 50
2.990679656228969
 51
36.5755383443195399
  0
ARC
  5
1114D
  8
0
 10
4226.2462997021029878
 20
244.8999761052324118
 30
0.0
 40
0.0001295404542995
 50
245.12616242296221
 51
279.5827453496489738
  0
ARC
  5
1114E
  8
0
 10
4226.0138549085413615
 20
244.5991145883340891
 30
0.0
 40
0.3800686829229336
 50
52.3060910963167487
 51
52.6296596511923624
  0
ARC
  5
1114F
  8
0
 10
4226.2419097006086304
 20
244.895967772634009
 30
0.0
 40
0.0058273627564525
 50
63.1340236526907219
 51
122.0141118850438033
  0
LINE
  5
11150
  8
0
 10
4226.2388204517383201
 20
244.9009088957965901
 30
0.0
 11
4226.2140533005576799
 21
244.8854360395930883
 31
0.0
  0
ARC
  5
11151
  8
0
 10
4226.2076982288463114
 20
244.8957612677388909
 30
0.0
 40
0.0121242431806737
 50
226.6656459844888047
 51
301.6118696833117951
  0
LINE
  5
11152
  8
0
 10
4226.2429353354336854
 20
244.9017041678349074
 30
0.0
 11
4226.2626685041332166
 21
244.8798814133963049
 31
0.0
  0
LINE
  5
11153
  8
0
 10
4225.8674607561306402
 20
245.3756949226043957
 30
0.0
 11
4225.8791858260401568
 21
245.3617215285011071
 31
0.0
  0
LINE
  5
11154
  8
0
 10
4226.0911218371265932
 20
245.0968636392694862
 30
0.0
 11
4226.1146738249817645
 21
245.1141170562272009
 31
0.0
  0
ARC
  5
11155
  8
0
 10
4226.6702110604355767
 20
244.4900069953486934
 30
0.0
 40
0.095173903770373
 50
45.2380848293887823
 51
62.3077793086649265
  0
LINE
  5
11156
  8
0
 10
4227.3350874531151931
 20
243.9564128902981963
 30
0.0
 11
4227.5337368676646292
 21
243.8058483745367084
 31
0.0
  0
LINE
  5
11157
  8
0
 10
4224.9465398528027436
 20
247.3789599987341887
 30
0.0
 11
4224.9231651679701827
 21
247.4106091375143137
 31
0.0
  0
ARC
  5
11158
  8
0
 10
4225.0513231805043688
 20
247.5052611017420929
 30
0.0
 40
0.159321908438509
 50
72.4032771898493337
 51
216.4479714508939026
  0
LINE
  5
11159
  8
0
 10
4225.099488642184042
 20
247.6571280132453126
 30
0.0
 11
4225.3911052226912943
 21
247.8531757780988016
 31
0.0
  0
ARC
  5
1115A
  8
0
 10
4225.4173554052613326
 20
247.8100294346835994
 30
0.0
 40
0.0505042476930384
 50
89.4214153116632531
 51
121.3162800236869003
  0
ARC
  5
1115B
  8
0
 10
4225.4188611819890866
 20
247.9591376301669925
 30
0.0
 40
0.0986115506779494
 50
269.4214153116632815
 51
286.0863427150778762
  0
ARC
  5
1115C
  8
0
 10
4225.4378269116323281
 20
247.8933704849750939
 30
0.0
 40
0.0301643718642594
 50
286.0863427150778762
 51
306.8395885560054239
  0
LINE
  5
1115D
  8
0
 10
4225.4559127668153451
 20
247.8692294168083095
 30
0.0
 11
4225.5018210509688288
 21
247.9024645956345125
 31
0.0
  0
ARC
  5
1115E
  8
0
 10
4225.663429696743151
 20
247.6792319870959886
 30
0.0
 40
0.2755905511879743
 50
55.7359194725796598
 51
125.9025575593670965
  0
ARC
  5
1115F
  8
0
 10
4222.4315774259675891
 20
242.9351277137683951
 30
0.0
 40
6.0159210692262839
 50
39.0462097852273473
 51
55.7359194725796598
  0
ARC
  5
11160
  8
0
 10
4221.8896864622111025
 20
242.4955889580569988
 30
0.0
 40
6.7136603718133916
 50
17.11009619738347
 51
39.0462097852273473
  0
ARC
  5
11161
  8
0
 10
4228.0494142456063855
 20
244.3917568666475972
 30
0.0
 40
0.2686856547892495
 50
304.8616570395432177
 51
17.11009619738347
  0
LINE
  5
11162
  8
0
 10
4228.2029941304826934
 20
244.1712909961586035
 30
0.0
 11
4228.1570934219225819
 21
244.1380613018336874
 31
0.0
  0
ARC
  5
11163
  8
0
 10
4228.1860490407289035
 20
244.1019760835814907
 30
0.0
 40
0.0462663034699837
 50
128.7443686673045136
 51
157.9722376252624088
  0
ARC
  5
11164
  8
0
 10
4227.6354321230255664
 20
244.3247501695574044
 30
0.0
 40
0.547709523851585
 50
335.7559475172631096
 51
337.9722376252623803
  0
ARC
  5
11165
  8
0
 10
4228.0834038933835473
 20
244.1230095358133099
 30
0.0
 40
0.0564071827817157
 50
312.6195537248651135
 51
335.7559475172631096
  0
LINE
  5
11166
  8
0
 10
4228.1215987279156252
 20
244.081501405471613
 30
0.0
 11
4227.8442960560178108
 21
243.8656816094753026
 31
0.0
  0
ARC
  5
11167
  8
0
 10
4227.6898353938413493
 20
243.8648380902608892
 30
0.0
 40
0.1544629654179449
 50
210.8310116872551134
 51
0.3128927327623834
  0
LINE
  5
11168
  8
0
 10
4225.0994886421058254
 20
247.6571280132702952
 30
0.0
 11
4227.8442960560178108
 21
243.8656816094753026
 31
0.0
  0
LINE
  5
11169
  8
0
 10
4225.3911052226912943
 20
247.8531757780988016
 30
0.0
 11
4228.1215987279156252
 21
244.081501405471613
 31
0.0
  0
LINE
  5
1116A
  8
0
 10
4228.1570934219225819
 20
244.1380613018336874
 30
0.0
 11
4225.4559127668153451
 21
247.8692294168083095
 31
0.0
  0
LINE
  5
1116B
  8
0
 10
4225.8185893944710187
 20
247.9069941878788939
 30
0.0
 11
4228.3062081927610052
 21
244.4708065332727074
 31
0.0
  0
LINE
  5
1116C
  8
0
 10
4227.1037712582601671
 20
246.72483893029451
 30
0.0
 11
4227.3243563726164211
 21
246.8006762225722923
 31
0.0
  0
ARC
  5
1116D
  8
0
 10
4227.807495179066791
 20
245.3914293412240966
 30
0.0
 40
1.489765041504431
 50
19.7624050949445795
 51
108.923496500312595
  0
ARC
  5
1116E
  8
0
 10
3581.9303843252018851
 20
9.9279563037098058
 30
0.0
 40
688.9490490457848182
 50
19.970549265607719
 51
20.0294507373555888
  0
ARC
  5
1116F
  8
0
 10
4229.4887371976374197
 20
245.2430447560207085
 30
0.0
 40
0.0393479742088328
 50
199.9705492656061949
 51
286.6816357829465005
  0
LINE
  5
11170
  8
0
 10
4229.5385718160587203
 20
245.2193800424454082
 30
0.0
 11
4228.6150855758796752
 21
244.8832585392374028
 31
0.0
  0
ARC
  5
11171
  8
0
 10
4229.5723974423890468
 20
245.1269498180784012
 30
0.0
 40
0.0984251968408559
 50
317.1575424036093978
 51
110.1005289091552015
  0
ARC
  5
11172
  8
0
 10
4229.7687416644448604
 20
244.9574054611512963
 30
0.0
 40
0.1610898559116585
 50
140.4303775796865068
 51
182.9404842111061953
  0
ARC
  5
11173
  8
0
 10
4229.9318964821995905
 20
244.9530144944044139
 30
0.0
 40
0.32405571810818
 50
180.6847454838593023
 51
201.8242481025120014
  0
ARC
  5
11174
  8
0
 10
4245.8581518828423214
 20
246.4698988351289017
 30
0.0
 40
17.1351914785362709
 50
187.5972159637080097
 51
202.022644418564397
  0
ARC
  5
11175
  8
0
 10
4221.944611336079106
 20
236.6976698217549142
 30
0.0
 40
8.6983265674388903
 50
19.8030353609078915
 51
22.6304589464438202
  0
ARC
  5
11176
  8
0
 10
4229.0903448729650336
 20
239.4435593871990875
 30
0.0
 40
1.0574762581173029
 50
3.9925157149432269
 51
10.9570094061153096
  0
ARC
  5
11177
  8
0
 10
4230.0232725206569739
 20
239.4813177704587872
 30
0.0
 40
0.1271467924285722
 50
341.2426122538349773
 51
16.3862951700098911
  0
ARC
  5
11178
  8
0
 10
4230.0968412041338524
 20
239.4619381578050081
 30
0.0
 40
0.0515276726079747
 50
297.1709172442875229
 51
335.3315847403513885
  0
ARC
  5
11179
  8
0
 10
4230.1662494286083529
 20
239.3290179458574869
 30
0.0
 40
0.0984251969022369
 50
117.7829576419298974
 51
289.9999999979377776
  0
LINE
  5
1117A
  8
0
 10
4230.1999128285551706
 20
239.2365285146279064
 30
0.0
 11
4231.1809079663817101
 21
239.5935815447847972
 31
0.0
  0
ARC
  5
1117B
  8
0
 10
4213.2760995514508977
 20
237.7895593171323867
 30
0.0
 40
17.8258058100673011
 50
8.3220406729247465
 51
22.2295390120620517
  0
ARC
  5
1117C
  8
0
 10
4290.4979250601400054
 20
248.8747513440688977
 30
0.0
 40
60.1876845433314571
 50
188.1236761010414966
 51
188.5426772230345023
  0
ARC
  5
1117D
  8
0
 10
4232.0239994899648082
 20
240.1111518679900882
 30
0.0
 40
1.0608832567154449
 50
189.6066244745597942
 51
195.5096578745796876
  0
ARC
  5
1117E
  8
0
 10
4231.0967825686493597
 20
239.8418727465997051
 30
0.0
 40
0.0961197545780266
 50
188.6172503980590136
 51
232.2181761760390089
  0
ARC
  5
1117F
  8
0
 10
4231.059940623023067
 20
239.8124776789476869
 30
0.0
 40
0.0515276726079747
 50
244.6684152626112905
 51
282.8290827586864111
  0
ARC
  5
11180
  8
0
 10
4231.0922103036809858
 20
239.6660401425064038
 30
0.0
 40
0.0984251969022369
 50
290.0000000050360995
 51
102.2170423609820062
  0
ARC
  5
11181
  8
0
 10
4223.17385947083676
 20
242.9556632280034023
 30
0.0
 40
5.8347253355457012
 50
12.3587873167711599
 51
15.6278716831345008
  0
ARC
  5
11182
  8
0
 10
4228.53591558390508
 20
244.4555883013933055
 30
0.0
 40
0.2668333659160045
 50
15.6278716831345008
 51
46.8251116966204606
  0
ARC
  5
11183
  8
0
 10
4228.6007465635948392
 20
244.5246869468141995
 30
0.0
 40
0.1720827525845622
 50
46.8251116966204606
 51
78.0685869949885642
  0
ARC
  5
11184
  8
0
 10
4228.6485866452658229
 20
244.7907101857464909
 30
0.0
 40
0.0984251968957061
 50
109.8994707626750937
 51
262.8424574670539187
  0
ARC
  5
11185
  8
0
 10
4235.5852271999037839
 20
247.5521583390035971
 30
0.0
 40
6.5458641910390822
 50
204.5489647263702011
 51
207.4628122592625914
  0
ARC
  5
11186
  8
0
 10
4228.6380020249052905
 20
244.9334243685075023
 30
0.0
 40
0.0393710333982837
 50
293.3795108608002806
 51
20.0000000014589787
  0
LINE
  5
11187
  8
0
 10
4228.6749986944605553
 20
244.9468900549940997
 30
0.0
 11
4228.4327608060557395
 21
245.6124331834724899
 31
0.0
  0
ARC
  5
11188
  8
0
 10
4227.8079910104770534
 20
245.3924384298032066
 30
0.0
 40
0.662370733887051
 50
19.3982521440962792
 51
108.0699694558265946
  0
LINE
  5
11189
  8
0
 10
4228.6363230606330035
 20
244.6930519865215103
 30
0.0
 11
4229.6445653735054293
 21
245.0600221773642886
 31
0.0
  0
LINE
  5
1118A
  8
0
 10
4231.0713820049613787
 20
239.7622363033325996
 30
0.0
 11
4230.1203711308180573
 21
239.4160966526530956
 31
0.0
  0
ARC
  5
1118B
  8
0
 10
4231.1850604998644485
 20
239.5638703269439134
 30
0.0
 40
0.0299999999986903
 50
20.0000000157929598
 51
97.9563004896441498
  0
LINE
  5
1118C
  8
0
 10
4231.2132512784828577
 20
239.5741309312510907
 30
0.0
 11
4231.29137414246361
 21
239.4581611781785
 31
0.0
  0
ARC
  5
1118D
  8
0
 10
4231.3690929484428125
 20
239.4839231738484102
 30
0.0
 40
0.0818773059123835
 50
198.3391708644182927
 51
273.454072253481911
  0
ARC
  5
1118E
  8
0
 10
4231.164237483189936
 20
238.9257799652554866
 30
0.0
 40
0.3977710135538437
 50
306.5913859714081013
 51
322.4464923899199107
  0
ARC
  5
1118F
  8
0
 10
4231.4517453264952564
 20
238.7111765676249036
 30
0.0
 40
0.0393700788589457
 50
314.9999873286823231
 51
14.9999999546111802
  0
LINE
  5
11190
  8
0
 10
4235.4883793631806839
 20
238.0202738301912859
 30
0.0
 11
4235.4883793631806839
 21
240.3116124127913054
 31
0.0
  0
LINE
  5
11191
  8
0
 10
4235.4883793631806839
 20
212.7092497262958091
 30
0.0
 11
4235.4883793631806839
 21
210.5045262828921011
 31
0.0
  0
LINE
  5
11192
  8
0
 10
4235.4883793631806839
 20
238.0202738301912859
 30
0.0
 11
4235.3938911741861375
 21
238.0455918640901984
 31
0.0
  0
LINE
  5
11193
  8
0
 10
4235.3938911741861375
 20
238.0455918640901984
 30
0.0
 11
4235.3938911741861375
 21
240.2862943788923928
 31
0.0
  0
LINE
  5
11194
  8
0
 10
4235.3626272897863601
 20
212.6622096120318872
 30
0.0
 11
4235.3626272897863601
 21
210.5515663971559093
 31
0.0
  0
LINE
  5
11195
  8
0
 10
4235.1759914245949403
 20
238.258356151713599
 30
0.0
 11
4235.1759914245949403
 21
240.0735300912689922
 31
0.0
  0
LINE
  5
11196
  8
0
 10
4235.0461708964003265
 20
238.2701899020030112
 30
0.0
 11
4235.0461708964003265
 21
240.0616963409796085
 31
0.0
  0
LINE
  5
11197
  8
0
 10
4235.0159402208018946
 20
212.4809037526057978
 30
0.0
 11
4235.0159402208018946
 21
210.7328722565821124
 31
0.0
  0
LINE
  5
11198
  8
0
 10
4234.8925357246080239
 20
238.2800775902161092
 30
0.0
 11
4234.8925357246080239
 21
240.0518086527665105
 31
0.0
  0
LINE
  5
11199
  8
0
 10
4234.8961661222074326
 20
212.4704580490063108
 30
0.0
 11
4234.8961661222074326
 21
210.7433179601815993
 31
0.0
  0
LINE
  5
1119A
  8
0
 10
4233.1764902176819305
 20
238.5273817065566107
 30
0.0
 11
4233.1764902176819305
 21
239.8045045364260091
 31
0.0
  0
LINE
  5
1119B
  8
0
 10
4233.0355230452878459
 20
238.5286109251078983
 30
0.0
 11
4233.0355230452878459
 21
239.8032753178748067
 31
0.0
  0
LINE
  5
1119C
  8
0
 10
4232.0793113178297062
 20
238.6220737202833106
 30
0.0
 11
4232.0793113178297062
 21
239.709812522699508
 31
0.0
  0
LINE
  5
1119D
  8
0
 10
4229.9754445615217264
 20
211.8431084770342068
 30
0.0
 11
4229.9754445615217264
 21
211.3706675321537034
 31
0.0
  0
LINE
  5
1119E
  8
0
 10
4230.0969567825150079
 20
211.9508409441457104
 30
0.0
 11
4230.0969567825150079
 21
211.2629350650418019
 31
0.0
  0
LINE
  5
1119F
  8
0
 10
4230.6168546257940761
 20
211.9612187132283907
 30
0.0
 11
4230.1220114101161016
 21
211.9612187132283907
 31
0.0
  0
LINE
  5
111A0
  8
0
 10
4230.6452003327931379
 20
211.2659690833478123
 30
0.0
 11
4230.6452003327931379
 21
211.4968748837918042
 31
0.0
  0
LINE
  5
111A1
  8
0
 10
4230.6452003327931379
 20
211.7176523639022037
 30
0.0
 11
4230.6452003327931379
 21
211.9478069258400978
 31
0.0
  0
LINE
  5
111A2
  8
0
 10
4230.8039786679846657
 20
211.2644783874588086
 30
0.0
 11
4230.8039786679846657
 21
211.5079739316315965
 31
0.0
  0
LINE
  5
111A3
  8
0
 10
4230.8039786679846657
 20
211.7052116387845047
 30
0.0
 11
4230.8039786679846657
 21
211.9492976217289879
 31
0.0
  0
LINE
  5
111A4
  8
0
 10
4230.999615267876834
 20
210.9577983706722932
 30
0.0
 11
4230.999615267876834
 21
212.2559776385155885
 31
0.0
  0
LINE
  5
111A5
  8
0
 10
4231.7016567525470236
 20
210.9839404949125878
 30
0.0
 11
4231.7016567525470236
 21
212.2298355142752087
 31
0.0
  0
LINE
  5
111A6
  8
0
 10
4231.807278803542431
 20
210.9821045387712104
 30
0.0
 11
4231.807278803542431
 21
212.2316714704166998
 31
0.0
  0
LINE
  5
111A7
  8
0
 10
4231.8269638429410406
 20
211.0348566993689019
 30
0.0
 11
4231.8269638429410406
 21
212.1789193098188946
 31
0.0
  0
LINE
  5
111A8
  8
0
 10
4233.6379874649619524
 20
238.4723881965178123
 30
0.0
 11
4233.6379874649619524
 21
239.8594980464648074
 31
0.0
  0
LINE
  5
111A9
  8
0
 10
4233.6379874649619524
 20
212.3453376735926952
 30
0.0
 11
4233.6379874649619524
 21
210.8684383355949876
 31
0.0
  0
LINE
  5
111AA
  8
0
 10
4234.7022727007160938
 20
238.2892496745722042
 30
0.0
 11
4234.7022727007160938
 21
240.0426365684105008
 31
0.0
  0
LINE
  5
111AB
  8
0
 10
4234.7022727007160938
 20
212.4485538752443858
 30
0.0
 11
4234.7022727007160938
 21
210.7652221339434959
 31
0.0
  0
ARC
  5
111AC
  8
0
 10
4234.8537757903468446
 20
237.8067905466311061
 30
0.0
 40
0.5905511807451864
 50
23.851668604974499
 51
50.4265793206371384
  0
ARC
  5
111AD
  8
0
 10
4235.2049147962916322
 20
238.2316458228870886
 30
0.0
 40
0.0393700786935983
 50
50.4265792348491075
 51
137.2779574033972949
  0
ARC
  5
111AE
  8
0
 10
4235.1528527271239
 20
238.2797244152260987
 30
0.0
 40
0.0314960633446996
 50
270.0000001317346232
 51
317.2779569407019835
  0
LINE
  5
111AF
  8
0
 10
4235.1528527271948406
 20
238.2482283518812949
 30
0.0
 11
4235.0761891415995706
 21
238.2482283518812949
 31
0.0
  0
ARC
  5
111B0
  8
0
 10
4235.0761891415613718
 20
238.2797244147398885
 30
0.0
 40
0.0314960628584734
 50
197.6210930373954966
 51
270.0000000712345809
  0
ARC
  5
111B1
  8
0
 10
4234.9674254413303061
 20
238.2451784617823876
 30
0.0
 40
0.0826221449504878
 50
17.6210930373939796
 51
155.0141537035310932
  0
ARC
  5
111B2
  8
0
 10
4234.8639873102174533
 20
238.2933813497170945
 30
0.0
 40
0.0314960629451972
 50
260.2363593256689001
 51
335.0141537035278247
  0
LINE
  5
111B3
  8
0
 10
4234.8586460776259628
 20
238.2623414847776928
 30
0.0
 11
4233.2107350867527202
 21
238.5459083078696096
 31
0.0
  0
ARC
  5
111B4
  8
0
 10
4233.2053938542076139
 20
238.5148684431877939
 30
0.0
 40
0.0314960626836097
 50
80.2363593256688148
 51
156.5907460871565036
  0
ARC
  5
111B5
  8
0
 10
4233.1062663746470207
 20
238.5577837437488995
 30
0.0
 40
0.0765223627192908
 50
202.4100530498326975
 51
336.5907460871566173
  0
ARC
  5
111B6
  8
0
 10
4233.0064055930342874
 20
238.516603600162
 30
0.0
 40
0.031496061311568
 50
22.4100530498326584
 51
99.7987223725730672
  0
LINE
  5
111B7
  8
0
 10
4233.0010453562899784
 20
238.5476401872842018
 30
0.0
 11
4232.1944404884407049
 21
238.4083338571915078
 31
0.0
  0
ARC
  5
111B8
  8
0
 10
4232.1890802533580427
 20
238.4393704347004928
 30
0.0
 40
0.0314960515559946
 50
202.4999186922399872
 51
279.7987223725730814
  0
LINE
  5
111B9
  8
0
 10
4232.1599816788666431
 20
238.4273174588784912
 30
0.0
 11
4232.0793113178297062
 21
238.6220737202833106
 31
0.0
  0
LINE
  5
111BA
  8
0
 10
4235.4883793631806839
 20
240.3116124127913054
 30
0.0
 11
4235.3938911741861375
 21
240.2862943788923928
 31
0.0
  0
ARC
  5
111BB
  8
0
 10
4234.8537757903468446
 20
240.5250956963515989
 30
0.0
 40
0.5905511807451864
 50
309.5734206793628118
 51
336.1483313950254797
  0
ARC
  5
111BC
  8
0
 10
4235.2049147962916322
 20
240.1002404200955027
 30
0.0
 40
0.0393700786935983
 50
222.7220425966025914
 51
309.5734207651508996
  0
ARC
  5
111BD
  8
0
 10
4235.1528527271239
 20
240.0521618277566063
 30
0.0
 40
0.0314960633446996
 50
42.7220430592979596
 51
89.999999868265391
  0
LINE
  5
111BE
  8
0
 10
4235.1528527271948406
 20
240.0836578911012964
 30
0.0
 11
4235.0761891415995706
 21
240.0836578911012964
 31
0.0
  0
ARC
  5
111BF
  8
0
 10
4235.0761891415613718
 20
240.0521618282429017
 30
0.0
 40
0.0314960628584734
 50
89.999999928765348
 51
162.3789069626033097
  0
ARC
  5
111C0
  8
0
 10
4234.9674254413303061
 20
240.0867077812004879
 30
0.0
 40
0.0826221449504878
 50
204.9858462964689068
 51
342.3789069626045034
  0
ARC
  5
111C1
  8
0
 10
4234.8639873102174533
 20
240.0385048932654968
 30
0.0
 40
0.0314960629451972
 50
24.9858462964721788
 51
99.7636406743311994
  0
LINE
  5
111C2
  8
0
 10
4234.8586460776259628
 20
240.0695447582050122
 30
0.0
 11
4233.2107350867527202
 21
239.7859779351128964
 31
0.0
  0
ARC
  5
111C3
  8
0
 10
4233.2053938542076139
 20
239.8170177997947974
 30
0.0
 40
0.0314960626836097
 50
203.4092539128434964
 51
279.7636406743312136
  0
ARC
  5
111C4
  8
0
 10
4233.1062663746470207
 20
239.7741024992338055
 30
0.0
 40
0.0765223627192908
 50
23.4092539128434609
 51
157.5899469501673025
  0
ARC
  5
111C5
  8
0
 10
4233.0064055930342874
 20
239.8152826428205913
 30
0.0
 40
0.031496061311568
 50
260.2012776274269186
 51
337.5899469501673025
  0
LINE
  5
111C6
  8
0
 10
4233.0010453562899784
 20
239.7842460556985031
 30
0.0
 11
4232.1944404884407049
 21
239.9235523857911119
 31
0.0
  0
ARC
  5
111C7
  8
0
 10
4232.1890802533580427
 20
239.8925158082822122
 30
0.0
 40
0.0314960515559946
 50
80.201277627426947
 51
157.5000813077600128
  0
LINE
  5
111C8
  8
0
 10
4232.1599816788666431
 20
239.9045687841041001
 30
0.0
 11
4232.0793113178297062
 21
239.709812522699508
 31
0.0
  0
LINE
  5
111C9
  8
0
 10
4232.1599816788666431
 20
238.4273174588784912
 30
0.0
 11
4232.1599816788666431
 21
239.9045687841041001
 31
0.0
  0
LINE
  5
111CA
  8
0
 10
4232.0793113178297062
 20
238.9296916378515903
 30
0.0
 11
4231.5365456503059249
 21
238.929723152119891
 31
0.0
  0
ARC
  5
111CB
  8
0
 10
4231.5365936782136487
 20
238.8509578099198905
 30
0.0
 40
0.0787653568427958
 50
90.0349366359227048
 51
194.9765351608365052
  0
LINE
  5
111CC
  8
0
 10
4232.0793113178297062
 20
239.402194605131001
 30
0.0
 11
4231.3740259271453397
 21
239.402194605131001
 31
0.0
  0
ARC
  5
111CD
  8
0
 10
4232.1015362412899776
 20
239.3533003087148074
 30
0.0
 40
0.7747005925615201
 50
175.6245919449976896
 51
215.9116155801303876
  0
LINE
  5
111CE
  8
0
 10
4231.8072788034432961
 20
212.1186990282216129
 30
0.0
 11
4231.8269638429410406
 21
212.1186990282216129
 31
0.0
  0
LINE
  5
111CF
  8
0
 10
4235.4883793631806839
 20
212.7092497262958091
 30
0.0
 11
4235.3874314586391847
 21
212.6822008167848139
 31
0.0
  0
ARC
  5
111D0
  8
0
 10
4235.3976203449929017
 20
212.6441753752511943
 30
0.0
 40
0.0393668338702877
 50
105.0000000059826988
 51
152.7349530925066858
  0
ARC
  5
111D1
  8
0
 10
4234.8586239179012409
 20
212.9219558986333993
 30
0.0
 40
0.5669987057089005
 50
286.1083357376730874
 51
332.7349530925068279
  0
ARC
  5
111D2
  8
0
 10
4235.004129197202019
 20
212.4809037526057978
 30
0.0
 40
0.0118110235994818
 50
0.0
 51
90.0
  0
LINE
  5
111D3
  8
0
 10
4235.004129197202019
 20
212.4927147762051902
 30
0.0
 11
4234.9316222402057974
 21
212.4927147762051902
 31
0.0
  0
ARC
  5
111D4
  8
0
 10
4234.9316222402057974
 20
212.4533446973642867
 30
0.0
 40
0.0393700788409068
 50
90.0
 51
154.2351217807060948
  0
ARC
  5
111D5
  8
0
 10
4234.8607100031531445
 20
212.4875714011573962
 30
0.0
 40
0.0393700800125793
 50
309.4020823598631864
 51
334.2351217807089938
  0
ARC
  5
111D6
  8
0
 10
4234.7857385179258927
 20
212.5788364181740064
 30
0.0
 40
0.1574803121195321
 50
243.4889087469948095
 51
309.4020823598631864
  0
ARC
  5
111D7
  8
0
 10
4234.7330175304441582
 20
212.4731457172291016
 30
0.0
 40
0.0393700806102307
 50
218.6552379619147928
 51
243.4889087469948095
  0
ARC
  5
111D8
  8
0
 10
4234.6715278719939306
 20
212.4239620338672125
 30
0.0
 40
0.0393700794436555
 50
38.6552379619174076
 51
96.0006249509852978
  0
ARC
  5
111D9
  8
0
 10
4231.8466488823396503
 20
212.1789193098188946
 30
0.0
 40
0.019685039399152
 50
96.7683229852176652
 51
179.9999999999689919
  0
ARC
  5
111DA
  8
0
 10
4231.7549709888908183
 20
212.2018039109038057
 30
0.0
 40
0.060234363819049
 50
29.7261995370862593
 51
152.2654668505520021
  0
ARC
  5
111DB
  8
0
 10
4231.6703015970897468
 20
212.2463214539453986
 30
0.0
 40
0.0354250191314227
 50
263.9922590121375947
 51
332.2654668505492168
  0
LINE
  5
111DC
  8
0
 10
4231.6665939144104414
 20
212.2110909973829109
 30
0.0
 11
4231.0359466365944172
 21
212.2774608437626966
 31
0.0
  0
ARC
  5
111DD
  8
0
 10
4231.0322423643274306
 20
212.2422627930064039
 30
0.0
 40
0.0353924343620918
 50
83.9922590121376658
 51
157.2004819545765031
  0
ARC
  5
111DE
  8
0
 10
4199.0125721661052012
 20
225.7017758299460013
 30
0.0
 40
34.6981327364931715
 50
336.7995180729939761
 51
337.2004819545765031
  0
ARC
  5
111DF
  8
0
 10
4230.7965063578849367
 20
212.0788477822717937
 30
0.0
 40
0.1177533097211376
 50
284.1685737472848814
 51
336.7995180729939761
  0
ARC
  5
111E0
  8
0
 10
4230.8340789131889323
 20
211.9300192778964913
 30
0.0
 40
0.0357446401892019
 50
104.1685737472848956
 51
147.3616032882821969
  0
ARC
  5
111E1
  8
0
 10
4230.7739528601032362
 20
211.9685282905909958
 30
0.0
 40
0.0356562443873092
 50
270.1967960969798241
 51
327.3616032882869717
  0
LINE
  5
111E2
  8
0
 10
4230.7740753297866831
 20
211.9328722565296914
 30
0.0
 11
4230.674103417662991
 21
211.9325288776691139
 31
0.0
  0
ARC
  5
111E3
  8
0
 10
4230.6739840507007102
 20
211.9672815801152126
 30
0.0
 40
0.0347529074435656
 50
214.0817230503126041
 51
270.1967960969798241
  0
ARC
  5
111E4
  8
0
 10
4230.6139368308831763
 20
211.9183918687438961
 30
0.0
 40
0.0429261241628951
 50
43.2551440579294635
 51
86.1024588342861819
  0
ARC
  5
111E5
  8
0
 10
4272.6566895277519507
 20
-153.8811055328287125
 30
0.0
 40
368.3086669296794184
 50
95.9203150715111263
 51
96.0796849280342968
  0
ARC
  5
111E6
  8
0
 10
4233.6182630315106508
 20
212.3337760844351862
 30
0.0
 40
0.019825476531225
 50
5.7871364861011321
 51
95.7252058591537178
  0
ARC
  5
111E7
  8
0
 10
4233.649848661060787
 20
212.344183353367896
 30
0.0
 40
0.011917232399837
 50
96.1910999762464343
 51
174.4415336760511082
  0
ARC
  5
111E8
  8
0
 10
4230.1220114101161016
 20
211.9257856423299984
 30
0.0
 40
0.0354330708984378
 50
90.0000000001042082
 51
134.9991515755687033
  0
ARC
  5
111E9
  8
0
 10
5348.6233221177753876
 20
-906.6086506423791889
 30
0.0
 40
1581.8585796993399981
 50
134.9991515755687033
 51
135.0008109201357058
  0
ARC
  5
111EA
  8
0
 10
4230.0896184199236814
 20
211.8933917820968134
 30
0.0
 40
0.0354337011049009
 50
135.0008109201357058
 51
179.9939365719438058
  0
ARC
  5
111EB
  8
0
 10
4230.0444571626276229
 20
211.8844023286364973
 30
0.0
 40
0.0097282097910656
 50
359.3359308567020776
 51
88.3951918720356957
  0
LINE
  5
111EC
  8
0
 10
4230.0447296062366149
 20
211.8941267227164076
 30
0.0
 11
4230.0266260889948171
 21
211.8941267227164076
 31
0.0
  0
ARC
  5
111ED
  8
0
 10
4230.0269847328281685
 20
211.8425851422965138
 30
0.0
 40
0.0515428281875826
 50
90.3986770713900682
 51
179.4182432749248903
  0
ARC
  5
111EE
  8
0
 10
4218.0503237118746256
 20
380.0587782428294759
 30
0.0
 40
168.4261221302230922
 50
274.6977540199868031
 51
275.5901362559487211
  0
LINE
  5
111EF
  8
0
 10
4230.0541847190179396
 20
211.8933955319405982
 30
0.0
 11
4230.0541847190179396
 21
211.3203804772471983
 31
0.0
  0
LINE
  5
111F0
  8
0
 10
4230.6168546257940761
 20
211.2525572959592921
 30
0.0
 11
4230.1220114101161016
 21
211.2525572959592921
 31
0.0
  0
LINE
  5
111F1
  8
0
 10
4231.8072788034432961
 20
211.095076980966212
 30
0.0
 11
4231.8269638429410406
 21
211.095076980966212
 31
0.0
  0
LINE
  5
111F2
  8
0
 10
4235.4883793631806839
 20
210.5045262828919874
 30
0.0
 11
4235.3874314586391847
 21
210.531575192403011
 31
0.0
  0
ARC
  5
111F3
  8
0
 10
4235.3976203449929017
 20
210.5696006339364033
 30
0.0
 40
0.0393668338702877
 50
207.2650469074933142
 51
254.999999994017287
  0
ARC
  5
111F4
  8
0
 10
4234.8586239179012409
 20
210.2918201105543119
 30
0.0
 40
0.5669987057089005
 50
27.2650469074932786
 51
73.8916642623268558
  0
ARC
  5
111F5
  8
0
 10
4235.004129197202019
 20
210.7328722565819987
 30
0.0
 40
0.0118110235994818
 50
270.0
 51
0.0
  0
LINE
  5
111F6
  8
0
 10
4235.004129197202019
 20
210.7210612329824926
 30
0.0
 11
4234.9316222402057974
 21
210.7210612329824926
 31
0.0
  0
ARC
  5
111F7
  8
0
 10
4234.9316222402057974
 20
210.7604313118233961
 30
0.0
 40
0.0393700788409068
 50
205.7648782192939052
 51
270.0
  0
ARC
  5
111F8
  8
0
 10
4234.8607100031531445
 20
210.7262046080302866
 30
0.0
 40
0.0393700800125793
 50
25.7648782192909884
 51
50.5979176401367496
  0
ARC
  5
111F9
  8
0
 10
4234.7857385179258927
 20
210.6349395910139037
 30
0.0
 40
0.1574803121195321
 50
50.5979176401367496
 51
116.5110912530052047
  0
ARC
  5
111FA
  8
0
 10
4234.7330175304441582
 20
210.7406302919586949
 30
0.0
 40
0.0393700806102307
 50
116.5110912530052047
 51
141.3447620380852072
  0
ARC
  5
111FB
  8
0
 10
4234.6715278719939306
 20
210.7898139753206976
 30
0.0
 40
0.0393700794436555
 50
263.9993750490147022
 51
321.3447620380825924
  0
ARC
  5
111FC
  8
0
 10
4231.8466488823396503
 20
211.0348566993687029
 30
0.0
 40
0.019685039399152
 50
180.0000000000293028
 51
263.2316770147824059
  0
ARC
  5
111FD
  8
0
 10
4231.7549709888908183
 20
211.0119720982839056
 30
0.0
 40
0.060234363819049
 50
207.7345331494476
 51
330.2738004629126749
  0
ARC
  5
111FE
  8
0
 10
4231.6703015970897468
 20
210.9674545552423126
 30
0.0
 40
0.0354250191314227
 50
27.7345331494508613
 51
96.00774098786232
  0
LINE
  5
111FF
  8
0
 10
4231.6665939144104414
 20
211.002685011804914
 30
0.0
 11
4231.0359466365944172
 21
210.9363151654249862
 31
0.0
  0
ARC
  5
11200
  8
0
 10
4231.0322423643274306
 20
210.9715132161813074
 30
0.0
 40
0.0353924343620918
 50
202.7995180454234969
 51
276.0077409878622916
  0
ARC
  5
11201
  8
0
 10
4199.0125721661052012
 20
197.5120001792417952
 30
0.0
 40
34.6981327364931715
 50
22.7995180454235182
 51
23.2004819270060487
  0
ARC
  5
11202
  8
0
 10
4230.7965063578849367
 20
211.1349282269160028
 30
0.0
 40
0.1177533097211376
 50
23.2004819270060487
 51
75.8314262527151186
  0
ARC
  5
11203
  8
0
 10
4230.8340789131889323
 20
211.2837567312911915
 30
0.0
 40
0.0357446401892019
 50
212.6383967117178031
 51
255.8314262527150902
  0
ARC
  5
11204
  8
0
 10
4230.7739528601032362
 20
211.2452477185968007
 30
0.0
 40
0.0356562443873092
 50
32.6383967117129217
 51
89.8032039030201759
  0
LINE
  5
11205
  8
0
 10
4230.7740753297866831
 20
211.2809037526579914
 30
0.0
 11
4230.674103417662991
 21
211.2812471315187111
 31
0.0
  0
ARC
  5
11206
  8
0
 10
4230.6739840507007102
 20
211.2464944290724986
 30
0.0
 40
0.0347529074435656
 50
89.8032039030201759
 51
145.9182769496854917
  0
ARC
  5
11207
  8
0
 10
4230.6139368308831763
 20
211.2953841404439004
 30
0.0
 40
0.0429261241628951
 50
273.8975411657137897
 51
316.7448559420706147
  0
ARC
  5
11208
  8
0
 10
4272.6566895277519507
 20
577.0948815420165374
 30
0.0
 40
368.3086669296794184
 50
263.9203150719657174
 51
264.0796849284889163
  0
ARC
  5
11209
  8
0
 10
4233.6182630315106508
 20
210.8799999247524966
 30
0.0
 40
0.019825476531225
 50
264.2747941408463248
 51
354.212863513898526
  0
ARC
  5
1120A
  8
0
 10
4233.649848661060787
 20
210.8695926558199005
 30
0.0
 40
0.011917232399837
 50
185.5584663239471865
 51
263.8089000237536084
  0
ARC
  5
1120B
  8
0
 10
4230.1220114101161016
 20
211.2879903668577128
 30
0.0
 40
0.0354330708984378
 50
225.0008484244312967
 51
269.999999999895806
  0
ARC
  5
1120C
  8
0
 10
5348.6233221177753876
 20
1329.8224266515660474
 30
0.0
 40
1581.8585796993399981
 50
224.9991890798642089
 51
225.0008484244312967
  0
ARC
  5
1120D
  8
0
 10
4230.0896184199236814
 20
211.3203842270908126
 30
0.0
 40
0.0354337011049009
 50
180.0060634280561089
 51
224.9991890798642089
  0
ARC
  5
1120E
  8
0
 10
4230.0442538202014475
 20
211.329457807208712
 30
0.0
 40
0.0099309400641809
 50
269.6013229286098749
 51
0.1651363461696254
  0
LINE
  5
1120F
  8
0
 10
4230.0441847190186309
 20
211.3195271075564108
 30
0.0
 11
4230.0266260889948171
 21
211.3196492864713889
 31
0.0
  0
ARC
  5
11210
  8
0
 10
4230.0269847328281685
 20
211.3711908668911974
 30
0.0
 40
0.0515428281875826
 50
180.5817567250734044
 51
269.6013229286098749
  0
ARC
  5
11211
  8
0
 10
4218.0503237118746256
 20
43.1549977663582567
 30
0.0
 40
168.4261221302230922
 50
84.6971500882332151
 51
85.3022459800131969
  0
LINE
  5
11212
  8
0
 10
4232.732475654001064
 20
210.2576758119527938
 30
0.0
 11
4232.732475654001064
 21
210.6265730440366042
 31
0.0
  0
LINE
  5
11213
  8
0
 10
4232.2764389268158993
 20
210.6265730440366042
 30
0.0
 11
4233.1885133137757293
 21
210.6265730440366042
 31
0.0
  0
LINE
  5
11214
  8
0
 10
4233.1885133137757293
 20
210.6265730440366042
 30
0.0
 11
4233.1885133137757293
 21
210.2576758119527938
 31
0.0
  0
LINE
  5
11215
  8
0
 10
4233.1885133137757293
 20
210.2576758119527938
 30
0.0
 11
4232.2764389268158993
 21
210.2576758119527938
 31
0.0
  0
LINE
  5
11216
  8
0
 10
4232.2764389268158993
 20
210.2576758119527938
 30
0.0
 11
4232.2764389268158993
 21
210.6265730440366042
 31
0.0
  0
LINE
  5
11217
  8
0
 10
4232.7104369871958625
 20
210.2576758119527938
 30
0.0
 11
4232.7104369871958625
 21
210.6265730440366042
 31
0.0
  0
LINE
  5
11218
  8
0
 10
4232.6897288127966021
 20
210.2576758119527938
 30
0.0
 11
4232.6897288127966021
 21
210.6265730440366042
 31
0.0
  0
LINE
  5
11219
  8
0
 10
4232.6665644943977895
 20
210.2576758119527938
 30
0.0
 11
4232.6665644943977895
 21
210.6265730440366042
 31
0.0
  0
LINE
  5
1121A
  8
0
 10
4232.6473806253998191
 20
210.2576758119527938
 30
0.0
 11
4232.6473806253998191
 21
210.6265730440366042
 31
0.0
  0
LINE
  5
1121B
  8
0
 10
4232.6233074007013784
 20
210.2576758119527938
 30
0.0
 11
4232.6233074007013784
 21
210.6265730440366042
 31
0.0
  0
LINE
  5
1121C
  8
0
 10
4232.6058269517016015
 20
210.2576758119527938
 30
0.0
 11
4232.6058269517016015
 21
210.6265730440366042
 31
0.0
  0
LINE
  5
1121D
  8
0
 10
4232.5810695859026964
 20
210.2576758119527938
 30
0.0
 11
4232.5810695859026964
 21
210.6265730440366042
 31
0.0
  0
LINE
  5
1121E
  8
0
 10
4232.5654557672032752
 20
210.2576758119527938
 30
0.0
 11
4232.5654557672032752
 21
210.6265730440366042
 31
0.0
  0
LINE
  5
1121F
  8
0
 10
4232.5402454131035483
 20
210.2576758119527938
 30
0.0
 11
4232.5402454131035483
 21
210.6265730440366042
 31
0.0
  0
LINE
  5
11220
  8
0
 10
4232.5266440067052827
 20
210.2576758119527938
 30
0.0
 11
4232.5266440067052827
 21
210.6265730440366042
 31
0.0
  0
LINE
  5
11221
  8
0
 10
4232.5012160467049398
 20
210.2576758119527938
 30
0.0
 11
4232.5012160467049398
 21
210.6265730440366042
 31
0.0
  0
LINE
  5
11222
  8
0
 10
4232.4897540452057001
 20
210.2576758119527938
 30
0.0
 11
4232.4897540452057001
 21
210.6265730440366042
 31
0.0
  0
LINE
  5
11223
  8
0
 10
4232.464345893207792
 20
210.2576758119527938
 30
0.0
 11
4232.464345893207792
 21
210.6265730440366042
 31
0.0
  0
LINE
  5
11224
  8
0
 10
4232.4551303143089171
 20
210.2576758119527938
 30
0.0
 11
4232.4551303143089171
 21
210.6265730440366042
 31
0.0
  0
LINE
  5
11225
  8
0
 10
4232.429979199509944
 20
210.2576758119527938
 30
0.0
 11
4232.429979199509944
 21
210.6265730440366042
 31
0.0
  0
LINE
  5
11226
  8
0
 10
4232.4230960865097586
 20
210.2576758119527938
 30
0.0
 11
4232.4230960865097586
 21
210.6265730440366042
 31
0.0
  0
LINE
  5
11227
  8
0
 10
4232.398436837909685
 20
210.2576758119527938
 30
0.0
 11
4232.398436837909685
 21
210.6265730440366042
 31
0.0
  0
LINE
  5
11228
  8
0
 10
4232.3939504567106269
 20
210.2576758119527938
 30
0.0
 11
4232.3939504567106269
 21
210.6265730440366042
 31
0.0
  0
LINE
  5
11229
  8
0
 10
4232.3700133112115509
 20
210.2576758119527938
 30
0.0
 11
4232.3700133112115509
 21
210.6265730440366042
 31
0.0
  0
LINE
  5
1122A
  8
0
 10
4232.3449740020132595
 20
210.2576758119527938
 30
0.0
 11
4232.3449740020132595
 21
210.6265730440366042
 31
0.0
  0
LINE
  5
1122B
  8
0
 10
4232.3235526958142145
 20
210.2576758119527938
 30
0.0
 11
4232.3235526958142145
 21
210.6265730440366042
 31
0.0
  0
LINE
  5
1122C
  8
0
 10
4232.3059493973150893
 20
210.2576758119527938
 30
0.0
 11
4232.3059493973150893
 21
210.6265730440366042
 31
0.0
  0
LINE
  5
1122D
  8
0
 10
4232.2923284640146449
 20
210.2576758119527938
 30
0.0
 11
4232.2923284640146449
 21
210.6265730440366042
 31
0.0
  0
LINE
  5
1122E
  8
0
 10
4232.2828170707161917
 20
210.2576758119527938
 30
0.0
 11
4232.2828170707161917
 21
210.6265730440366042
 31
0.0
  0
LINE
  5
1122F
  8
0
 10
4232.754514320805356
 20
210.2576758119527938
 30
0.0
 11
4232.754514320805356
 21
210.6265730440366042
 31
0.0
  0
LINE
  5
11230
  8
0
 10
4232.7752224952046163
 20
210.2576758119527938
 30
0.0
 11
4232.7752224952046163
 21
210.6265730440366042
 31
0.0
  0
LINE
  5
11231
  8
0
 10
4232.7983868136043384
 20
210.2576758119527938
 30
0.0
 11
4232.7983868136043384
 21
210.6265730440366042
 31
0.0
  0
LINE
  5
11232
  8
0
 10
4232.8175706826032183
 20
210.2576758119527938
 30
0.0
 11
4232.8175706826032183
 21
210.6265730440366042
 31
0.0
  0
LINE
  5
11233
  8
0
 10
4232.8416439073016591
 20
210.2576758119527938
 30
0.0
 11
4232.8416439073016591
 21
210.6265730440366042
 31
0.0
  0
LINE
  5
11234
  8
0
 10
4232.8591243563014359
 20
210.2576758119527938
 30
0.0
 11
4232.8591243563014359
 21
210.6265730440366042
 31
0.0
  0
LINE
  5
11235
  8
0
 10
4232.883881722100341
 20
210.2576758119527938
 30
0.0
 11
4232.883881722100341
 21
210.6265730440366042
 31
0.0
  0
LINE
  5
11236
  8
0
 10
4232.8994955407997622
 20
210.2576758119527938
 30
0.0
 11
4232.8994955407997622
 21
210.6265730440366042
 31
0.0
  0
LINE
  5
11237
  8
0
 10
4232.9247058948976701
 20
210.2576758119527938
 30
0.0
 11
4232.9247058948976701
 21
210.6265730440366042
 31
0.0
  0
LINE
  5
11238
  8
0
 10
4232.9383073012977547
 20
210.2576758119527938
 30
0.0
 11
4232.9383073012977547
 21
210.6265730440366042
 31
0.0
  0
LINE
  5
11239
  8
0
 10
4232.9637352612962786
 20
210.2576758119527938
 30
0.0
 11
4232.9637352612962786
 21
210.6265730440366042
 31
0.0
  0
LINE
  5
1123A
  8
0
 10
4232.9751972627964278
 20
210.2576758119527938
 30
0.0
 11
4232.9751972627964278
 21
210.6265730440366042
 31
0.0
  0
LINE
  5
1123B
  8
0
 10
4233.0006054147952455
 20
210.2576758119527938
 30
0.0
 11
4233.0006054147952455
 21
210.6265730440366042
 31
0.0
  0
LINE
  5
1123C
  8
0
 10
4233.0098209936950298
 20
210.2576758119527938
 30
0.0
 11
4233.0098209936950298
 21
210.6265730440366042
 31
0.0
  0
LINE
  5
1123D
  8
0
 10
4233.0349721084940029
 20
210.2576758119527938
 30
0.0
 11
4233.0349721084940029
 21
210.6265730440366042
 31
0.0
  0
LINE
  5
1123E
  8
0
 10
4233.0418552214932788
 20
210.2576758119527938
 30
0.0
 11
4233.0418552214932788
 21
210.6265730440366042
 31
0.0
  0
LINE
  5
1123F
  8
0
 10
4233.0665144700924429
 20
210.2576758119527938
 30
0.0
 11
4233.0665144700924429
 21
210.6265730440366042
 31
0.0
  0
LINE
  5
11240
  8
0
 10
4233.0710008512924105
 20
210.2576758119527938
 30
0.0
 11
4233.0710008512924105
 21
210.6265730440366042
 31
0.0
  0
LINE
  5
11241
  8
0
 10
4233.094937996790577
 20
210.2576758119527938
 30
0.0
 11
4233.094937996790577
 21
210.6265730440366042
 31
0.0
  0
LINE
  5
11242
  8
0
 10
4233.1199773059906875
 20
210.2576758119527938
 30
0.0
 11
4233.1199773059906875
 21
210.6265730440366042
 31
0.0
  0
LINE
  5
11243
  8
0
 10
4233.1413986121888229
 20
210.2576758119527938
 30
0.0
 11
4233.1413986121888229
 21
210.6265730440366042
 31
0.0
  0
LINE
  5
11244
  8
0
 10
4233.1590019106888576
 20
210.2576758119527938
 30
0.0
 11
4233.1590019106888576
 21
210.6265730440366042
 31
0.0
  0
LINE
  5
11245
  8
0
 10
4233.1726228439865736
 20
210.2576758119527938
 30
0.0
 11
4233.1726228439865736
 21
210.6265730440366042
 31
0.0
  0
LINE
  5
11246
  8
0
 10
4233.1821342372877552
 20
210.2576758119527938
 30
0.0
 11
4233.1821342372877552
 21
210.6265730440366042
 31
0.0
  0
LINE
  5
11247
  8
0
 10
4233.1950740791817225
 20
210.7486202881314057
 30
0.0
 11
4232.2698772288222244
 21
210.7486202881314057
 31
0.0
  0
LINE
  5
11248
  8
0
 10
4233.126164553083072
 20
210.1756986492563897
 30
0.0
 11
4232.338786754919056
 21
210.1756986492563897
 31
0.0
  0
LINE
  5
11249
  8
0
 10
4233.126164553083072
 20
210.1756986492563897
 30
0.0
 11
4233.126164553083072
 21
210.2576758119527938
 31
0.0
  0
LINE
  5
1124A
  8
0
 10
4233.1449953389828806
 20
210.6265730440366042
 30
0.0
 11
4233.1449953389828806
 21
210.7486202881314057
 31
0.0
  0
LINE
  5
1124B
  8
0
 10
4233.1950740791817225
 20
210.7486202881314057
 30
0.0
 11
4233.1950740791817225
 21
210.8971245480248058
 31
0.0
  0
LINE
  5
1124C
  8
0
 10
4232.338786754919056
 20
210.1756986492563897
 30
0.0
 11
4232.338786754919056
 21
210.2576758119527938
 31
0.0
  0
LINE
  5
1124D
  8
0
 10
4232.3199559690192473
 20
210.6265730440366042
 30
0.0
 11
4232.3199559690192473
 21
210.7486202881314057
 31
0.0
  0
LINE
  5
1124E
  8
0
 10
4232.2698772288222244
 20
210.7486202881314057
 30
0.0
 11
4232.2698772288222244
 21
210.9797960340860072
 31
0.0
  0
LINE
  5
1124F
  8
0
 10
4233.0270989764476326
 20
210.1756986492563897
 30
0.0
 11
4233.0270989764476326
 21
203.4488230113869065
 31
0.0
  0
LINE
  5
11250
  8
0
 10
4232.4378523315554048
 20
210.1756986492563897
 30
0.0
 11
4232.4378523315554048
 21
203.5419743608291014
 31
0.0
  0
LINE
  5
11251
  8
0
 10
4231.489773902451816
 20
238.7213662938274865
 30
0.0
 11
4231.4605038433574009
 21
238.8306029954989924
 31
0.0
  0
LINE
  5
11252
  8
0
 10
4231.2877053586653346
 20
238.5730935321172126
 30
0.0
 11
4231.3501014767743982
 21
238.2942706649326112
 31
0.0
  0
ARC
  5
11253
  8
0
 10
4231.3212866180374476
 20
238.287822358352912
 30
0.0
 40
0.0295275590209316
 50
284.9987960793670254
 51
12.6140559778472596
  0
LINE
  5
11254
  8
0
 10
4231.3289283133626668
 20
238.2593007659309023
 30
0.0
 11
4230.5946846802689834
 21
238.0580113638908983
 31
0.0
  0
ARC
  5
11255
  8
0
 10
4230.6117476143226668
 20
238.1013235690234922
 30
0.0
 40
0.046552022855794
 50
200.8285578393195863
 51
248.4979356058306905
  0
LINE
  5
11256
  8
0
 10
4230.5682378329656785
 20
238.0847709330307111
 30
0.0
 11
4230.4731078882487054
 21
238.3885921325845061
 31
0.0
  0
ARC
  5
11257
  8
0
 10
4101.7785966876062957
 20
202.1670353473031128
 30
0.0
 40
134.4040320375544013
 50
13.3476817088062294
 51
15.5677903354894092
  0
ARC
  5
11258
  8
0
 10
4216.1025541759490807
 20
230.1018139995871081
 30
0.0
 40
16.7378187215134204
 50
356.0580493552071744
 51
10.6513022571266198
  0
ARC
  5
11259
  8
0
 10
4198.9585093609866817
 20
232.815469230606908
 30
0.0
 40
34.0621757022598217
 50
338.0498802989894216
 51
353.4858440824809236
  0
ARC
  5
1125A
  8
0
 10
4193.6328561842856288
 20
235.3172331743961081
 30
0.0
 40
39.9382885959908975
 50
325.5972109125139013
 51
337.5769064313640797
  0
ARC
  5
1125B
  8
0
 10
4274.9332317289772618
 20
178.8087705703798918
 30
0.0
 40
59.0732178737644702
 50
144.9288821317774136
 51
150.5822365097135958
  0
ARC
  5
1125C
  8
0
 10
4230.1233491910315934
 20
203.7141365752233924
 30
0.0
 40
7.8145517896597321
 50
148.2695969034265033
 51
188.4996844780771994
  0
ARC
  5
1125D
  8
0
 10
4227.3416726556361027
 20
203.7829572857353071
 30
0.0
 40
5.096179904377637
 50
193.8953339280485011
 51
239.470375815131689
  0
ARC
  5
1125E
  8
0
 10
4227.3416726556097274
 20
203.7829572856545042
 30
0.0
 40
5.0961799042941074
 50
239.470375814949989
 51
288.3140800210799739
  0
ARC
  5
1125F
  8
0
 10
4227.3416726557406946
 20
203.7829572856360016
 30
0.0
 40
5.09617990423504
 50
288.3140800197627982
 51
324.3440899805527238
  0
ARC
  5
11260
  8
0
 10
4227.2809092446914292
 20
203.8148611138672948
 30
0.0
 40
5.1641581289828764
 50
324.4494591263293159
 51
356.970939995630772
  0
ARC
  5
11261
  8
0
 10
4101.2091697153819041
 20
202.0104511888962122
 30
0.0
 40
134.4040320375544013
 50
13.3476817088062294
 51
15.5677903354894092
  0
ARC
  5
11262
  8
0
 10
4215.5331272037255985
 20
229.9452298411804065
 30
0.0
 40
16.7378187215134204
 50
356.0580493552071744
 51
10.6513022571266198
  0
ARC
  5
11263
  8
0
 10
4194.3850914977383582
 20
234.0389566271703927
 30
0.0
 40
38.2078872143149084
 50
338.2880130312997835
 51
352.1107261275540168
  0
ARC
  5
11264
  8
0
 10
4187.1427235008450225
 20
239.0322861023921064
 30
0.0
 40
46.8247166890640969
 50
325.8913168261590272
 51
335.8892215193915831
  0
ARC
  5
11265
  8
0
 10
4262.6080625669810615
 20
186.3538842698725091
 30
0.0
 40
45.2175390177104504
 50
144.2462030591227915
 51
151.49558105819969
  0
ARC
  5
11266
  8
0
 10
4231.0756237545801923
 20
203.5161680786088994
 30
0.0
 40
9.3172165743504678
 50
151.7031899255775045
 51
186.8646717441413898
  0
ARC
  5
11267
  8
0
 10
4227.3493373093360788
 20
203.7902759848340963
 30
0.0
 40
5.6957816085162962
 50
194.1017362628489025
 51
232.5757894219798061
  0
ARC
  5
11268
  8
0
 10
4227.3417981781567505
 20
203.7824236194387026
 30
0.0
 40
5.6849641039162329
 50
232.588037674927989
 51
270.3792984339943928
  0
ARC
  5
11269
  8
0
 10
4227.3414420416811481
 20
203.7832422760378108
 30
0.0
 40
5.6857851110016018
 50
270.3828325381832087
 51
320.6589402015080168
  0
ARC
  5
1126A
  8
0
 10
4227.2524250086880784
 20
203.8351916315916128
 30
0.0
 40
5.7875850010684937
 50
320.8198525794434204
 51
356.1721914450000099
  0
LINE
  5
1126B
  8
0
 10
4230.5615297224048845
 20
238.3785153568817066
 30
0.0
 11
4231.3880614091940515
 21
238.5999838548885066
 31
0.0
  0
LINE
  5
1126C
  8
0
 10
4230.4191805057398597
 20
238.3967754799382135
 30
0.0
 11
4230.5454210711077394
 21
238.3776187853520128
 31
0.0
  0
LINE
  5
1126D
  8
0
 10
4230.1894611692587205
 20
239.1628846818713896
 30
0.0
 11
4230.3870342091031489
 21
238.4255320586505889
 31
0.0
  0
LINE
  5
1126E
  8
0
 10
4230.2759746558203915
 20
239.2642127557182903
 30
0.0
 11
4230.2024263213215818
 21
239.2034587090159903
 31
0.0
  0
ARC
  5
1126F
  8
0
 10
4230.2275186468159518
 20
239.1730821522442909
 30
0.0
 40
0.0394
 50
129.5581523701187905
 51
194.9999999938223141
  0
ARC
  5
11270
  8
0
 10
4230.4250916866612897
 20
238.4357295290234902
 30
0.0
 40
0.0394
 50
194.9999999938208077
 51
261.3713364837507811
  0
ARC
  5
11271
  8
0
 10
4230.5513322520273505
 20
238.4165728344372894
 30
0.0
 40
0.0394
 50
261.3713364837507811
 51
285.000000000856005
  0
ARC
  5
11272
  8
0
 10
4231.3778639388146985
 20
238.6380413324438905
 30
0.0
 40
0.0394
 50
285.000000000856005
 51
306.5913859714834189
  0
LINE
  5
11273
  8
0
 10
4230.121996007411326
 20
211.7007538043359887
 30
0.0
 11
4230.8927088629752689
 21
211.7007515858946078
 31
0.0
  0
LINE
  5
11274
  8
0
 10
4230.1219951537259476
 20
211.5130277534161962
 30
0.0
 11
4230.8927234928269172
 21
211.5130277534161962
 31
0.0
  0
LINE
  5
11275
  8
0
 10
4230.1219959017280416
 20
211.7417080303964099
 30
0.0
 11
4230.5006749310450687
 21
211.741707908674897
 31
0.0
  0
LINE
  5
11276
  8
0
 10
4230.1219959030304381
 20
211.4720803481862106
 30
0.0
 11
4230.5020563043235597
 21
211.4720804746727936
 31
0.0
  0
LINE
  5
11277
  8
0
 10
4230.0969662172710741
 20
211.4824468622011864
 30
0.0
 11
4230.0645550450408336
 21
211.5148530989779943
 31
0.0
  0
LINE
  5
11278
  8
0
 10
4230.0650178445193887
 20
211.6993980112887925
 30
0.0
 11
4230.0969662170682568
 21
211.7313415170785049
 31
0.0
  0
ARC
  5
11279
  8
0
 10
4230.0897876098761117
 20
211.6737887551196877
 30
0.0
 40
0.0356282932131034
 50
134.0453402967054046
 51
177.8362808080933064
  0
ARC
  5
1127A
  8
0
 10
4230.1219958903493534
 20
211.7063080303964
 30
0.0
 40
0.0354
 50
89.9999815830018832
 51
134.9956356768292949
  0
LINE
  5
1127B
  8
0
 10
4230.0969662319630515
 20
211.6903872907473101
 30
0.0
 11
4230.0645550454655677
 21
211.6579810408107107
 31
0.0
  0
ARC
  5
1127C
  8
0
 10
4230.1219959055142681
 20
211.6653538043360925
 30
0.0
 40
0.0354
 50
89.9998350782268659
 51
134.9956362972014858
  0
LINE
  5
1127D
  8
0
 10
4230.0969654795926544
 20
211.5233942675858998
 30
0.0
 11
4230.0645550448862195
 21
211.5557997673523118
 31
0.0
  0
ARC
  5
1127E
  8
0
 10
4230.1219951537259476
 20
211.5484277534162061
 30
0.0
 40
0.0354
 50
225.0043623734080995
 51
270.0
  0
ARC
  5
1127F
  8
0
 10
4230.1219958912488437
 20
211.507480348186192
 30
0.0
 40
0.0354
 50
225.0043627272893048
 51
270.0000190684277754
  0
ARC
  5
11280
  8
0
 10
4230.0895847190176937
 20
211.5398865849629999
 30
0.0
 40
0.0354
 50
180.0
 51
225.0043627272818014
  0
ARC
  5
11281
  8
0
 10
4230.0895847190176937
 20
211.5808332531827034
 30
0.0
 40
0.0354
 50
180.0
 51
225.0043623734075027
  0
ARC
  5
11282
  8
0
 10
4230.0895847190176937
 20
211.6329475543996068
 30
0.0
 40
0.0354
 50
134.9956362972014858
 51
180.0
  0
LINE
  5
11283
  8
0
 10
4230.9365439330313166
 20
211.5425736474882967
 30
0.0
 11
4230.9180116998222729
 21
211.5236554586703903
 31
0.0
  0
LINE
  5
11284
  8
0
 10
4230.9364438652819445
 20
211.6713288209159032
 30
0.0
 11
4230.9179732641887313
 21
211.6901480550504004
 31
0.0
  0
ARC
  5
11285
  8
0
 10
4230.8342260889312456
 20
211.6068717522730083
 30
0.0
 40
0.1208436489853666
 50
327.8541149465266926
 51
32.2349449084127571
  0
ARC
  5
11286
  8
0
 10
4230.8927087610791204
 20
211.6653515858947969
 30
0.0
 40
0.0354
 50
44.4643414265893711
 51
89.9998350782268659
  0
ARC
  5
11287
  8
0
 10
4230.8927234928269172
 20
211.5484277534162061
 30
0.0
 40
0.0354
 50
270.0
 51
315.5904564880216867
  0
ARC
  5
11288
  8
0
 10
4230.5979305541441136
 20
211.2339845724378051
 30
0.0
 40
0.2566739769426271
 50
96.5976885795200957
 51
111.9332028197229931
  0
ARC
  5
11289
  8
0
 10
4230.9263439654496324
 20
208.3945871488519117
 30
0.0
 40
3.1150009522538529
 50
93.6474553920412518
 51
96.5976885795200957
  0
ARC
  5
1128A
  8
0
 10
4231.7891757132001658
 20
194.9896734760791901
 30
0.0
 40
16.5476543098350284
 50
93.1054604191263877
 51
93.6762009179439161
  0
ARC
  5
1128B
  8
0
 10
4230.5505831911586938
 20
211.8261462528585071
 30
0.0
 40
0.0980850059701685
 50
239.4142982662150132
 51
268.5785171135038922
  0
ARC
  5
1128C
  8
0
 10
4231.0709994359967823
 20
216.132588513494909
 30
0.0
 40
4.4354217478465019
 50
263.2302078602119764
 51
267.6962618394513242
  0
LINE
  5
1128D
  8
0
 10
4230.8194042913655721
 20
238.1519227622721928
 30
0.0
 11
4230.7577533987150673
 21
238.310049432505707
 31
0.0
  0
LINE
  5
1128E
  8
0
 10
4230.7577533987150673
 20
238.310049432505707
 30
0.0
 11
4231.0733348289477362
 21
238.3946092896111111
 31
0.0
  0
LINE
  5
1128F
  8
0
 10
4231.0733348289477362
 20
238.3946092896111111
 30
0.0
 11
4231.0989855688440002
 21
238.2269829879334111
 31
0.0
  0
ARC
  5
11290
  8
0
 10
4231.0764567662381523
 20
238.2275997862905967
 30
0.0
 40
0.0225372444431326
 50
307.902894213700506
 51
358.4317357037991201
  0
ARC
  5
11291
  8
0
 10
4230.9964741609273915
 20
238.3303312606045097
 30
0.0
 40
0.1527331467092001
 50
287.2226474314928737
 51
307.9028942137002787
  0
ARC
  5
11292
  8
0
 10
4231.7587336742453772
 20
235.8713099111228075
 30
0.0
 40
2.42172321587524
 50
107.2226474314929021
 51
109.0391189259923976
  0
ARC
  5
11293
  8
0
 10
4230.7996643663518626
 20
238.7819510376313019
 30
0.0
 40
0.6439854951659254
 50
279.0401719219702841
 51
285.2206663865929954
  0
ARC
  5
11294
  8
0
 10
4230.8503196422016117
 20
238.3594700494450933
 30
0.0
 40
0.2194036619296401
 50
268.5645624288927138
 51
283.3156799336356926
  0
ARC
  5
11295
  8
0
 10
4230.8417177448500297
 20
238.1667392321093075
 30
0.0
 40
0.0267846595051021
 50
213.5847605351100924
 51
276.658522979926488
  0
LINE
  5
11297
  8
0
 10
4232.3032302233850714
 20
212.2368092643939974
 30
0.0
 11
4231.8039893916784422
 21
212.2368092643939974
 31
0.0
  0
LINE
  5
11298
  8
0
 10
4231.7059525861059228
 20
212.2368092643939974
 30
0.0
 11
4231.4222185547350819
 21
212.2368092643939974
 31
0.0
  0
LINE
  5
11299
  8
0
 10
4230.9415627545513416
 20
212.118699028193987
 30
0.0
 11
4230.5671213230807552
 21
212.118699028193987
 31
0.0
  0
LINE
  5
1129A
  8
0
 10
4230.9415627545513416
 20
211.0950769809940084
 30
0.0
 11
4230.5671213230198191
 21
211.0950769809940084
 31
0.0
  0
LINE
  5
1129B
  8
0
 10
4226.9698667282264068
 20
209.7463187558772972
 30
0.0
 11
4227.8563406509883862
 21
209.2345127979095878
 31
0.0
  0
LINE
  5
1129C
  8
0
 10
4227.0289130723986091
 20
209.8486102865944076
 30
0.0
 11
4227.9153957690841708
 21
209.3367992628793957
 31
0.0
  0
ARC
  5
1129D
  8
0
 10
4227.8858682100326405
 20
209.2856560303960123
 30
0.0
 40
0.0590551180874541
 50
239.9999999984900114
 51
59.9999999926027527
  0
ARC
  5
1129E
  8
0
 10
4226.9993855131060627
 20
209.7974670536893882
 30
0.0
 40
0.0590551185742554
 50
59.9999999926027527
 51
240.0098289145244905
  0
LINE
  5
1129F
  8
0
 10
4228.1122461628374367
 20
209.6777541463897876
 30
0.0
 11
4227.9153957690759853
 21
209.336799262884
 31
0.0
  0
LINE
  5
112A0
  8
0
 10
4227.2257634661973498
 20
210.1895651702681107
 30
0.0
 11
4227.0289130723112976
 21
209.8486102866453109
 31
0.0
  0
ARC
  5
112A1
  8
0
 10
4230.5671213230198191
 20
208.260431311920911
 30
0.0
 40
2.8346456690730819
 50
89.9999999987493453
 51
150.0000000049423079
  0
ARC
  5
112A2
  8
0
 10
4230.5671213230807552
 20
208.260431311693992
 30
0.0
 40
3.8582677165000052
 50
90.0
 51
150.0000000007078995
  0
LINE
  5
112A3
  8
0
 10
4233.1927453552771112
 20
213.187454760018511
 30
0.0
 11
4233.0891896947377973
 21
212.4506179480065953
 31
0.0
  0
LINE
  5
112A4
  8
0
 10
4233.0696814137836554
 20
212.4336596580940011
 30
0.0
 11
4232.3952698938792309
 21
212.4336596580940011
 31
0.0
  0
LINE
  5
112A5
  8
0
 10
4232.2722059523839562
 20
213.187454760018511
 30
0.0
 11
4232.3757616129241796
 21
212.4506179480065953
 31
0.0
  0
ARC
  5
112A6
  8
0
 10
4232.7345595969800343
 20
211.6434849892106911
 30
0.0
 40
0.6567208162982908
 50
78.0447531730696795
 51
111.9213534945579056
  0
LINE
  5
112A7
  8
0
 10
4232.4083722221412245
 20
213.294522791312005
 30
0.0
 11
4232.2915225143096905
 21
213.2270595811112912
 31
0.0
  0
LINE
  5
112A8
  8
0
 10
4233.0565790855225714
 20
213.294522791312005
 30
0.0
 11
4233.1734287933541054
 21
213.2270595811112912
 31
0.0
  0
LINE
  5
112A9
  8
0
 10
4233.0368790855372936
 20
213.2998013903938954
 30
0.0
 11
4232.4280722221246833
 21
213.2998013903938954
 31
0.0
  0
ARC
  5
112AA
  8
0
 10
4233.0368790855372936
 20
213.2604013903940086
 30
0.0
 40
0.0394
 50
60.0000000258740229
 51
90.0
  0
ARC
  5
112AB
  8
0
 10
4232.4280722221246833
 20
213.2604013903940086
 30
0.0
 40
0.0394
 50
90.0
 51
119.9999999741259984
  0
ARC
  5
112AC
  8
0
 10
4232.3112225142940588
 20
213.1929381801932095
 30
0.0
 40
0.0394
 50
119.9999999741223036
 51
187.9999999954328018
  0
ARC
  5
112AD
  8
0
 10
4233.1537287933697371
 20
213.1929381801932948
 30
0.0
 40
0.0394
 50
352.0000000045798174
 51
60.0000000258758419
  0
ARC
  5
112AE
  8
0
 10
4233.0696814137836554
 20
212.4533596580940014
 30
0.0
 40
0.0197
 50
270.0
 51
352.0000000045703814
  0
ARC
  5
112AF
  8
0
 10
4232.3952698938792309
 20
212.4533596580940014
 30
0.0
 40
0.0197
 50
187.9999999954216889
 51
270.0
  0
LINE
  5
112B0
  8
0
 10
4232.8112158112808174
 20
212.2957165856304869
 30
0.0
 11
4232.8112158112808174
 21
212.4336596580940011
 31
0.0
  0
LINE
  5
112B1
  8
0
 10
4232.653735496382069
 20
212.295213226532212
 30
0.0
 11
4232.653735496382069
 21
212.4336596580940011
 31
0.0
  0
LINE
  5
112B2
  8
0
 10
4232.2722059523839562
 20
213.187454760018511
 30
0.0
 11
4233.1927453552771112
 21
213.187454760018511
 31
0.0
  0
LINE
  5
112B3
  8
0
 10
4233.1734287933541054
 20
213.2270595811112912
 30
0.0
 11
4232.2915225143096905
 21
213.2270595811112912
 31
0.0
  0
ENDSEC
  0
EOF
