  0
SECTION
  2
HEADER
  9
$ACADVER
  1
AC1009
  9
$INSBASE
 10
4201.6257549576675956
 20
214.2432687988404894
 30
0.0
  9
$EXTMIN
 10
4195.8383533830710803
 20
200.7339648796298945
 30
0.0
  9
$EXTMAX
 10
4207.4131565322659299
 20
250.591203332530398
 30
0.0
  9
$LIMMIN
 10
0.0
 20
0.0
  9
$LIMMAX
 10
11.6929133858000007
 20
8.2677165353999982
  9
$ORTHOMODE
 70
     0
  9
$REGENMODE
 70
     1
  9
$FILLMODE
 70
     1
  9
$QTEXTMODE
 70
     0
  9
$MIRRTEXT
 70
     0
  9
$DRAGMODE
 70
     2
  9
$LTSCALE
 40
0.6431102362
  9
$OSMODE
 70
  3839
  9
$ATTMODE
 70
     1
  9
$TEXTSIZE
 40
0.2
  9
$TRACEWID
 40
0.05
  9
$TEXTSTYLE
  7
STANDARD
  9
$CLAYER
  8
0
  9
$CELTYPE
  6
BYLAYER
  9
$CECOLOR
 62
   256
  9
$DIMSCALE
 40
1.0
  9
$DIMASZ
 40
0.1875
  9
$DIMEXO
 40
0.0625
  9
$DIMDLI
 40
0.4443307087
  9
$DIMRND
 40
0.0
  9
$DIMDLE
 40
0.0
  9
$DIMEXE
 40
0.125
  9
$DIMTP
 40
0.01
  9
$DIMTM
 40
0.01
  9
$DIMTXT
 40
2.0
  9
$DIMCEN
 40
0.1052362205
  9
$DIMTSZ
 40
0.0
  9
$DIMTOL
 70
     1
  9
$DIMLIM
 70
     0
  9
$DIMTIH
 70
     1
  9
$DIMTOH
 70
     1
  9
$DIMSE1
 70
     0
  9
$DIMSE2
 70
     0
  9
$DIMTAD
 70
     0
  9
$DIMZIN
 70
     0
  9
$DIMBLK
  1

  9
$DIMASO
 70
     1
  9
$DIMSHO
 70
     1
  9
$DIMPOST
  1
\X
  9
$DIMAPOST
  1

  9
$DIMALT
 70
     1
  9
$DIMALTD
 70
     2
  9
$DIMALTF
 40
25.3999999999999986
  9
$DIMLFAC
 40
1.0
  9
$DIMTOFL
 70
     0
  9
$DIMTVP
 40
0.0
  9
$DIMTIX
 70
     0
  9
$DIMSOXD
 70
     0
  9
$DIMSAH
 70
     0
  9
$DIMBLK1
  1

  9
$DIMBLK2
  1

  9
$DIMSTYLE
  2
STANDARD
  9
$DIMCLRD
 70
     0
  9
$DIMCLRE
 70
     0
  9
$DIMCLRT
 70
     0
  9
$DIMTFAC
 40
1.0
  9
$DIMGAP
 40
0.09
  9
$LUNITS
 70
     2
  9
$LUPREC
 70
     4
  9
$SKETCHINC
 40
0.1
  9
$FILLETRAD
 40
0.0
  9
$AUNITS
 70
     0
  9
$AUPREC
 70
     0
  9
$MENU
  1
.
  9
$ELEVATION
 40
0.0
  9
$PELEVATION
 40
0.0
  9
$THICKNESS
 40
0.0
  9
$LIMCHECK
 70
     0
  9
$BLIPMODE
 70
     0
  9
$CHAMFERA
 40
0.0
  9
$CHAMFERB
 40
0.0
  9
$SKPOLY
 70
     0
  9
$TDCREATE
 40
2458060.468368056230247
  9
$TDUPDATE
 40
2459166.7960763890296221
  9
$TDINDWG
 40
0.6056667824
  9
$TDUSRTIMER
 40
0.6056667824
  9
$USRTIMER
 70
     1
  9
$ANGBASE
 50
0.0
  9
$ANGDIR
 70
     0
  9
$PDMODE
 70
     0
  9
$PDSIZE
 40
0.3125
  9
$PLINEWID
 40
0.0
  9
$COORDS
 70
     1
  9
$SPLFRAME
 70
     0
  9
$SPLINETYPE
 70
     6
  9
$SPLINESEGS
 70
     8
  9
$ATTDIA
 70
     1
  9
$ATTREQ
 70
     1
  9
$HANDLING
 70
     1
  9
$HANDSEED
  5
116F8
  9
$SURFTAB1
 70
     6
  9
$SURFTAB2
 70
     6
  9
$SURFTYPE
 70
     6
  9
$SURFU
 70
     6
  9
$SURFV
 70
     6
  9
$UCSNAME
  2

  9
$UCSORG
 10
0.0
 20
0.0
 30
0.0
  9
$UCSXDIR
 10
1.0
 20
0.0
 30
0.0
  9
$UCSYDIR
 10
0.0
 20
1.0
 30
0.0
  9
$PUCSNAME
  2

  9
$PUCSORG
 10
0.0
 20
0.0
 30
0.0
  9
$PUCSXDIR
 10
1.0
 20
0.0
 30
0.0
  9
$PUCSYDIR
 10
0.0
 20
1.0
 30
0.0
  9
$USERI1
 70
     0
  9
$USERI2
 70
     0
  9
$USERI3
 70
     0
  9
$USERI4
 70
     0
  9
$USERI5
 70
     0
  9
$USERR1
 40
0.0
  9
$USERR2
 40
0.0
  9
$USERR3
 40
0.0
  9
$USERR4
 40
0.0
  9
$USERR5
 40
0.0
  9
$WORLDVIEW
 70
     1
  9
$SHADEDGE
 70
     3
  9
$SHADEDIF
 70
    70
  9
$TILEMODE
 70
     1
  9
$MAXACTVP
 70
    64
  9
$PLIMCHECK
 70
     0
  9
$PEXTMIN
 10
1.0000000000000000E+20
 20
1.0000000000000000E+20
 30
1.0000000000000000E+20
  9
$PEXTMAX
 10
-1.0000000000000000E+20
 20
-1.0000000000000000E+20
 30
-1.0000000000000000E+20
  9
$PLIMMIN
 10
0.0
 20
0.0
  9
$PLIMMAX
 10
12.0
 20
9.0
  9
$UNITMODE
 70
     0
  9
$VISRETAIN
 70
     1
  9
$PLINEGEN
 70
     0
  9
$PSLTSCALE
 70
     1
  0
ENDSEC
  0
SECTION
  2
TABLES
  0
TABLE
  2
VPORT
 70
     1
  0
VPORT
  2
*ACTIVE
 70
     0
 10
0.0
 20
0.0
 11
1.0
 21
1.0
 12
0.0
 22
0.0
 13
0.0
 23
0.0
 14
1.0
 24
1.0
 15
0.0
 25
0.0
 16
0.0
 26
0.0
 36
201.170852780794803
 17
4201.625732421875
 27
225.6625823974609091
 37
0.0
 40
51.1831818137688472
 41
3.1182994454713491
 42
50.0
 43
0.0
 44
0.0
 50
0.0
 51
0.0
 71
     0
 72
   100
 73
     1
 74
     1
 75
     0
 76
     0
 77
     0
 78
     0
  0
ENDTAB
  0
TABLE
  2
LTYPE
 70
     2
  0
LTYPE
  2
CONTINUOUS
 70
     0
  3
Solid line
 72
    65
 73
     0
 40
0.0
  0
LTYPE
  2
PHANTOM2
 70
     0
  3
___ _ _ ___ _ _ ___ _ _ ___ _ _
 72
    65
 73
     6
 40
1.25
 49
0.625
 49
-0.125
 49
0.125
 49
-0.125
 49
0.125
 49
-0.125
  0
ENDTAB
  0
TABLE
  2
LAYER
 70
     2
  0
LAYER
  2
0
 70
     0
 62
   255
  6
CONTINUOUS
  0
LAYER
  2
DEFPOINTS
 70
     0
 62
     7
  6
CONTINUOUS
  0
ENDTAB
  0
TABLE
  2
STYLE
 70
     1
  0
STYLE
  2
STANDARD
 70
     0
 40
0.0
 41
0.8
 50
0.0
 71
     0
 42
0.2
  3
txt
  4

  0
ENDTAB
  0
TABLE
  2
VIEW
 70
     0
  0
ENDTAB
  0
TABLE
  2
UCS
 70
     0
  0
ENDTAB
  0
TABLE
  2
APPID
 70
     9
  0
APPID
  2
ACAD
 70
     0
  0
APPID
  2
ACAD_MLEADERVER
 70
     0
  0
APPID
  2
ACAD_EXEMPT_FROM_CAD_STANDARDS
 70
     0
  0
APPID
  2
ACAD_NAV_VCDISPLAY
 70
     0
  0
APPID
  2
ACAECLAYERSTANDARD
 70
     0
  0
APPID
  2
ACCMTRANSPARENCY
 70
     0
  0
APPID
  2
ACAD_DSTYLE_DIMJAG
 70
     0
  0
APPID
  2
ACAD_DSTYLE_DIMTALN
 70
     0
  0
APPID
  2
ACDBATTR
 70
     0
  0
ENDTAB
  0
TABLE
  2
DIMSTYLE
 70
     1
  0
DIMSTYLE
  2
STANDARD
 70
     0
  3

  4

  5

  6

  7

 40
1.0
 41
0.1875
 42
0.0625
 43
0.38
 44
0.125
 45
0.0
 46
0.0
 47
0.01
 48
0.01
140
0.15625
141
0.09
142
0.0
143
25.3999999999999986
144
1.0
145
0.0
146
1.0
147
0.09
 71
     1
 72
     0
 73
     1
 74
     1
 75
     0
 76
     0
 77
     0
 78
     4
170
     0
171
     2
172
     0
173
     0
174
     0
175
     0
176
     0
177
     0
178
     0
  0
ENDTAB
  0
ENDSEC
  0
SECTION
  2
BLOCKS
  0
BLOCK
  8
0
  2
$MODEL_SPACE
 70
     0
 10
0.0
 20
0.0
 30
0.0
  3
$MODEL_SPACE
  1

  0
ENDBLK
  5
21
  8
0
  0
BLOCK
 67
     1
  8
0
  2
$PAPER_SPACE
 70
     0
 10
0.0
 20
0.0
 30
0.0
  3
$PAPER_SPACE
  1

  0
ENDBLK
  5
1D
 67
     1
  8
0
  0
ENDSEC
  0
SECTION
  2
ENTITIES
  0
ATTDEF
  5
3930
  8
DEFPOINTS
 10
4201.6225320339362952
 20
214.2483894699022073
 30
0.0
 40
0.001
  1
K-72698T-B4
  3

  2
MODELNUMBER
 70
     0
1001
ACDBATTR
1070
     0
1070
     1
  0
ATTDEF
  5
3931
  8
DEFPOINTS
 10
4201.6225320339362952
 20
214.246722803235599
 30
0.0
 40
0.001
  1
ARCHER
  3

  2
TRADENAME
 70
     0
1001
ACDBATTR
1070
     0
1070
     1
  0
ATTDEF
  5
3932
  8
DEFPOINTS
 10
4201.6225320339362952
 20
214.2450561365689055
 30
0.0
 40
0.001
  1
BATH AND SHOWER FAUCET
  3

  2
PRODUCT
 70
     0
1001
ACDBATTR
1070
     0
1070
     1
  0
ARC
  5
10D72
  8
0
 10
4202.3789152144772743
 20
248.3204566492383094
 30
0.0
 40
1.650460910614193
 50
0.4062606031087812
 51
20.5228510828665414
  0
ARC
  5
10D73
  8
0
 10
4202.2551047455835942
 20
248.3433911705317882
 30
0.0
 40
1.7742654418249939
 50
312.9209016605262832
 51
359.6372899274307997
  0
ARC
  5
10D74
  8
0
 10
4201.6925034728756145
 20
247.5788257567068911
 30
0.0
 40
2.4148958984952311
 50
56.8746674459306618
 51
77.921197823260627
  0
ARC
  5
10D75
  8
0
 10
4202.0033346352629451
 20
248.0356588446144031
 30
0.0
 40
1.8624785416872069
 50
28.014481002146379
 51
57.202831897448192
  0
ARC
  5
10D76
  8
0
 10
4202.3436996638456549
 20
248.2265574290728125
 30
0.0
 40
1.4723558868036219
 50
352.7363131247589081
 51
27.6773586488641286
  0
ARC
  5
10D77
  8
0
 10
4202.1191449719508455
 20
248.3069772772842896
 30
0.0
 40
1.706050380651466
 50
302.9481880641696989
 51
351.0104227963864219
  0
ARC
  5
10D78
  8
0
 10
4201.6994379219404436
 20
247.5860470002596969
 30
0.0
 40
2.4218215752215682
 50
56.4926441133820134
 51
76.768469947743867
  0
ARC
  5
10D79
  8
0
 10
4202.1120652168247034
 20
248.1434418407042983
 30
0.0
 40
1.7296509518708101
 50
17.0353286671614299
 51
57.6967934810506407
  0
ARC
  5
10D7A
  8
0
 10
4202.4052108690466412
 20
248.2110370176945935
 30
0.0
 40
1.4297224420234069
 50
331.2935362727142774
 51
17.886986391832469
  0
ARC
  5
10D7B
  8
0
 10
4201.9163053125957958
 20
248.4971148437317936
 30
0.0
 40
1.9960119936391929
 50
292.7088597833035237
 51
330.831830713816089
  0
ARC
  5
10D7C
  8
0
 10
4201.4757393817308184
 20
248.668959657995714
 30
0.0
 40
0.130703324101895
 50
103.712383519371599
 51
134.5657717589384959
  0
ARC
  5
10D7D
  8
0
 10
4201.4726995704595538
 20
248.6778030982441123
 30
0.0
 40
0.1223364621448919
 50
136.458226826323795
 51
195.9317628418260995
  0
ARC
  5
10D7E
  8
0
 10
4201.475457155706863
 20
248.686205258791091
 30
0.0
 40
0.1275048909499564
 50
199.2240194827614062
 51
273.8259164365512106
  0
ARC
  5
10D7F
  8
0
 10
4201.4829921361460947
 20
248.6423982842586042
 30
0.0
 40
0.0848405799080838
 50
54.4928582906643229
 51
143.0944207783473132
  0
ARC
  5
10D80
  8
0
 10
4201.4621746418433759
 20
248.6659349060122963
 30
0.0
 40
0.0544287955920015
 50
149.7619735020828955
 51
242.3282828798307094
  0
ARC
  5
10D81
  8
0
 10
4201.4759107407753618
 20
248.637936940540186
 30
0.0
 40
0.1334160261539252
 50
92.6353507398124236
 51
145.40808669041499
  0
ARC
  5
10D82
  8
0
 10
4201.440588876662332
 20
248.6662584031388974
 30
0.0
 40
0.0883198510084538
 50
147.5244021224260109
 51
194.4478751759291129
  0
LINE
  5
10D83
  8
0
 10
4201.478226216114308
 20
248.7255942228416927
 30
0.0
 11
4201.4900372397141837
 21
248.7255942228416927
 31
0.0
  0
LINE
  5
10D84
  8
0
 10
4201.4900372397141837
 20
248.7255942228416927
 30
0.0
 11
4201.4900372397141837
 21
248.7066717485427034
 31
0.0
  0
LINE
  5
10D85
  8
0
 10
4201.4900372397141837
 20
248.7066717485427034
 30
0.0
 11
4201.478226216114308
 21
248.7066717485427034
 31
0.0
  0
LINE
  5
10D86
  8
0
 10
4201.478226216114308
 20
248.7066717485427034
 30
0.0
 11
4201.478226216114308
 21
248.7255942228416927
 31
0.0
  0
LINE
  5
10D87
  8
0
 10
4201.478226216114308
 20
248.7099273078424062
 30
0.0
 11
4201.4900372397141837
 21
248.7099273078424062
 31
0.0
  0
LINE
  5
10D88
  8
0
 10
4201.4544667000818663
 20
248.7222996202702916
 30
0.0
 11
4201.4551682647643247
 21
248.7062092279498984
 31
0.0
  0
LINE
  5
10D89
  8
0
 10
4201.4551682647643247
 20
248.7062092279498984
 30
0.0
 11
4201.4511835550883916
 21
248.7060354887694018
 31
0.0
  0
LINE
  5
10D8A
  8
0
 10
4201.4432392248436372
 20
248.7086781122993102
 30
0.0
 11
4201.4428697508710684
 21
248.7171520012155952
 31
0.0
  0
LINE
  5
10D8B
  8
0
 10
4201.455026566522065
 20
248.7094590783983108
 30
0.0
 11
4201.4432258171809735
 21
248.7089856171787119
 31
0.0
  0
ARC
  5
10D8C
  8
0
 10
4201.5046462942082144
 20
248.667221062899614
 30
0.0
 40
0.0521558269382968
 50
320.8322349223010974
 51
58.0216964982182688
  0
ARC
  5
10D8D
  8
0
 10
4201.4809300755096046
 20
248.6917739441354911
 30
0.0
 40
0.0861460200928725
 50
239.2603927327903932
 51
318.1330262593244242
  0
LINE
  5
10D8E
  8
0
 10
4201.5137557050238684
 20
248.7214648816880072
 30
0.0
 11
4201.5130905361666009
 21
248.7062092279498984
 31
0.0
  0
LINE
  5
10D8F
  8
0
 10
4201.5130905361666009
 20
248.7062092279498984
 30
0.0
 11
4201.5136733680055841
 21
248.7061838156276963
 31
0.0
  0
LINE
  5
10D90
  8
0
 10
4201.5250884501592736
 20
248.7102577397413938
 30
0.0
 11
4201.525335198493849
 21
248.7159169150284015
 31
0.0
  0
LINE
  5
10D91
  8
0
 10
4201.5132322344079512
 20
248.7094590783983108
 30
0.0
 11
4201.5222158652040889
 21
248.7090986435929096
 31
0.0
  0
ARC
  5
10D92
  8
0
 10
4201.4806326766920392
 20
248.6578818290743982
 30
0.0
 40
0.1426412300644728
 50
49.9045139838614489
 51
104.5671236886633011
  0
ARC
  5
10D93
  8
0
 10
4201.4913500665315951
 20
248.675318630422197
 30
0.0
 40
0.1224374295850651
 50
348.3456831360958859
 51
1.202116886173862
  0
ARC
  5
10D94
  8
0
 10
4201.4813173016027577
 20
248.6663949275055074
 30
0.0
 40
0.1357786026545747
 50
27.9521368331675788
 51
47.8113443842231973
  0
ARC
  5
10D95
  8
0
 10
4201.4897792830479375
 20
248.6851584680458132
 30
0.0
 40
0.1263078381086331
 50
267.3615683089225854
 51
344.114246313677711
  0
ARC
  5
10D96
  8
0
 10
4201.4850701721952646
 20
248.632570228848607
 30
0.0
 40
0.1394826292414632
 50
34.7690717381249712
 51
96.2949502175378313
  0
ARC
  5
10D97
  8
0
 10
4201.524197918362006
 20
248.6671960553312886
 30
0.0
 40
0.0878090318827962
 50
341.3475131349467233
 51
30.7658038953895385
  0
ARC
  5
10D98
  8
0
 10
4201.3142661285437498
 20
249.8400016501155108
 30
0.0
 40
1.1577454334545969
 50
284.352497871164303
 51
290.0886769590285894
  0
ARC
  5
10D99
  8
0
 10
4201.3163976992609605
 20
249.8396036555647015
 30
0.0
 40
1.199170371663401
 50
284.2424677826030006
 51
290.218550071963989
  0
ARC
  5
10D9A
  8
0
 10
4201.7855946926611068
 20
248.7737368048541953
 30
0.0
 40
0.0807996941912805
 50
227.3326161543668888
 51
296.4108812803240767
  0
LINE
  5
10D9B
  8
0
 10
4201.8215348232206452
 20
248.7013703927781876
 30
0.0
 11
4201.9191986464056754
 21
248.6335589750200938
 31
0.0
  0
ARC
  5
10D9C
  8
0
 10
4201.7791776150706937
 20
248.7568809960206124
 30
0.0
 40
0.0673863087114642
 50
107.6969858066230046
 51
183.5649128373792962
  0
LINE
  5
10D9D
  8
0
 10
4201.7586933266120468
 20
248.8210784144118861
 30
0.0
 11
4201.7611884833122531
 21
248.8337417301113135
 31
0.0
  0
LINE
  5
10D9E
  8
0
 10
4201.8387322607095484
 20
248.8226656763118001
 30
0.0
 11
4201.8362372441088155
 21
248.8100030724123997
 31
0.0
  0
ARC
  5
10D9F
  8
0
 10
4201.8002854037304132
 20
248.7608487623932092
 30
0.0
 40
0.0608989410421597
 50
332.1306286648760988
 51
53.8179753361200071
  0
LINE
  5
10DA0
  8
0
 10
4201.8541210204075469
 20
248.7323811071157991
 30
0.0
 11
4201.9450324961062506
 21
248.6692966453788074
 31
0.0
  0
LINE
  5
10DA1
  8
0
 10
4202.1665987372907693
 20
248.5660466073111081
 30
0.0
 11
4202.2730951305447888
 21
248.5364376216033975
 31
0.0
  0
ARC
  5
10DA2
  8
0
 10
4202.3394542710811947
 20
248.4825814902293075
 30
0.0
 40
0.0854635502385004
 50
77.5258669832436027
 51
140.9377088522799966
  0
LINE
  5
10DA3
  8
0
 10
4202.3579142978869641
 20
248.5660275556230943
 30
0.0
 11
4202.3689216170896543
 21
248.5747100508255016
 31
0.0
  0
LINE
  5
10DA4
  8
0
 10
4202.1473809002663984
 20
248.5275036560792898
 30
0.0
 11
4202.2597397167910458
 21
248.4964315702260933
 31
0.0
  0
ARC
  5
10DA5
  8
0
 10
4202.3223562657276489
 20
248.5020582748479114
 30
0.0
 40
0.0628688476574651
 50
185.1347907394022911
 51
266.8860491865586937
  0
LINE
  5
10DA6
  8
0
 10
4202.3189411077892146
 20
248.4392822547285959
 30
0.0
 11
4202.3428854066096392
 21
248.3356182814424926
 31
0.0
  0
LINE
  5
10DA7
  8
0
 10
4202.3881514823760881
 20
248.3503939674012031
 30
0.0
 11
4202.3659089005859641
 21
248.4468391298283052
 31
0.0
  0
ARC
  5
10DA8
  8
0
 10
4202.3410075690953818
 20
248.5100068209823974
 30
0.0
 40
0.0678987003981572
 50
291.5148516102806866
 51
6.0547902585166522
  0
LINE
  5
10DA9
  8
0
 10
4202.4198820668843837
 20
248.525470811324908
 30
0.0
 11
4202.4085274955141358
 21
248.5171687384190875
 31
0.0
  0
ARC
  5
10DAA
  8
0
 10
4202.3369316927919499
 20
248.4932296847636906
 30
0.0
 40
0.0477087899429064
 50
62.1310083882649806
 51
153.3222261351124018
  0
ARC
  5
10DAB
  8
0
 10
4202.3441952104958546
 20
248.5052764515097863
 30
0.0
 40
0.0336731442139818
 50
310.6401784278788227
 51
63.4750102329565991
  0
ARC
  5
10DAC
  8
0
 10
4202.3319748719568452
 20
248.5541667954213949
 30
0.0
 40
0.0487318741334495
 50
224.7300262637477886
 51
323.7062079459861934
  0
ARC
  5
10DAD
  8
0
 10
4201.6687232550666522
 20
248.4081769283534129
 30
0.0
 40
0.0817117776052702
 50
138.7274676034112986
 51
189.8543637202022865
  0
ARC
  5
10DAE
  8
0
 10
4201.662340971728554
 20
248.3784577204081927
 30
0.0
 40
0.0757755593863509
 50
84.6584174491642045
 51
168.0154058846738963
  0
ARC
  5
10DAF
  8
0
 10
4201.6642204044128448
 20
247.7587023112423026
 30
0.0
 40
1.078180147377106
 50
49.1862330485126265
 51
80.6852545060514643
  0
ARC
  5
10DB0
  8
0
 10
4201.90386972631768
 20
248.0140795671217973
 30
0.0
 40
0.7264913903577112
 50
3.6123904753018219
 51
44.7422945210588807
  0
ARC
  5
10DB1
  8
0
 10
4203.1428162501779298
 20
248.575604737374988
 30
0.0
 40
0.7879662102062069
 50
212.7429791416452076
 51
219.1059349542948098
  0
ARC
  5
10DB2
  8
0
 10
4202.5569127554172155
 20
248.0016779850452906
 30
0.0
 40
0.0810428801028925
 50
44.6691919698534576
 51
108.371886835504796
  0
LINE
  5
10DB3
  8
0
 10
4202.6145486353752858
 20
248.0586521349453051
 30
0.0
 11
4202.6289176700738608
 21
248.0598531350451879
 31
0.0
  0
ARC
  5
10DB4
  8
0
 10
4203.1248635418542108
 20
248.5708734693238
 30
0.0
 40
0.8170337520659906
 50
212.5658544113250912
 51
219.2319681086721914
  0
ARC
  5
10DB5
  8
0
 10
4202.5279461209001965
 20
248.0168303664731013
 30
0.0
 40
0.0518049444683002
 50
133.9437948784114099
 51
226.060465255005596
  0
ARC
  5
10DB6
  8
0
 10
4201.6251448556822652
 20
247.6324861795710888
 30
0.0
 40
1.208934558329299
 50
83.5387143933180596
 51
112.7172094425812929
  0
ARC
  5
10DB7
  8
0
 10
4201.8737857890264422
 20
248.0864506190090992
 30
0.0
 40
0.8535510652158494
 50
301.5779879679304258
 51
354.1195406503196068
  0
ARC
  5
10DB8
  8
0
 10
4201.8813339826356241
 20
248.0193906917207869
 30
0.0
 40
0.84175830038076
 50
358.6120379275643018
 51
60.4174333243499007
  0
ARC
  5
10DB9
  8
0
 10
4202.0303411725290061
 20
248.5400000885337874
 30
0.0
 40
1.928016804910311
 50
10.7335210023234904
 51
37.3006191964600617
  0
ARC
  5
10DBA
  8
0
 10
4201.8582890846200826
 20
248.3657273631494888
 30
0.0
 40
2.170759332773526
 50
38.2077026295581135
 51
64.5911542040100812
  0
ARC
  5
10DBB
  8
0
 10
4201.6624173678119405
 20
247.992705621619308
 30
0.0
 40
2.5917968161369132
 50
64.218197774907523
 51
78.1132190014917427
  0
ARC
  5
10DBC
  8
0
 10
4203.0906219037578921
 20
247.1659416480424909
 30
0.0
 40
0.0163075007456071
 50
312.4321467855895094
 51
37.5996950543657888
  0
ARC
  5
10DBD
  8
0
 10
4203.0834916571457143
 20
247.1735651265728961
 30
0.0
 40
0.0267453745564015
 50
217.5923314898375054
 51
312.6870406153066142
  0
ARC
  5
10DBE
  8
0
 10
4203.0755828483597725
 20
247.1659985035628893
 30
0.0
 40
0.0159058808922801
 50
153.7770878470593914
 51
213.370753392617587
  0
ARC
  5
10DBF
  8
0
 10
4203.0834873769917976
 20
247.158844790443311
 30
0.0
 40
0.0263208626609977
 50
40.3647263624312416
 51
147.397293657207797
  0
ARC
  5
10DC0
  8
0
 10
4203.089584486372587
 20
247.1856971769404083
 30
0.0
 40
0.0638081396133301
 50
297.0523826459931911
 51
345.8703988503667119
  0
ARC
  5
10DC1
  8
0
 10
4203.0829083456992521
 20
247.2164652748494973
 30
0.0
 40
0.0945892540343133
 50
239.1918360515417135
 51
292.1716863631202727
  0
ARC
  5
10DC2
  8
0
 10
4203.0581184780139665
 20
247.1728645780563909
 30
0.0
 40
0.0444568211776321
 50
189.4396215744135077
 51
237.8525666187931904
  0
LINE
  5
10DC3
  8
0
 10
4203.0142636474784013
 20
247.1655732964219965
 30
0.0
 11
4203.0098845322063426
 21
247.1857368095251957
 31
0.0
  0
ARC
  5
10DC4
  8
0
 10
4203.0599657132042921
 20
247.188252616186503
 30
0.0
 40
0.0501443314175578
 50
121.4836442636237024
 51
182.8758115025869984
  0
ARC
  5
10DC5
  8
0
 10
4203.0976275066768721
 20
247.1406204461985965
 30
0.0
 40
0.110670766280392
 50
86.1659941621973076
 51
125.235311483244999
  0
ARC
  5
10DC6
  8
0
 10
4203.1047044973483935
 20
247.1898661795306111
 30
0.0
 40
0.061178200499301
 50
37.9295526475489879
 51
89.6973732047843555
  0
ARC
  5
10DC7
  8
0
 10
4203.1219574378037578
 20
247.2093399608108939
 30
0.0
 40
0.0359154315349884
 50
351.3163852515049825
 51
30.3215266097460194
  0
LINE
  5
10DC8
  8
0
 10
4203.1574611744626964
 20
247.2039175161930871
 30
0.0
 11
4203.1514621761371018
 21
247.1701205858427102
 31
0.0
  0
ARC
  5
10DC9
  8
0
 10
4203.1005664065905876
 20
247.1761298182267979
 30
0.0
 40
0.0512492949379738
 50
353.2662970031043983
 51
44.9297726543049407
  0
ARC
  5
10DCA
  8
0
 10
4203.0832700252303766
 20
247.1546682187137947
 30
0.0
 40
0.0787080853927483
 50
47.0987483063975674
 51
139.9811637229045118
  0
ARC
  5
10DCB
  8
0
 10
4203.0662439363813974
 20
247.1749592794913042
 30
0.0
 40
0.0528208965809964
 50
144.9675257771407928
 51
190.2354999015927888
  0
ARC
  5
10DCC
  8
0
 10
4202.3314310424966607
 20
248.5149090677207084
 30
0.0
 40
0.0494138302035014
 50
248.9587788813711882
 51
314.5994035460695954
  0
ARC
  5
10DCD
  8
0
 10
4202.3257394507600111
 20
248.5009123501550903
 30
0.0
 40
0.0343080724741395
 50
156.3962432477154039
 51
249.4376095737059984
  0
ARC
  5
10DCE
  8
0
 10
4201.7897010220458469
 20
248.7482283343746019
 30
0.0
 40
0.0477087899429064
 50
62.1310083882649806
 51
153.3222261351124018
  0
ARC
  5
10DCF
  8
0
 10
4201.7969645397506611
 20
248.7602751011206124
 30
0.0
 40
0.0336731442139818
 50
310.6401784278788227
 51
63.4750102329565991
  0
ARC
  5
10DD0
  8
0
 10
4201.7847442012098327
 20
248.8091654450323063
 30
0.0
 40
0.0487318741334495
 50
224.7300262637477886
 51
323.7062079459861934
  0
ARC
  5
10DD1
  8
0
 10
4201.7842003717523767
 20
248.7699077173315914
 30
0.0
 40
0.0494138302035014
 50
248.9587788813711882
 51
314.5994035460695954
  0
ARC
  5
10DD2
  8
0
 10
4201.7785087800139081
 20
248.7559109997658879
 30
0.0
 40
0.0343080724741395
 50
156.3962432477154039
 51
249.4376095737059984
  0
ARC
  5
10DD3
  8
0
 10
4202.5548978959786837
 20
248.00558579854561
 30
0.0
 40
0.0512395966307642
 50
69.9691063176022823
 51
147.5098525420877991
  0
ARC
  5
10DD4
  8
0
 10
4202.5634422083157915
 20
248.0241634659437011
 30
0.0
 40
0.030903908982745
 50
304.9724894392115857
 51
73.0558405621235636
  0
ARC
  5
10DD5
  8
0
 10
4202.5479305917288002
 20
248.0759295429004965
 30
0.0
 40
0.0500633402710445
 50
229.2193219000554052
 51
320.9483999121104034
  0
ARC
  5
10DD6
  8
0
 10
4202.5472601936789943
 20
248.0379656018004937
 30
0.0
 40
0.0517660942788632
 50
248.1701818141409035
 51
310.903275635581906
  0
ARC
  5
10DD7
  8
0
 10
4202.5375481543760543
 20
248.0182040699735069
 30
0.0
 40
0.0298567706583196
 50
150.0511146084812992
 51
251.371368619781407
  0
ARC
  5
10DD8
  8
0
 10
4201.671504177416864
 20
248.3775133944783988
 30
0.0
 40
0.0764199297501777
 50
14.3512765872135706
 51
91.581433367590833
  0
ARC
  5
10DD9
  8
0
 10
4201.6821418103500037
 20
248.3934159583185135
 30
0.0
 40
0.0634703718942514
 50
288.5520322189464082
 51
2.7447209119132001
  0
ARC
  5
10DDA
  8
0
 10
4201.667085925462743
 20
248.4195052402401984
 30
0.0
 40
0.093185805320762
 50
233.9754682629784099
 51
292.2269538054389955
  0
ARC
  5
10DDB
  8
0
 10
4201.6461934062235741
 20
248.3912545205540141
 30
0.0
 40
0.0580507393078153
 50
177.0990741660990011
 51
234.2538048993135931
  0
ARC
  5
10DDC
  8
0
 10
4201.6667475115609705
 20
248.3823463452349927
 30
0.0
 40
0.0466452535830984
 50
56.3791779487494509
 51
120.2326748442247037
  0
ARC
  5
10DDD
  8
0
 10
4201.6760372645549069
 20
248.3963175295378107
 30
0.0
 40
0.0298674855091963
 50
349.1638023361124965
 51
56.3791779487494509
  0
ARC
  5
10DDE
  8
0
 10
4201.6721597601699614
 20
248.4009843903263004
 30
0.0
 40
0.0347675707032039
 50
285.3646608111238265
 51
342.7983560653293011
  0
ARC
  5
10DDF
  8
0
 10
4201.6668925924832365
 20
248.411008925878491
 30
0.0
 40
0.0458934123634078
 50
230.6851145499460927
 51
288.3908184101611027
  0
ARC
  5
10DE0
  8
0
 10
4201.6563304928758953
 20
248.3977019753114917
 30
0.0
 40
0.0289073578210035
 50
181.2234412901360088
 51
230.1709566326705101
  0
ARC
  5
10DE1
  8
0
 10
4201.6578758822388409
 20
248.3959124876558917
 30
0.0
 40
0.0304687169832184
 50
118.6636819988025024
 51
177.7950202283383021
  0
ARC
  5
10DE2
  8
0
 10
4201.6668333779589375
 20
248.4230564368386069
 30
0.0
 40
0.0385404512636571
 50
200.3199793757908935
 51
339.2725705177285818
  0
LINE
  5
10DE3
  8
0
 10
4201.7455393692143844
 20
248.3964553067008012
 30
0.0
 11
4201.7455393692143844
 21
248.4164622153294886
 31
0.0
  0
ARC
  5
10DE4
  8
0
 10
4201.6719735144024526
 20
248.4111302219828872
 30
0.0
 40
0.0737588309761259
 50
4.1455025617512868
 51
98.4981478646898552
  0
LINE
  5
10DE5
  8
0
 10
4201.6610715319156952
 20
248.4706505259271978
 30
0.0
 11
4201.6610737046939903
 21
248.4846027567415092
 31
0.0
  0
ARC
  5
10DE6
  8
0
 10
4202.1673289588952684
 20
248.9936229954043938
 30
0.0
 40
0.717910848068871
 50
214.1675752677427056
 51
225.156037991197195
  0
ARC
  5
10DE7
  8
0
 10
4202.166281890395112
 20
248.9787679404051914
 30
0.0
 40
0.7165341073689224
 50
213.2911851855801046
 51
225.1643555266128089
  0
ARC
  5
10DE8
  8
0
 10
4201.6663253895267189
 20
248.3854010790574023
 30
0.0
 40
0.0854111870794447
 50
93.526829662865822
 51
126.791189589709802
  0
ARC
  5
10DE9
  8
0
 10
4202.1630398341949331
 20
248.98208880830461
 30
0.0
 40
0.7610829120662256
 50
213.2851541498521897
 51
223.9577170080752921
  0
ARC
  5
10DEA
  8
0
 10
4201.8569985151816581
 20
248.3161607577117991
 30
0.0
 40
0.0779969061418193
 50
173.889233827066306
 51
186.8397192269339939
  0
ARC
  5
10DEB
  8
0
 10
4201.8536806134297876
 20
248.2911372326385049
 30
0.0
 40
0.0757755593863509
 50
84.6584174491642045
 51
168.0154058846738963
  0
ARC
  5
10DEC
  8
0
 10
4201.8629396710166475
 20
248.2905001181925968
 30
0.0
 40
0.0761155520251004
 50
15.7071881075757709
 51
91.6599402181670655
  0
ARC
  5
10DED
  8
0
 10
4201.874285702774614
 20
248.3050478997054995
 30
0.0
 40
0.0622228329213131
 50
288.1568546581048054
 51
5.5874438906062984
  0
ARC
  5
10DEE
  8
0
 10
4201.8584255671630672
 20
248.3321847524705106
 30
0.0
 40
0.093185805320762
 50
233.9754682629784099
 51
292.2269538054389955
  0
ARC
  5
10DEF
  8
0
 10
4201.8375330479238983
 20
248.3039340327842979
 30
0.0
 40
0.0580507393078153
 50
177.0990741660990011
 51
234.2538048993135931
  0
ARC
  5
10DF0
  8
0
 10
4201.8580871532612946
 20
248.2950258574653049
 30
0.0
 40
0.0466452535830984
 50
56.3791779487494509
 51
120.2326748442247037
  0
ARC
  5
10DF1
  8
0
 10
4201.867376906255231
 20
248.3089970417680945
 30
0.0
 40
0.0298674855091963
 50
349.1638023361124965
 51
56.3791779487494509
  0
ARC
  5
10DF2
  8
0
 10
4201.863499401869376
 20
248.3136639025566978
 30
0.0
 40
0.0347675707032039
 50
285.3646608111238265
 51
342.7983560653293011
  0
ARC
  5
10DF3
  8
0
 10
4201.8582322341826512
 20
248.3236884381088885
 30
0.0
 40
0.0458934123634078
 50
230.6851145499460927
 51
288.3908184101611027
  0
ARC
  5
10DF4
  8
0
 10
4201.8476701345771289
 20
248.3103814875418038
 30
0.0
 40
0.0289073578210035
 50
181.2234412901360088
 51
230.1709566326705101
  0
ARC
  5
10DF5
  8
0
 10
4201.849215523939165
 20
248.3085919998862039
 30
0.0
 40
0.0304687169832184
 50
118.6636819988025024
 51
177.7950202283383021
  0
ARC
  5
10DF6
  8
0
 10
4201.8581730196601711
 20
248.3357359490688907
 30
0.0
 40
0.0385404512636571
 50
200.3199793757908935
 51
339.2725705177285818
  0
LINE
  5
10DF7
  8
0
 10
4201.9363763239098262
 20
248.3091019968734088
 30
0.0
 11
4201.936879010913799
 21
248.3291417275598008
 31
0.0
  0
ARC
  5
10DF8
  8
0
 10
4201.8666783021126321
 20
248.3225595492839091
 30
0.0
 40
0.070508613564586
 50
5.3565223110710862
 51
84.7397694796198664
  0
ARC
  5
10DF9
  8
0
 10
4201.4821760065888157
 20
248.8124684284946113
 30
0.0
 40
0.1108535191527658
 50
244.7116774918438011
 51
295.8382182055652265
  0
ARC
  5
10DFA
  8
0
 10
4201.5069177725035843
 20
248.6718262425723935
 30
0.0
 40
0.1052040742622807
 50
3.0535033458144629
 51
26.27035795417396
  0
ARC
  5
10DFB
  8
0
 10
4201.5056550228619017
 20
248.7242146433661105
 30
0.0
 40
0.0957781304552022
 50
356.5136700122233151
 51
3.486329987796069
  0
ARC
  5
10DFC
  8
0
 10
4201.3143766225575746
 20
249.8511652856658998
 30
0.0
 40
1.1572484528947931
 50
284.3531461425995985
 51
290.0758437085308969
  0
ARC
  5
10DFD
  8
0
 10
4201.77956309507681
 20
248.767969410050398
 30
0.0
 40
0.0680477400801498
 50
105.7118036025964045
 51
183.1481747278481009
  0
ARC
  5
10DFE
  8
0
 10
4202.0507542666009613
 20
248.5563863663797122
 30
0.0
 40
0.1645887929085234
 50
107.055081796040696
 51
129.9665950141817916
  0
ARC
  5
10DFF
  8
0
 10
4202.0196493046796604
 20
248.5980692332717865
 30
0.0
 40
0.1127004884465263
 50
131.4589758278102067
 51
132.1739489515319121
  0
ARC
  5
10E00
  8
0
 10
4202.0196493046796604
 20
248.5980692332717865
 30
0.0
 40
0.1127004884465263
 50
159.6848615030831127
 51
197.2364027871780081
  0
ARC
  5
10E01
  8
0
 10
4202.0324051790830708
 20
248.6066569779945894
 30
0.0
 40
0.1275048909499564
 50
199.2240194827614062
 51
273.8259164365512106
  0
ARC
  5
10E02
  8
0
 10
4202.0399401595213931
 20
248.5628500034621027
 30
0.0
 40
0.0848405799080838
 50
54.4928582906643229
 51
143.0944207783473132
  0
ARC
  5
10E03
  8
0
 10
4202.0191226652186742
 20
248.5863866252159085
 30
0.0
 40
0.0544287955920015
 50
149.7619735020828955
 51
242.3282828798307094
  0
ARC
  5
10E04
  8
0
 10
4202.0328587641506601
 20
248.5583886597435992
 30
0.0
 40
0.1334160261539252
 50
92.6353507398124236
 51
145.40808669041499
  0
ARC
  5
10E05
  8
0
 10
4201.9975369000376304
 20
248.5867101223423106
 30
0.0
 40
0.0883198510084538
 50
147.5244021224260109
 51
194.4478751759291129
  0
LINE
  5
10E06
  8
0
 10
4202.0351742394886969
 20
248.6460459420453049
 30
0.0
 11
4202.0469852630885725
 21
248.6460459420453049
 31
0.0
  0
LINE
  5
10E07
  8
0
 10
4202.0469852630885725
 20
248.6460459420453049
 30
0.0
 11
4202.0469852630885725
 21
248.6271234677460882
 31
0.0
  0
LINE
  5
10E08
  8
0
 10
4202.0469852630885725
 20
248.6271234677460882
 30
0.0
 11
4202.0351742394886969
 21
248.6271234677460882
 31
0.0
  0
LINE
  5
10E09
  8
0
 10
4202.0351742394886969
 20
248.6271234677460882
 30
0.0
 11
4202.0351742394886969
 21
248.6460459420453049
 31
0.0
  0
LINE
  5
10E0A
  8
0
 10
4202.0351742394886969
 20
248.6303790270459899
 30
0.0
 11
4202.0469852630885725
 21
248.6303790270459899
 31
0.0
  0
LINE
  5
10E0B
  8
0
 10
4202.0114147234571647
 20
248.6427513394737048
 30
0.0
 11
4202.0121162881378041
 21
248.6266609471533116
 31
0.0
  0
LINE
  5
10E0C
  8
0
 10
4202.0121162881378041
 20
248.6266609471533116
 30
0.0
 11
4202.0081315784627805
 21
248.6264872079727013
 31
0.0
  0
LINE
  5
10E0D
  8
0
 10
4202.0001872482189356
 20
248.6291298315028087
 30
0.0
 11
4201.9998177742463668
 21
248.6376037204190084
 31
0.0
  0
LINE
  5
10E0E
  8
0
 10
4202.0119745898973633
 20
248.6299107976018092
 30
0.0
 11
4202.0001738405562719
 21
248.6294373363822103
 31
0.0
  0
ARC
  5
10E0F
  8
0
 10
4202.0615943175844222
 20
248.5876727821031125
 30
0.0
 40
0.0521558269382968
 50
320.8322349223010974
 51
58.0216964982182688
  0
ARC
  5
10E10
  8
0
 10
4202.037878098884903
 20
248.6122256633389043
 30
0.0
 40
0.0861460200928725
 50
239.2603927327903932
 51
318.1330262593244242
  0
LINE
  5
10E11
  8
0
 10
4202.0707037283991667
 20
248.6419166008915056
 30
0.0
 11
4202.0700385595428088
 21
248.6266609471533116
 31
0.0
  0
LINE
  5
10E12
  8
0
 10
4202.0700385595428088
 20
248.6266609471533116
 30
0.0
 11
4202.0706213913808824
 21
248.6266355348311095
 31
0.0
  0
LINE
  5
10E13
  8
0
 10
4202.082036473534572
 20
248.6307094589446933
 30
0.0
 11
4202.0822832218682379
 21
248.6363686342317862
 31
0.0
  0
LINE
  5
10E14
  8
0
 10
4202.0701802577850685
 20
248.6299107976018092
 30
0.0
 11
4202.0791638885793873
 21
248.6295503627962944
 31
0.0
  0
ARC
  5
10E15
  8
0
 10
4202.0434919513527348
 20
248.577095504821898
 30
0.0
 40
0.1426630516826616
 50
52.0422525388816766
 51
106.7060190694232062
  0
ARC
  5
10E16
  8
0
 10
4202.0636540711739144
 20
248.6078928081695949
 30
0.0
 40
0.1060229045109395
 50
352.5257561341406927
 51
50.3961040341660578
  0
ARC
  5
10E17
  8
0
 10
4202.0467273064241454
 20
248.6056101872493969
 30
0.0
 40
0.1263078381086331
 50
267.3615683089225854
 51
344.114246313677711
  0
ARC
  5
10E18
  8
0
 10
4202.0420181955696535
 20
248.5530219480521055
 30
0.0
 40
0.1394826292414632
 50
34.7690717381249712
 51
96.2949502175378313
  0
ARC
  5
10E19
  8
0
 10
4202.0729199838406203
 20
248.5849095715360022
 30
0.0
 40
0.0962958540219934
 50
351.7171534279066805
 51
29.6620260721555802
  0
ARC
  5
10E1A
  8
0
 10
4202.0391240299650235
 20
248.7329201476981098
 30
0.0
 40
0.1108535191527658
 50
244.7116774918438011
 51
295.8382182055652265
  0
ARC
  5
10E1B
  8
0
 10
4202.3946024024417056
 20
248.2358276780628046
 30
0.0
 40
0.1226033719858031
 50
116.1750501723647062
 51
135.7842017283539064
  0
ARC
  5
10E1C
  8
0
 10
4202.3832025271121893
 20
248.2408400990167081
 30
0.0
 40
0.1110229367091676
 50
133.5349173942503
 51
194.1234307382705992
  0
ARC
  5
10E1D
  8
0
 10
4202.3959305741682329
 20
248.2557317945098987
 30
0.0
 40
0.1275048909499564
 50
199.2240194827614062
 51
273.8259164365512106
  0
ARC
  5
10E1E
  8
0
 10
4202.4034655546056456
 20
248.211924819977412
 30
0.0
 40
0.0848405799080838
 50
54.4928582906643229
 51
143.0944207783473132
  0
ARC
  5
10E1F
  8
0
 10
4202.3826480603029268
 20
248.2354614417311893
 30
0.0
 40
0.0544287955920015
 50
149.7619735020828955
 51
242.3282828798307094
  0
ARC
  5
10E20
  8
0
 10
4202.3963841592349127
 20
248.2074634762589085
 30
0.0
 40
0.1334160261539252
 50
92.6353507398124236
 51
145.40808669041499
  0
ARC
  5
10E21
  8
0
 10
4202.3610622951227924
 20
248.2357849388577051
 30
0.0
 40
0.0883198510084538
 50
147.5244021224260109
 51
194.4478751759291129
  0
LINE
  5
10E22
  8
0
 10
4202.3986996345729494
 20
248.2951207585606141
 30
0.0
 11
4202.4105106581728251
 21
248.2951207585606141
 31
0.0
  0
LINE
  5
10E23
  8
0
 10
4202.4105106581728251
 20
248.2951207585606141
 30
0.0
 11
4202.4105106581728251
 21
248.2761982842613975
 31
0.0
  0
LINE
  5
10E24
  8
0
 10
4202.4105106581728251
 20
248.2761982842613975
 30
0.0
 11
4202.3986996345729494
 21
248.2761982842613975
 31
0.0
  0
LINE
  5
10E25
  8
0
 10
4202.3986996345729494
 20
248.2761982842613975
 30
0.0
 11
4202.3986996345729494
 21
248.2951207585606141
 31
0.0
  0
LINE
  5
10E26
  8
0
 10
4202.3986996345729494
 20
248.2794538435612992
 30
0.0
 11
4202.4105106581728251
 21
248.2794538435612992
 31
0.0
  0
LINE
  5
10E27
  8
0
 10
4202.3749401185414172
 20
248.2918261559890141
 30
0.0
 11
4202.3756416832238756
 21
248.2757357636685924
 31
0.0
  0
LINE
  5
10E28
  8
0
 10
4202.3756416832238756
 20
248.2757357636685924
 30
0.0
 11
4202.371656973547033
 21
248.2755620244880959
 31
0.0
  0
LINE
  5
10E29
  8
0
 10
4202.3637126433031881
 20
248.2782046480182032
 30
0.0
 11
4202.3633431693297098
 21
248.2866785369344029
 31
0.0
  0
LINE
  5
10E2A
  8
0
 10
4202.3754999849834348
 20
248.2789856141172038
 30
0.0
 11
4202.3636992356387054
 21
248.2785121528974912
 31
0.0
  0
ARC
  5
10E2B
  8
0
 10
4202.4251197126677653
 20
248.2367475986183933
 30
0.0
 40
0.0521558269382968
 50
320.8322349223010974
 51
58.0216964982182688
  0
ARC
  5
10E2C
  8
0
 10
4202.4014034939709745
 20
248.2613004798540999
 30
0.0
 40
0.0861460200928725
 50
239.2603927327903932
 51
318.1330262593244242
  0
LINE
  5
10E2D
  8
0
 10
4202.4342291234843287
 20
248.2909914174067865
 30
0.0
 11
4202.4335639546270613
 21
248.2757357636685924
 31
0.0
  0
LINE
  5
10E2E
  8
0
 10
4202.4335639546270613
 20
248.2757357636685924
 30
0.0
 11
4202.4341467864651349
 21
248.2757103513463903
 31
0.0
  0
LINE
  5
10E2F
  8
0
 10
4202.445561868617915
 20
248.2797842754600879
 30
0.0
 11
4202.4458086169515809
 21
248.2854434507472092
 31
0.0
  0
LINE
  5
10E30
  8
0
 10
4202.4337056528684116
 20
248.2789856141172038
 30
0.0
 11
4202.4426892836627303
 21
248.2786251793116037
 31
0.0
  0
ARC
  5
10E31
  8
0
 10
4202.4139163117142743
 20
248.2246022035436965
 30
0.0
 40
0.13938087341556
 50
54.7267268482901272
 51
99.799416654891985
  0
ARC
  5
10E32
  8
0
 10
4202.437005899982978
 20
248.2612575836041913
 30
0.0
 40
0.0961493843105658
 50
16.5332326706396309
 51
53.3458061538003321
  0
ARC
  5
10E33
  8
0
 10
4202.4102527015065789
 20
248.2546850037647062
 30
0.0
 40
0.1263078381086365
 50
267.3615683089225854
 51
338.6198042803438852
  0
ARC
  5
10E34
  8
0
 10
4202.4055435906529965
 20
248.2020967645675
 30
0.0
 40
0.1394826292414632
 50
34.7690717381249712
 51
96.2949502175378313
  0
ARC
  5
10E35
  8
0
 10
4202.4446713368233759
 20
248.23672259105021
 30
0.0
 40
0.0878090318827962
 50
341.3475131349467233
 51
30.7658038953895385
  0
ARC
  5
10E36
  8
0
 10
4202.4026494250483665
 20
248.3819949642133054
 30
0.0
 40
0.1108535191527658
 50
244.7116774918438011
 51
295.8382182055652265
  0
ARC
  5
10E37
  8
0
 10
4201.7998937580096026
 20
248.7720271411685928
 30
0.0
 40
0.0613311288091386
 50
354.5549003098872731
 51
51.3567337751447965
  0
ARC
  5
10E38
  8
0
 10
4202.4867171886817232
 20
249.5585852396810935
 30
0.0
 40
1.031346313156587
 50
232.4316474628953131
 51
238.3168590423441913
  0
LINE
  5
10E39
  8
0
 10
4201.9450321572039684
 20
248.68094491224889
 30
0.0
 11
4201.9450324961062506
 21
248.6692966453788074
 31
0.0
  0
ARC
  5
10E3A
  8
0
 10
4202.0273101700140614
 20
248.5826146658008895
 30
0.0
 40
0.1195131005672054
 50
133.5067974045454093
 51
154.769049057583004
  0
LINE
  5
10E3B
  8
0
 10
4202.1688929970541722
 20
248.5770309779503862
 30
0.0
 11
4202.273076053656041
 21
248.5480651647457933
 31
0.0
  0
ARC
  5
10E3C
  8
0
 10
4202.3394351941924469
 20
248.4942090333717033
 30
0.0
 40
0.0854635502385004
 50
77.5258669832436027
 51
140.9377088522799966
  0
LINE
  5
10E3D
  8
0
 10
4202.3578952209973068
 20
248.57765509876549
 30
0.0
 11
4202.3618435103762749
 21
248.5807694813829016
 31
0.0
  0
LINE
  5
10E3E
  8
0
 10
4202.273076053656041
 20
248.5480651647457933
 30
0.0
 11
4202.2730951305447888
 21
248.5364376216033975
 31
0.0
  0
LINE
  5
10E3F
  8
0
 10
4202.3578952209973068
 20
248.57765509876549
 30
0.0
 11
4202.3579142978869641
 21
248.5660275556230943
 31
0.0
  0
ARC
  5
10E40
  8
0
 10
4202.3923688188287997
 20
248.2607486182448042
 30
0.0
 40
0.0897444959433548
 50
92.6934755162657353
 51
123.4618087762920027
  0
LINE
  5
10E41
  8
0
 10
4202.3881514823760881
 20
248.3503939674012031
 30
0.0
 11
4202.390193761428236
 21
248.3619494586382075
 31
0.0
  0
LINE
  5
10E42
  8
0
 10
4202.390193761428236
 20
248.3619494586382075
 30
0.0
 11
4202.367514185228174
 21
248.4474957594256068
 31
0.0
  0
ARC
  5
10E43
  8
0
 10
4202.4287361779179264
 20
248.2610426885825916
 30
0.0
 40
0.1041604826816417
 50
352.1011715471295815
 51
15.3519700137548796
  0
ARC
  5
10E44
  8
0
 10
4201.8605652748410648
 20
248.3044963523518902
 30
0.0
 40
0.0891663546844802
 50
81.8911941831924253
 51
128.8653971306125072
  0
ARC
  5
10E45
  8
0
 10
4202.0561370853447443
 20
248.2260072784795
 30
0.0
 40
0.0880995604665337
 50
168.5014775504342026
 51
186.2639975213741934
  0
ARC
  5
10E46
  8
0
 10
4202.0426874197082725
 20
248.2006600653423902
 30
0.0
 40
0.0757755593863509
 50
84.6584174491642045
 51
168.0154058846738963
  0
ARC
  5
10E47
  8
0
 10
4202.0519464772942229
 20
248.2000229508965106
 30
0.0
 40
0.0761155520251004
 50
15.7071881075757709
 51
91.6599402181670655
  0
ARC
  5
10E48
  8
0
 10
4202.0632925090530989
 20
248.2145707324094133
 30
0.0
 40
0.0622228329213131
 50
288.1568546581048054
 51
5.5874438906062984
  0
ARC
  5
10E49
  8
0
 10
4202.0474323734388236
 20
248.2417075851743959
 30
0.0
 40
0.093185805320762
 50
233.9754682629784099
 51
292.2269538054389955
  0
ARC
  5
10E4A
  8
0
 10
4202.0265398542005642
 20
248.2134568654882969
 30
0.0
 40
0.0580507393078153
 50
177.0990741660990011
 51
234.2538048993135931
  0
ARC
  5
10E4B
  8
0
 10
4202.047093959537051
 20
248.2045486901693039
 30
0.0
 40
0.0466452535830984
 50
56.3791779487494509
 51
120.2326748442247037
  0
ARC
  5
10E4C
  8
0
 10
4202.0563837125328064
 20
248.2185198744722072
 30
0.0
 40
0.0298674855091963
 50
349.1638023361124965
 51
56.3791779487494509
  0
ARC
  5
10E4D
  8
0
 10
4202.0525062081460419
 20
248.2231867352606116
 30
0.0
 40
0.0347675707032039
 50
285.3646608111238265
 51
342.7983560653293011
  0
ARC
  5
10E4E
  8
0
 10
4202.0472390404602265
 20
248.2332112708128022
 30
0.0
 40
0.0458934123634078
 50
230.6851145499460927
 51
288.3908184101611027
  0
ARC
  5
10E4F
  8
0
 10
4202.0366769408547043
 20
248.2199043202456892
 30
0.0
 40
0.0289073578210035
 50
181.2234412901360088
 51
230.1709566326705101
  0
ARC
  5
10E50
  8
0
 10
4202.0382223302149214
 20
248.2181148325902029
 30
0.0
 40
0.0304687169832184
 50
118.6636819988025024
 51
177.7950202283383021
  0
ARC
  5
10E51
  8
0
 10
4202.047179825935018
 20
248.2452587817728897
 30
0.0
 40
0.0385404512636571
 50
200.3199793757908935
 51
339.2725705177285818
  0
ARC
  5
10E52
  8
0
 10
4202.0556851083902075
 20
248.2320823819877944
 30
0.0
 40
0.070508613564586
 50
33.0503666370583034
 51
84.7397694796198664
  0
ARC
  5
10E53
  8
0
 10
4202.0495720811186402
 20
248.2140191850558892
 30
0.0
 40
0.0891663546844802
 50
81.8911941831924253
 51
120.0820796103923982
  0
ARC
  5
10E54
  8
0
 10
4202.2068351358348082
 20
249.0636590623460904
 30
0.0
 40
0.7984468076548704
 50
234.7081598230751069
 51
239.7512963108881934
  0
ARC
  5
10E55
  8
0
 10
4202.2068351358348082
 20
249.0636590623460904
 30
0.0
 40
0.7984468076548704
 50
250.206691038436702
 51
255.3486178665685031
  0
ARC
  5
10E56
  8
0
 10
4202.2068351358348082
 20
249.0636590623460904
 30
0.0
 40
0.7984468076548704
 50
263.3798374474375237
 51
274.94049173672488
  0
ARC
  5
10E57
  8
0
 10
4202.2068831579290418
 20
249.0481064777962104
 30
0.0
 40
0.7970094832558968
 50
234.6307557275808904
 51
239.6666203606540932
  0
ARC
  5
10E58
  8
0
 10
4202.2068831579290418
 20
249.0481064777962104
 30
0.0
 40
0.7970094832558968
 50
250.1431084566806078
 51
255.2135182551186858
  0
ARC
  5
10E59
  8
0
 10
4202.2068831579290418
 20
249.0481064777962104
 30
0.0
 40
0.7970094832558968
 50
263.6321580570153174
 51
274.7544114960800812
  0
ARC
  5
10E5A
  8
0
 10
4202.2049993940709101
 20
249.0593402274247978
 30
0.0
 40
0.8491998462670801
 50
236.1487376789023926
 51
240.0525576955903091
  0
ARC
  5
10E5B
  8
0
 10
4202.2019043671398322
 20
249.0541734907419027
 30
0.0
 40
0.8431779053288915
 50
250.29451838346111
 51
254.2447940799648904
  0
ARC
  5
10E5C
  8
0
 10
4202.2019043671389227
 20
249.0541734907396005
 30
0.0
 40
0.8431779053266018
 50
264.8020654588823959
 51
275.0019996323683813
  0
ARC
  5
10E5D
  8
0
 10
4201.8513460746662531
 20
248.304637226949211
 30
0.0
 40
0.0727652239469548
 50
130.2104878196124957
 51
164.9574784080515997
  0
LINE
  5
10E5E
  8
0
 10
4201.8043690289096048
 20
248.3602064179470119
 30
0.0
 11
4201.8046140171791194
 21
248.3739232604901872
 31
0.0
  0
ARC
  5
10E5F
  8
0
 10
4202.0421277237201139
 20
248.2128332771262933
 30
0.0
 40
0.0753317440169657
 50
120.8729577224572012
 51
156.6644776898160956
  0
LINE
  5
10E60
  8
0
 10
4202.0034722782411336
 20
248.2774910546280012
 30
0.0
 11
4202.0048783268512125
 21
248.2911755661085067
 31
0.0
  0
LINE
  5
10E61
  8
0
 10
4202.1147848269538372
 20
248.2705360925050968
 30
0.0
 11
4202.118485920738749
 21
248.2560142831264045
 31
0.0
  0
ARC
  5
10E62
  8
0
 10
4202.0148122875680201
 20
248.2171118256858904
 30
0.0
 40
0.1107322148690869
 50
358.6850556367227796
 51
20.5680821633184792
  0
ARC
  5
10E63
  8
0
 10
4202.5565371450265957
 20
248.0102402546154963
 30
0.0
 40
0.08381893493879
 50
45.8146975461237815
 51
107.4501293166309068
  0
ARC
  5
10E64
  8
0
 10
4202.5358715887878134
 20
248.0227717415745872
 30
0.0
 40
0.0597404898895609
 50
142.9134842307229007
 51
183.0425690954996014
  0
ARC
  5
10E65
  8
0
 10
4203.1463939658888194
 20
248.5899516431142047
 30
0.0
 40
0.7924425855547925
 50
213.457555710404705
 51
219.0977242914347869
  0
LINE
  5
10E66
  8
0
 10
4202.6149573650045568
 20
248.0703459261607975
 30
0.0
 11
4202.6280560453751605
 21
248.0714420064446983
 31
0.0
  0
ARC
  5
10E67
  8
0
 10
4201.929027557950576
 20
248.0305257220367992
 30
0.0
 40
0.7007368062773699
 50
314.4245169284760095
 51
357.1817853387088917
  0
LINE
  5
10E68
  8
0
 10
4202.6289168631747089
 20
247.9960723897478942
 30
0.0
 11
4202.6145486353752858
 21
247.9948714578480065
 31
0.0
  0
ARC
  5
10E69
  8
0
 10
4202.5440244225528659
 20
248.0506523689167864
 30
0.0
 40
0.0899175991334002
 50
261.9093076745900817
 51
321.6578728425370173
  0
LINE
  5
10E6A
  8
0
 10
4202.6145486353752858
 20
248.0586521349453051
 30
0.0
 11
4202.6149573650045568
 21
248.0703459261607975
 31
0.0
  0
LINE
  5
10E6B
  8
0
 10
4202.531369383578749
 20
248.0785901724443079
 30
0.0
 11
4202.5314018947046861
 21
248.0902017018607069
 31
0.0
  0
ARC
  5
10E6C
  8
0
 10
4202.0465490694377877
 20
247.7548913851910868
 30
0.0
 40
0.0779969061418193
 50
173.889233827066306
 51
186.8397192269339939
  0
ARC
  5
10E6D
  8
0
 10
4202.0432311676859172
 20
247.7298678601177073
 30
0.0
 40
0.0757755593863509
 50
84.6584174491642045
 51
168.0154058846738963
  0
ARC
  5
10E6E
  8
0
 10
4202.052490225272777
 20
247.7292307456717992
 30
0.0
 40
0.0761155520251004
 50
15.7071881075757709
 51
91.6599402181670655
  0
ARC
  5
10E6F
  8
0
 10
4202.0638362570307436
 20
247.7437785271847019
 30
0.0
 40
0.0622228329213131
 50
288.1568546581048054
 51
5.5874438906062984
  0
ARC
  5
10E70
  8
0
 10
4202.0479761214191967
 20
247.7709153799497983
 30
0.0
 40
0.093185805320762
 50
233.9754682629784099
 51
292.2269538054389955
  0
ARC
  5
10E71
  8
0
 10
4202.0270836021800278
 20
247.7426646602636993
 30
0.0
 40
0.0580507393078153
 50
177.0990741660990011
 51
234.2538048993135931
  0
ARC
  5
10E72
  8
0
 10
4202.0476377075156051
 20
247.7337564849447062
 30
0.0
 40
0.0466452535830984
 50
56.3791779487494509
 51
120.2326748442247037
  0
ARC
  5
10E73
  8
0
 10
4202.0569274605113606
 20
247.7477276692474959
 30
0.0
 40
0.0298674855091963
 50
349.1638023361124965
 51
56.3791779487494509
  0
ARC
  5
10E74
  8
0
 10
4202.0530499561245961
 20
247.7523945300357866
 30
0.0
 40
0.0347675707032039
 50
285.3646608111238265
 51
342.7983560653293011
  0
ARC
  5
10E75
  8
0
 10
4202.0477827884387807
 20
247.7624190655880057
 30
0.0
 40
0.0458934123634078
 50
230.6851145499460927
 51
288.3908184101611027
  0
ARC
  5
10E76
  8
0
 10
4202.0372206888332585
 20
247.7491121150210063
 30
0.0
 40
0.0289073578210035
 50
181.2234412901360088
 51
230.1709566326705101
  0
ARC
  5
10E77
  8
0
 10
4202.0387660781952945
 20
247.7473226273654916
 30
0.0
 40
0.0304687169832184
 50
118.6636819988025024
 51
177.7950202283383021
  0
ARC
  5
10E78
  8
0
 10
4202.0477235739153912
 20
247.7744665765480931
 30
0.0
 40
0.0385404512636571
 50
200.3199793757908935
 51
339.2725705177285818
  0
ARC
  5
10E79
  8
0
 10
4202.0662273944280969
 20
247.7657233252213871
 30
0.0
 40
0.0602405153617416
 50
17.6942492853963493
 51
76.2087945808629428
  0
ARC
  5
10E7A
  8
0
 10
4202.0524379747248531
 20
247.7302852846306109
 30
0.0
 40
0.0980687929608259
 50
73.3190794735692322
 51
127.652509112825399
  0
ARC
  5
10E7B
  8
0
 10
4202.0256167686784465
 20
247.7619640571917046
 30
0.0
 40
0.0566347856578271
 50
125.7466613848242929
 51
178.7553749153240119
  0
ARC
  5
10E7C
  8
0
 10
4201.8567967515036798
 20
247.6643915516746119
 30
0.0
 40
0.0779969061418193
 50
173.889233827066306
 51
186.8397192269339939
  0
ARC
  5
10E7D
  8
0
 10
4201.8534788497508998
 20
247.6393680266012893
 30
0.0
 40
0.0757755593863509
 50
84.6584174491642045
 51
168.0154058846738963
  0
ARC
  5
10E7E
  8
0
 10
4201.8627379073377597
 20
247.6387309121554097
 30
0.0
 40
0.0761155520251004
 50
15.7071881075757709
 51
91.6599402181670655
  0
ARC
  5
10E7F
  8
0
 10
4201.8740839390957262
 20
247.6532786936683124
 30
0.0
 40
0.0622228329213131
 50
288.1568546581048054
 51
5.5874438906062984
  0
ARC
  5
10E80
  8
0
 10
4201.8582238034841794
 20
247.6804155464334087
 30
0.0
 40
0.093185805320762
 50
233.9754682629784099
 51
292.2269538054389955
  0
ARC
  5
10E81
  8
0
 10
4201.837331284244101
 20
247.6521648267471107
 30
0.0
 40
0.0580507393078153
 50
177.0990741660990011
 51
234.2538048993135931
  0
ARC
  5
10E82
  8
0
 10
4201.8578853895796783
 20
247.6432566514280893
 30
0.0
 40
0.0466452535830984
 50
56.3791779487494509
 51
120.2326748442247037
  0
ARC
  5
10E83
  8
0
 10
4201.8671751425763432
 20
247.6572278357309926
 30
0.0
 40
0.0298674855091963
 50
349.1638023361124965
 51
56.3791779487494509
  0
ARC
  5
10E84
  8
0
 10
4201.8632976381886692
 20
247.661894696519397
 30
0.0
 40
0.0347675707032039
 50
285.3646608111238265
 51
342.7983560653293011
  0
ARC
  5
10E85
  8
0
 10
4201.8580304705028539
 20
247.6719192320715877
 30
0.0
 40
0.0458934123634078
 50
230.6851145499460927
 51
288.3908184101611027
  0
ARC
  5
10E86
  8
0
 10
4201.8474683708982411
 20
247.6586122815043893
 30
0.0
 40
0.0289073578210035
 50
181.2234412901360088
 51
230.1709566326705101
  0
ARC
  5
10E87
  8
0
 10
4201.8490137602593677
 20
247.6568227938489031
 30
0.0
 40
0.0304687169832184
 50
118.6636819988025024
 51
177.7950202283383021
  0
ARC
  5
10E88
  8
0
 10
4201.8579712559803738
 20
247.6839667430315899
 30
0.0
 40
0.0385404512636571
 50
200.3199793757908935
 51
339.2725705177285818
  0
LINE
  5
10E89
  8
0
 10
4201.9361745602309384
 20
247.657332790836108
 30
0.0
 11
4201.9366772472340017
 21
247.6773725215226136
 31
0.0
  0
ARC
  5
10E8A
  8
0
 10
4201.8764750764930795
 20
247.6752234917049122
 30
0.0
 40
0.0602405153617416
 50
2.0444126302485972
 51
4.3583200327072884
  0
ARC
  5
10E8B
  8
0
 10
4201.8764750764930795
 20
247.6752234917049122
 30
0.0
 40
0.0602405153617416
 50
53.2294964675589881
 51
76.2087945808629428
  0
ARC
  5
10E8C
  8
0
 10
4201.8626856567889263
 20
247.6397854511141929
 30
0.0
 40
0.0980687929608259
 50
73.3190794735692322
 51
127.652509112825399
  0
ARC
  5
10E8D
  8
0
 10
4201.8358644507434292
 20
247.6714642236752866
 30
0.0
 40
0.0566347856578271
 50
125.7466613848242929
 51
178.7553749153240119
  0
ARC
  5
10E8E
  8
0
 10
4201.6658162278999953
 20
247.5769987725608985
 30
0.0
 40
0.0779969061418193
 50
173.889233827066306
 51
186.8397192269339939
  0
ARC
  5
10E8F
  8
0
 10
4201.6624983261472153
 20
247.5519752474876043
 30
0.0
 40
0.0757755593863509
 50
84.6584174491642045
 51
168.0154058846738963
  0
ARC
  5
10E90
  8
0
 10
4201.6717573837340751
 20
247.5513381330416109
 30
0.0
 40
0.0761155520251004
 50
15.7071881075757709
 51
91.6599402181670655
  0
ARC
  5
10E91
  8
0
 10
4201.6831034154938607
 20
247.5658859145545989
 30
0.0
 40
0.0622228329213131
 50
288.1568546581048054
 51
5.5874438906062984
  0
ARC
  5
10E92
  8
0
 10
4201.6672432798814043
 20
247.59302276731961
 30
0.0
 40
0.093185805320762
 50
233.9754682629784099
 51
292.2269538054389955
  0
ARC
  5
10E93
  8
0
 10
4201.6463507606422354
 20
247.5647720476333973
 30
0.0
 40
0.0580507393078153
 50
177.0990741660990011
 51
234.2538048993135931
  0
ARC
  5
10E94
  8
0
 10
4201.6669048659778127
 20
247.5558638723144043
 30
0.0
 40
0.0466452535830984
 50
56.3791779487494509
 51
120.2326748442247037
  0
ARC
  5
10E95
  8
0
 10
4201.6761946189735681
 20
247.5698350566171939
 30
0.0
 40
0.0298674855091963
 50
349.1638023361124965
 51
56.3791779487494509
  0
ARC
  5
10E96
  8
0
 10
4201.6723171145877131
 20
247.574501917405712
 30
0.0
 40
0.0347675707032039
 50
285.3646608111238265
 51
342.7983560653293011
  0
ARC
  5
10E97
  8
0
 10
4201.6670499469009883
 20
247.5845264529577889
 30
0.0
 40
0.0458934123634078
 50
230.6851145499460927
 51
288.3908184101611027
  0
ARC
  5
10E98
  8
0
 10
4201.6564878472936471
 20
247.5712195023909032
 30
0.0
 40
0.0289073578210035
 50
181.2234412901360088
 51
230.1709566326705101
  0
ARC
  5
10E99
  8
0
 10
4201.6580332366565926
 20
247.5694300147353033
 30
0.0
 40
0.0304687169832184
 50
118.6636819988025024
 51
177.7950202283383021
  0
ARC
  5
10E9A
  8
0
 10
4201.6669907323766893
 20
247.5965739639179048
 30
0.0
 40
0.0385404512636571
 50
200.3199793757908935
 51
339.2725705177285818
  0
LINE
  5
10E9B
  8
0
 10
4201.7451940366281633
 20
247.5699400117225082
 30
0.0
 11
4201.7453856070296752
 21
247.5775770089838943
 31
0.0
  0
ARC
  5
10E9C
  8
0
 10
4201.6854945528903045
 20
247.5878307125911988
 30
0.0
 40
0.0602405153617416
 50
41.8625004094550235
 51
76.2087945808629428
  0
ARC
  5
10E9D
  8
0
 10
4201.6717051331852417
 20
247.5523926720005079
 30
0.0
 40
0.0980687929608259
 50
73.3190794735692322
 51
127.652509112825399
  0
ARC
  5
10E9E
  8
0
 10
4201.6448839271397446
 20
247.5840714445616015
 30
0.0
 40
0.0566347856578271
 50
125.7466613848242929
 51
178.7553749153240119
  0
ARC
  5
10E9F
  8
0
 10
4201.1626456942203731
 20
247.8102063696628079
 30
0.0
 40
0.0779969061418193
 50
173.889233827066306
 51
186.8397192269339939
  0
ARC
  5
10EA0
  8
0
 10
4201.1593277924666836
 20
247.785182844589599
 30
0.0
 40
0.0757755593863509
 50
84.6584174491642045
 51
168.0154058846738963
  0
ARC
  5
10EA1
  8
0
 10
4201.1685868500562719
 20
247.7845457301436909
 30
0.0
 40
0.0761155520251004
 50
15.7071881075757709
 51
91.6599402181670655
  0
ARC
  5
10EA2
  8
0
 10
4201.179932881813329
 20
247.7990935116565083
 30
0.0
 40
0.0622228329213131
 50
288.1568546581048054
 51
5.5874438906062984
  0
ARC
  5
10EA3
  8
0
 10
4201.1640727462008726
 20
247.826230364421491
 30
0.0
 40
0.093185805320762
 50
233.9754682629784099
 51
292.2269538054389955
  0
ARC
  5
10EA4
  8
0
 10
4201.1431802269626132
 20
247.7979796447353067
 30
0.0
 40
0.0580507393078153
 50
177.0990741660990011
 51
234.2538048993135931
  0
ARC
  5
10EA5
  8
0
 10
4201.1637343322981906
 20
247.7890714694165126
 30
0.0
 40
0.0466452535830984
 50
56.3791779487494509
 51
120.2326748442247037
  0
ARC
  5
10EA6
  8
0
 10
4201.1730240852930365
 20
247.8030426537193023
 30
0.0
 40
0.0298674855091963
 50
349.1638023361124965
 51
56.3791779487494509
  0
ARC
  5
10EA7
  8
0
 10
4201.169146580908091
 20
247.8077095145077067
 30
0.0
 40
0.0347675707032039
 50
285.3646608111238265
 51
342.7983560653293011
  0
ARC
  5
10EA8
  8
0
 10
4201.1638794132213661
 20
247.8177340500598973
 30
0.0
 40
0.0458934123634078
 50
230.6851145499460927
 51
288.3908184101611027
  0
ARC
  5
10EA9
  8
0
 10
4201.1533173136149344
 20
247.8044270994928127
 30
0.0
 40
0.0289073578210035
 50
181.2234412901360088
 51
230.1709566326705101
  0
ARC
  5
10EAA
  8
0
 10
4201.1548627029769705
 20
247.802637611837298
 30
0.0
 40
0.0304687169832184
 50
118.6636819988025024
 51
177.7950202283383021
  0
ARC
  5
10EAB
  8
0
 10
4201.1638201986979766
 20
247.8297815610200132
 30
0.0
 40
0.0385404512636571
 50
200.3199793757908935
 51
339.2725705177285818
  0
LINE
  5
10EAC
  8
0
 10
4201.2420235029476316
 20
247.8031476088243892
 30
0.0
 11
4201.242526189950695
 21
247.8231873395108948
 31
0.0
  0
ARC
  5
10EAD
  8
0
 10
4201.1823240192097728
 20
247.8210383096931935
 30
0.0
 40
0.0602405153617416
 50
2.0444126302485972
 51
76.2087945808629428
  0
ARC
  5
10EAE
  8
0
 10
4201.1685345995074385
 20
247.7856002691025026
 30
0.0
 40
0.0980687929608259
 50
73.3190794735692322
 51
83.6662622956407631
  0
ARC
  5
10EAF
  8
0
 10
4201.1685345995074385
 20
247.7856002691025026
 30
0.0
 40
0.0980687929608259
 50
113.4787325578483035
 51
127.652509112825399
  0
ARC
  5
10EB0
  8
0
 10
4201.1417133934601225
 20
247.817279041663511
 30
0.0
 40
0.0566347856578271
 50
125.7466613848242929
 51
178.7553749153240119
  0
ARC
  5
10EB1
  8
0
 10
4201.156027690774863
 20
247.9911428838678944
 30
0.0
 40
0.0779969061418193
 50
173.889233827066306
 51
186.8397192269339939
  0
ARC
  5
10EB2
  8
0
 10
4201.152709789022083
 20
247.9661193587944865
 30
0.0
 40
0.0757755593863509
 50
84.6584174491642045
 51
168.0154058846738963
  0
ARC
  5
10EB3
  8
0
 10
4201.1619688466089428
 20
247.9654822443486069
 30
0.0
 40
0.0761155520251004
 50
15.7071881075757709
 51
91.6599402181670655
  0
ARC
  5
10EB4
  8
0
 10
4201.1733148783687284
 20
247.9800300258615096
 30
0.0
 40
0.0622228329213131
 50
288.1568546581048054
 51
5.5874438906062984
  0
ARC
  5
10EB5
  8
0
 10
4201.1574547427553625
 20
248.0071668786266059
 30
0.0
 40
0.093185805320762
 50
233.9754682629784099
 51
292.2269538054389955
  0
ARC
  5
10EB6
  8
0
 10
4201.1365622235161936
 20
247.9789161589403079
 30
0.0
 40
0.0580507393078153
 50
177.0990741660990011
 51
234.2538048993135931
  0
ARC
  5
10EB7
  8
0
 10
4201.1571163288526805
 20
247.9700079836214002
 30
0.0
 40
0.0466452535830984
 50
56.3791779487494509
 51
120.2326748442247037
  0
ARC
  5
10EB8
  8
0
 10
4201.1664060818484359
 20
247.9839791679243035
 30
0.0
 40
0.0298674855091963
 50
349.1638023361124965
 51
56.3791779487494509
  0
ARC
  5
10EB9
  8
0
 10
4201.1625285774607619
 20
247.9886460287127079
 30
0.0
 40
0.0347675707032039
 50
285.3646608111238265
 51
342.7983560653293011
  0
ARC
  5
10EBA
  8
0
 10
4201.157261409774037
 20
247.9986705642648985
 30
0.0
 40
0.0458934123634078
 50
230.6851145499460927
 51
288.3908184101611027
  0
ARC
  5
10EBB
  8
0
 10
4201.1466993101712433
 20
247.9853636136978139
 30
0.0
 40
0.0289073578210035
 50
181.2234412901360088
 51
230.1709566326705101
  0
ARC
  5
10EBC
  8
0
 10
4201.1482446995305509
 20
247.9835741260422139
 30
0.0
 40
0.0304687169832184
 50
118.6636819988025024
 51
177.7950202283383021
  0
ARC
  5
10EBD
  8
0
 10
4201.1572021952506475
 20
248.0107180752249008
 30
0.0
 40
0.0385404512636571
 50
200.3199793757908935
 51
339.2725705177285818
  0
LINE
  5
10EBE
  8
0
 10
4201.2354054995021215
 20
247.9840841230293904
 30
0.0
 11
4201.2359081865060944
 21
248.0041238537160098
 31
0.0
  0
ARC
  5
10EBF
  8
0
 10
4201.1757060157642627
 20
248.0019748238981094
 30
0.0
 40
0.0602405153617416
 50
2.0444126302485972
 51
76.2087945808629428
  0
ARC
  5
10EC0
  8
0
 10
4201.1619165960610189
 20
247.9665367833075038
 30
0.0
 40
0.0980687929608259
 50
73.3190794735692322
 51
76.3592998054278098
  0
ARC
  5
10EC1
  8
0
 10
4201.1619165960610189
 20
247.9665367833075038
 30
0.0
 40
0.0980687929608259
 50
105.0468195471097061
 51
127.652509112825399
  0
ARC
  5
10EC2
  8
0
 10
4201.1350953900137029
 20
247.9982155558685122
 30
0.0
 40
0.0566347856578271
 50
125.7466613848242929
 51
178.7553749153240119
  0
ARC
  5
10EC3
  8
0
 10
4201.1603839604113091
 20
248.1684578154682015
 30
0.0
 40
0.0779969061418193
 50
173.889233827066306
 51
186.8397192269339939
  0
ARC
  5
10EC4
  8
0
 10
4201.1570660586576196
 20
248.1434342903947936
 30
0.0
 40
0.0757755593863509
 50
84.6584174491642045
 51
168.0154058846738963
  0
ARC
  5
10EC5
  8
0
 10
4201.1663251162462984
 20
248.1427971759489139
 30
0.0
 40
0.0761155520251004
 50
15.7071881075757709
 51
91.6599402181670655
  0
ARC
  5
10EC6
  8
0
 10
4201.1776711480051745
 20
248.1573449574617882
 30
0.0
 40
0.0622228329213131
 50
288.1568546581048054
 51
5.5874438906062984
  0
ARC
  5
10EC7
  8
0
 10
4201.1618110123918086
 20
248.1844818102269983
 30
0.0
 40
0.093185805320762
 50
233.9754682629784099
 51
292.2269538054389955
  0
ARC
  5
10EC8
  8
0
 10
4201.1409184931526397
 20
248.1562310905407003
 30
0.0
 40
0.0580507393078153
 50
177.0990741660990011
 51
234.2538048993135931
  0
ARC
  5
10EC9
  8
0
 10
4201.1614725984891265
 20
248.1473229152217925
 30
0.0
 40
0.0466452535830984
 50
56.3791779487494509
 51
120.2326748442247037
  0
ARC
  5
10ECA
  8
0
 10
4201.170762351483063
 20
248.1612940995246106
 30
0.0
 40
0.0298674855091963
 50
349.1638023361124965
 51
56.3791779487494509
  0
ARC
  5
10ECB
  8
0
 10
4201.1668848470981175
 20
248.1659609603131003
 30
0.0
 40
0.0347675707032039
 50
285.3646608111238265
 51
342.7983560653293011
  0
ARC
  5
10ECC
  8
0
 10
4201.1616176794113926
 20
248.1759854958652056
 30
0.0
 40
0.0458934123634078
 50
230.6851145499460927
 51
288.3908184101611027
  0
ARC
  5
10ECD
  8
0
 10
4201.1510555798058704
 20
248.1626785452980926
 30
0.0
 40
0.0289073578210035
 50
181.2234412901360088
 51
230.1709566326705101
  0
ARC
  5
10ECE
  8
0
 10
4201.1526009691669969
 20
248.1608890576426063
 30
0.0
 40
0.0304687169832184
 50
118.6636819988025024
 51
177.7950202283383021
  0
ARC
  5
10ECF
  8
0
 10
4201.1615584648880031
 20
248.1880330068252931
 30
0.0
 40
0.0385404512636571
 50
200.3199793757908935
 51
339.2725705177285818
  0
LINE
  5
10ED0
  8
0
 10
4201.2397617691403866
 20
248.1613990546296975
 30
0.0
 11
4201.2402644561407214
 21
248.1814387853162884
 31
0.0
  0
ARC
  5
10ED1
  8
0
 10
4201.1800622854007088
 20
248.1792897554985018
 30
0.0
 40
0.0602405153617416
 50
2.0444126302485972
 51
76.2087945808629428
  0
ARC
  5
10ED2
  8
0
 10
4201.1662728656983745
 20
248.1438517149078109
 30
0.0
 40
0.0980687929608259
 50
73.3190794735692322
 51
106.9142407267347039
  0
ARC
  5
10ED3
  8
0
 10
4201.1394516596510584
 20
248.1755304874687909
 30
0.0
 40
0.0566347856578271
 50
137.732836402089589
 51
178.7553749153240119
  0
ARC
  5
10ED4
  8
0
 10
4200.9794519252045575
 20
248.4396792760065011
 30
0.0
 40
0.130703324101895
 50
103.712383519371599
 51
134.5657717589384959
  0
ARC
  5
10ED5
  8
0
 10
4200.9764121139332929
 20
248.4485227162550984
 30
0.0
 40
0.1223364621448919
 50
136.458226826323795
 51
195.9317628418260995
  0
ARC
  5
10ED6
  8
0
 10
4200.979169699182421
 20
248.4569248768019918
 30
0.0
 40
0.1275048909499564
 50
199.2240194827614062
 51
273.8259164365512106
  0
ARC
  5
10ED7
  8
0
 10
4200.9867046796198338
 20
248.4131179022695903
 30
0.0
 40
0.0848405799080838
 50
54.4928582906643229
 51
143.0944207783473132
  0
ARC
  5
10ED8
  8
0
 10
4200.9658871853180244
 20
248.4366545240233961
 30
0.0
 40
0.0544287955920015
 50
149.7619735020828955
 51
242.3282828798307094
  0
ARC
  5
10ED9
  8
0
 10
4200.9796232842500103
 20
248.4086565585510016
 30
0.0
 40
0.1334160261539252
 50
92.6353507398124236
 51
145.40808669041499
  0
ARC
  5
10EDA
  8
0
 10
4200.9443014201378901
 20
248.4369780211497982
 30
0.0
 40
0.0883198510084538
 50
147.5244021224260109
 51
194.4478751759291129
  0
LINE
  5
10EDB
  8
0
 10
4200.9819387595880471
 20
248.4963138408527925
 30
0.0
 11
4200.9937497831870132
 21
248.4963138408527925
 31
0.0
  0
LINE
  5
10EDC
  8
0
 10
4200.9937497831870132
 20
248.4963138408527925
 30
0.0
 11
4200.9937497831870132
 21
248.4773913665536043
 31
0.0
  0
LINE
  5
10EDD
  8
0
 10
4200.9937497831870132
 20
248.4773913665536043
 30
0.0
 11
4200.9819387595880471
 21
248.4773913665536043
 31
0.0
  0
LINE
  5
10EDE
  8
0
 10
4200.9819387595880471
 20
248.4773913665536043
 30
0.0
 11
4200.9819387595880471
 21
248.4963138408527925
 31
0.0
  0
LINE
  5
10EDF
  8
0
 10
4200.9819387595880471
 20
248.480646925853506
 30
0.0
 11
4200.9937497831870132
 21
248.480646925853506
 31
0.0
  0
LINE
  5
10EE0
  8
0
 10
4200.9581792435556054
 20
248.4930192382811924
 30
0.0
 11
4200.9588808082389733
 21
248.4769288459607992
 31
0.0
  0
LINE
  5
10EE1
  8
0
 10
4200.9588808082389733
 20
248.4769288459607992
 30
0.0
 11
4200.9548960985630401
 21
248.476755106780189
 31
0.0
  0
LINE
  5
10EE2
  8
0
 10
4200.9469517683182858
 20
248.4793977303102963
 30
0.0
 11
4200.9465822943448075
 21
248.487871619226496
 31
0.0
  0
LINE
  5
10EE3
  8
0
 10
4200.9587391099967135
 20
248.4801786964092969
 30
0.0
 11
4200.9469383606547126
 21
248.4797052351896127
 31
0.0
  0
ARC
  5
10EE4
  8
0
 10
4201.0083588376819534
 20
248.4379406809106001
 30
0.0
 40
0.0521558269382968
 50
320.8322349223010974
 51
58.0216964982182688
  0
ARC
  5
10EE5
  8
0
 10
4200.9846426189842532
 20
248.4624935621463919
 30
0.0
 40
0.0861460200928725
 50
239.2603927327903932
 51
318.1330262593244242
  0
LINE
  5
10EE6
  8
0
 10
4201.0174682484976074
 20
248.4921844996989932
 30
0.0
 11
4201.0168030796412495
 21
248.4769288459607992
 31
0.0
  0
LINE
  5
10EE7
  8
0
 10
4201.0168030796412495
 20
248.4769288459607992
 30
0.0
 11
4201.0173859114811421
 21
248.4769034336385971
 31
0.0
  0
LINE
  5
10EE8
  8
0
 10
4201.0288009936330127
 20
248.4809773577522094
 30
0.0
 11
4201.0290477419666786
 21
248.4866365330393023
 31
0.0
  0
LINE
  5
10EE9
  8
0
 10
4201.0169447778825997
 20
248.4801786964092969
 30
0.0
 11
4201.025928408677828
 21
248.4798182616038105
 31
0.0
  0
ARC
  5
10EEA
  8
0
 10
4200.9843452201657783
 20
248.4286014470854127
 30
0.0
 40
0.1426412300644728
 50
61.989852785361883
 51
104.5671236886633011
  0
ARC
  5
10EEB
  8
0
 10
4200.9950626100071531
 20
248.4460382484330978
 30
0.0
 40
0.1224374295850651
 50
348.3456831360958859
 51
1.202116886173862
  0
ARC
  5
10EEC
  8
0
 10
4200.9850298450792252
 20
248.4371145455164935
 30
0.0
 40
0.1357786026545747
 50
27.9521368331675788
 51
37.7587306114723802
  0
ARC
  5
10EED
  8
0
 10
4200.9934918265216766
 20
248.4558780860569129
 30
0.0
 40
0.1263078381086331
 50
267.3615683089225854
 51
344.114246313677711
  0
ARC
  5
10EEE
  8
0
 10
4200.9887827156680942
 20
248.4032898468595079
 30
0.0
 40
0.1394826292414632
 50
34.7690717381249712
 51
96.2949502175378313
  0
ARC
  5
10EEF
  8
0
 10
4201.0279104618366546
 20
248.4379156733423031
 30
0.0
 40
0.0878090318827962
 50
341.3475131349467233
 51
30.7658038953895385
  0
ARC
  5
10EF0
  8
0
 10
4200.9858885500625547
 20
248.5831880465055974
 30
0.0
 40
0.1108535191527658
 50
244.7116774918438011
 51
295.8382182055652265
  0
ARC
  5
10EF1
  8
0
 10
4201.0248844404741249
 20
248.453981470395405
 30
0.0
 40
0.0927445112250111
 50
356.6778367491558015
 51
30.2892170359860202
  0
ARC
  5
10EF2
  8
0
 10
4202.4065817916798551
 20
247.7500145645308862
 30
0.0
 40
0.1472436069782544
 50
115.1490873197816001
 51
131.7211397540143878
  0
ARC
  5
10EF3
  8
0
 10
4202.3736887240611395
 20
247.7831462965365859
 30
0.0
 40
0.1006548934019588
 50
130.2969016958186899
 51
195.7141184153466043
  0
ARC
  5
10EF4
  8
0
 10
4202.3971908202820487
 20
247.7978677425087142
 30
0.0
 40
0.1275048909499564
 50
199.2240194827614062
 51
273.8259164365512106
  0
ARC
  5
10EF5
  8
0
 10
4202.4047258007212804
 20
247.7540607679761138
 30
0.0
 40
0.0848405799080838
 50
54.4928582906643229
 51
143.0944207783473132
  0
ARC
  5
10EF6
  8
0
 10
4202.3839083064158331
 20
247.7775973897300048
 30
0.0
 40
0.0544287955920015
 50
149.7619735020828955
 51
242.3282828798307094
  0
ARC
  5
10EF7
  8
0
 10
4202.3976444053487285
 20
247.7495994242576955
 30
0.0
 40
0.1334160261539252
 50
92.6353507398124236
 51
145.40808669041499
  0
ARC
  5
10EF8
  8
0
 10
4202.3623225412356987
 20
247.7779208868564069
 30
0.0
 40
0.0883198510084538
 50
147.5244021224260109
 51
194.4478751759291129
  0
LINE
  5
10EF9
  8
0
 10
4202.3999598806885842
 20
247.8372567065594865
 30
0.0
 11
4202.4117709042866409
 21
247.8372567065594865
 31
0.0
  0
LINE
  5
10EFA
  8
0
 10
4202.4117709042866409
 20
247.8372567065594865
 30
0.0
 11
4202.4117709042866409
 21
247.8183342322602982
 31
0.0
  0
LINE
  5
10EFB
  8
0
 10
4202.4117709042866409
 20
247.8183342322602982
 30
0.0
 11
4202.3999598806885842
 21
247.8183342322602982
 31
0.0
  0
LINE
  5
10EFC
  8
0
 10
4202.3999598806885842
 20
247.8183342322602982
 30
0.0
 11
4202.3999598806885842
 21
247.8372567065594865
 31
0.0
  0
LINE
  5
10EFD
  8
0
 10
4202.3999598806885842
 20
247.821589791560001
 30
0.0
 11
4202.4117709042866409
 21
247.821589791560001
 31
0.0
  0
LINE
  5
10EFE
  8
0
 10
4202.3762003646561425
 20
247.8339621039876874
 30
0.0
 11
4202.3769019293367819
 21
247.8178717116672942
 31
0.0
  0
LINE
  5
10EFF
  8
0
 10
4202.3769019293367819
 20
247.8178717116672942
 30
0.0
 11
4202.3729172196617583
 21
247.8176979724869113
 31
0.0
  0
LINE
  5
10F00
  8
0
 10
4202.3649728894179134
 20
247.8203405960167913
 30
0.0
 11
4202.3646034154444351
 21
247.82881448493319
 31
0.0
  0
LINE
  5
10F01
  8
0
 10
4202.3767602310954317
 20
247.8211215621159056
 30
0.0
 11
4202.3649594817543402
 21
247.820648100896193
 31
0.0
  0
ARC
  5
10F02
  8
0
 10
4202.4263799587815811
 20
247.7788835466172941
 30
0.0
 40
0.0521558269382968
 50
320.8322349223010974
 51
58.0216964982182688
  0
ARC
  5
10F03
  8
0
 10
4202.4026637400829713
 20
247.8034364278530006
 30
0.0
 40
0.0861460200928725
 50
239.2603927327903932
 51
318.1330262593244242
  0
LINE
  5
10F04
  8
0
 10
4202.4354893695981445
 20
247.8331273654056019
 30
0.0
 11
4202.4348242007417866
 21
247.8178717116672942
 31
0.0
  0
LINE
  5
10F05
  8
0
 10
4202.4348242007417866
 20
247.8178717116672942
 30
0.0
 11
4202.4354070325798602
 21
247.8178462993452911
 31
0.0
  0
LINE
  5
10F06
  8
0
 10
4202.4468221147317308
 20
247.8219202234589034
 30
0.0
 11
4202.4470688630672157
 21
247.8275793987457973
 31
0.0
  0
LINE
  5
10F07
  8
0
 10
4202.4349658989831369
 20
247.8211215621159056
 30
0.0
 11
4202.4439495297783651
 21
247.8207611273105044
 31
0.0
  0
ARC
  5
10F08
  8
0
 10
4202.4125052198669437
 20
247.7449722991746057
 30
0.0
 40
0.1543587703279466
 50
58.5640166735988288
 51
64.2092134578131919
  0
ARC
  5
10F09
  8
0
 10
4202.4125052198669437
 20
247.7449722991746057
 30
0.0
 40
0.1543587703279466
 50
83.1118434592873569
 51
116.344050581899495
  0
ARC
  5
10F0A
  8
0
 10
4202.4300344609227977
 20
247.7871277072669045
 30
0.0
 40
0.1094744174937099
 50
23.4853737264707085
 51
54.8823879547535469
  0
ARC
  5
10F0B
  8
0
 10
4202.4115129476222137
 20
247.7968209517634079
 30
0.0
 40
0.1263078381086365
 50
267.3615683089225854
 51
338.6198042803438852
  0
ARC
  5
10F0C
  8
0
 10
4202.4068038367677218
 20
247.7442327125662018
 30
0.0
 40
0.1394826292414632
 50
34.7690717381249712
 51
96.2949502175378313
  0
ARC
  5
10F0D
  8
0
 10
4202.4459315829362822
 20
247.7788585390487981
 30
0.0
 40
0.0878090318827962
 50
341.3475131349467233
 51
30.7658038953895385
  0
ARC
  5
10F0E
  8
0
 10
4202.4039096711630918
 20
247.9241309122120924
 30
0.0
 40
0.1108535191527658
 50
244.7116774918438011
 51
295.8382182055652265
  0
ARC
  5
10F0F
  8
0
 10
4202.4299964240326517
 20
247.8031786365812081
 30
0.0
 40
0.1041604826816417
 50
352.1011715471295815
 51
15.3519700137548796
  0
ARC
  5
10F10
  8
0
 10
4202.04305639660015
 20
247.3990893810461955
 30
0.0
 40
0.1472436069782544
 50
115.1490873197816001
 51
131.7211397540143878
  0
ARC
  5
10F11
  8
0
 10
4202.0101633289814345
 20
247.4322211130520088
 30
0.0
 40
0.1006548934019588
 50
130.2969016958186899
 51
195.7141184153466043
  0
ARC
  5
10F12
  8
0
 10
4202.0336654252014341
 20
247.4469425590239098
 30
0.0
 40
0.1275048909499564
 50
199.2240194827614062
 51
273.8259164365512106
  0
ARC
  5
10F13
  8
0
 10
4202.0412004056397564
 20
247.4031355844915083
 30
0.0
 40
0.0848405799080838
 50
54.4928582906643229
 51
143.0944207783473132
  0
ARC
  5
10F14
  8
0
 10
4202.020382911337947
 20
247.4266722062453141
 30
0.0
 40
0.0544287955920015
 50
149.7619735020828955
 51
242.3282828798307094
  0
ARC
  5
10F15
  8
0
 10
4202.0341190102690234
 20
247.3986742407730901
 30
0.0
 40
0.1334160261539252
 50
92.6353507398124236
 51
145.40808669041499
  0
ARC
  5
10F16
  8
0
 10
4201.9987971461559937
 20
247.4269957033716878
 30
0.0
 40
0.0883198510084538
 50
147.5244021224260109
 51
194.4478751759291129
  0
LINE
  5
10F17
  8
0
 10
4202.0364344856079697
 20
247.4863315230745968
 30
0.0
 11
4202.0482455092069358
 21
247.4863315230745968
 31
0.0
  0
LINE
  5
10F18
  8
0
 10
4202.0482455092069358
 20
247.4863315230745968
 30
0.0
 11
4202.0482455092069358
 21
247.4674090487754086
 31
0.0
  0
LINE
  5
10F19
  8
0
 10
4202.0482455092069358
 20
247.4674090487754086
 30
0.0
 11
4202.0364344856079697
 21
247.4674090487754086
 31
0.0
  0
LINE
  5
10F1A
  8
0
 10
4202.0364344856079697
 20
247.4674090487754086
 30
0.0
 11
4202.0364344856079697
 21
247.4863315230745968
 31
0.0
  0
LINE
  5
10F1B
  8
0
 10
4202.0364344856079697
 20
247.4706646080753103
 30
0.0
 11
4202.0482455092069358
 21
247.4706646080753103
 31
0.0
  0
LINE
  5
10F1C
  8
0
 10
4202.0126749695764374
 20
247.4830369205031104
 30
0.0
 11
4202.0133765342570769
 21
247.4669465281826888
 31
0.0
  0
LINE
  5
10F1D
  8
0
 10
4202.0133765342570769
 20
247.4669465281826888
 30
0.0
 11
4202.0093918245811437
 21
247.4667727890023059
 31
0.0
  0
LINE
  5
10F1E
  8
0
 10
4202.0014474943382083
 20
247.4694154125321859
 30
0.0
 11
4202.00107802036473
 21
247.477889301448414
 31
0.0
  0
LINE
  5
10F1F
  8
0
 10
4202.0132348360148171
 20
247.4701963786311865
 30
0.0
 11
4202.0014340866737257
 21
247.4697229174115876
 31
0.0
  0
ARC
  5
10F20
  8
0
 10
4202.0628545637027855
 20
247.4279583631324044
 30
0.0
 40
0.0521558269382968
 50
320.8322349223010974
 51
58.0216964982182688
  0
ARC
  5
10F21
  8
0
 10
4202.0391383450032663
 20
247.4525112443683099
 30
0.0
 40
0.0861460200928725
 50
239.2603927327903932
 51
318.1330262593244242
  0
LINE
  5
10F22
  8
0
 10
4202.0719639745166205
 20
247.4822021819209112
 30
0.0
 11
4202.0712988056620816
 21
247.4669465281826888
 31
0.0
  0
LINE
  5
10F23
  8
0
 10
4202.0712988056620816
 20
247.4669465281826888
 30
0.0
 11
4202.0718816375001552
 21
247.4669211158604014
 31
0.0
  0
LINE
  5
10F24
  8
0
 10
4202.0832967196529353
 20
247.4709950399742979
 30
0.0
 11
4202.0835434679866012
 21
247.4766542152611919
 31
0.0
  0
LINE
  5
10F25
  8
0
 10
4202.0714405039016128
 20
247.4701963786311865
 30
0.0
 11
4202.0804241346977506
 21
247.4698359438258137
 31
0.0
  0
ARC
  5
10F26
  8
0
 10
4202.0489798247872386
 20
247.3940471156898013
 30
0.0
 40
0.1543587703279466
 50
58.5640166735988288
 51
116.344050581899495
  0
ARC
  5
10F27
  8
0
 10
4202.0665090658430927
 20
247.4362025237822991
 30
0.0
 40
0.1094744174937099
 50
42.7088943431391286
 51
54.8823879547535469
  0
ARC
  5
10F28
  8
0
 10
4202.0479875525415991
 20
247.4458957682786888
 30
0.0
 40
0.1263078381086365
 50
267.3615683089225854
 51
338.6198042803438852
  0
ARC
  5
10F29
  8
0
 10
4202.0432784416889263
 20
247.3933075290815111
 30
0.0
 40
0.1394826292414632
 50
34.7690717381249712
 51
96.2949502175378313
  0
ARC
  5
10F2A
  8
0
 10
4202.0824061878556677
 20
247.4279333555641927
 30
0.0
 40
0.0878090318827962
 50
341.3475131349467233
 51
30.7658038953895385
  0
ARC
  5
10F2B
  8
0
 10
4202.0403842760833868
 20
247.573205728727487
 30
0.0
 40
0.1108535191527658
 50
244.7116774918438011
 51
295.8382182055652265
  0
ARC
  5
10F2C
  8
0
 10
4202.0664710289529467
 20
247.4522534530966027
 30
0.0
 40
0.1041604826816417
 50
352.1011715471295815
 51
9.0440807934634861
  0
ARC
  5
10F2D
  8
0
 10
4201.486081003324216
 20
247.3195410973497133
 30
0.0
 40
0.1472436069782544
 50
115.1490873197816001
 51
131.7211397540143878
  0
ARC
  5
10F2E
  8
0
 10
4201.4531879357036814
 20
247.3526728293552992
 30
0.0
 40
0.1006548934019588
 50
130.2969016958186899
 51
195.7141184153466043
  0
ARC
  5
10F2F
  8
0
 10
4201.4766900319264096
 20
247.3673942753275128
 30
0.0
 40
0.1275048909499564
 50
199.2240194827614062
 51
273.8259164365512106
  0
ARC
  5
10F30
  8
0
 10
4201.4842250123638223
 20
247.3235873007949124
 30
0.0
 40
0.0848405799080838
 50
54.4928582906643229
 51
143.0944207783473132
  0
ARC
  5
10F31
  8
0
 10
4201.463407518062013
 20
247.3471239225486897
 30
0.0
 40
0.0544287955920015
 50
149.7619735020828955
 51
242.3282828798307094
  0
ARC
  5
10F32
  8
0
 10
4201.4771436169939989
 20
247.3191259570766078
 30
0.0
 40
0.1334160261539252
 50
92.6353507398124236
 51
145.40808669041499
  0
ARC
  5
10F33
  8
0
 10
4201.4418217528818786
 20
247.3474474196752055
 30
0.0
 40
0.0883198510084538
 50
147.5244021224260109
 51
194.4478751759291129
  0
LINE
  5
10F34
  8
0
 10
4201.4794590923329451
 20
247.4067832393781998
 30
0.0
 11
4201.4912701159319113
 21
247.4067832393781998
 31
0.0
  0
LINE
  5
10F35
  8
0
 10
4201.4912701159319113
 20
247.4067832393781998
 30
0.0
 11
4201.4912701159319113
 21
247.3878607650790116
 31
0.0
  0
LINE
  5
10F36
  8
0
 10
4201.4912701159319113
 20
247.3878607650790116
 30
0.0
 11
4201.4794590923329451
 21
247.3878607650790116
 31
0.0
  0
LINE
  5
10F37
  8
0
 10
4201.4794590923329451
 20
247.3878607650790116
 30
0.0
 11
4201.4794590923329451
 21
247.4067832393781998
 31
0.0
  0
LINE
  5
10F38
  8
0
 10
4201.4794590923329451
 20
247.3911163243787996
 30
0.0
 11
4201.4912701159319113
 21
247.3911163243787996
 31
0.0
  0
LINE
  5
10F39
  8
0
 10
4201.4556995763014129
 20
247.4034886368065997
 30
0.0
 11
4201.4564011409820523
 21
247.3873982444862065
 31
0.0
  0
LINE
  5
10F3A
  8
0
 10
4201.4564011409820523
 20
247.3873982444862065
 30
0.0
 11
4201.4524164313070287
 21
247.38722450530571
 31
0.0
  0
LINE
  5
10F3B
  8
0
 10
4201.4444721010613648
 20
247.3898671288357036
 30
0.0
 11
4201.444102627088796
 21
247.3983410177519886
 31
0.0
  0
LINE
  5
10F3C
  8
0
 10
4201.4562594427407021
 20
247.3906480949345905
 30
0.0
 11
4201.4444586933987011
 21
247.3901746337149916
 31
0.0
  0
ARC
  5
10F3D
  8
0
 10
4201.505879170425942
 20
247.3484100794358937
 30
0.0
 40
0.0521558269382968
 50
320.8322349223010974
 51
58.0216964982182688
  0
ARC
  5
10F3E
  8
0
 10
4201.4821629517291512
 20
247.3729629606717992
 30
0.0
 40
0.0861460200928725
 50
239.2603927327903932
 51
318.1330262593244242
  0
LINE
  5
10F3F
  8
0
 10
4201.514988581243415
 20
247.4026538982244006
 30
0.0
 11
4201.5143234123861475
 21
247.3873982444862065
 31
0.0
  0
LINE
  5
10F40
  8
0
 10
4201.5143234123861475
 20
247.3873982444862065
 30
0.0
 11
4201.5149062442251306
 21
247.3873728321640044
 31
0.0
  0
LINE
  5
10F41
  8
0
 10
4201.5263213263760917
 20
247.391446756277702
 30
0.0
 11
4201.5265680747106671
 21
247.3971059315647096
 31
0.0
  0
LINE
  5
10F42
  8
0
 10
4201.5144651106265883
 20
247.3906480949345905
 30
0.0
 11
4201.5234487414218165
 21
247.3902876601291894
 31
0.0
  0
ARC
  5
10F43
  8
0
 10
4201.4920044315113046
 20
247.3144988319932907
 30
0.0
 40
0.1543587703279466
 50
73.7145832834983281
 51
116.344050581899495
  0
ARC
  5
10F44
  8
0
 10
4201.5095336725671586
 20
247.3566542400857031
 30
0.0
 40
0.1094744174937099
 50
23.4853737264707085
 51
47.9863839467336888
  0
ARC
  5
10F45
  8
0
 10
4201.4910121592656651
 20
247.3663474845822918
 30
0.0
 40
0.1263078381086365
 50
267.3615683089225854
 51
338.6198042803438852
  0
ARC
  5
10F46
  8
0
 10
4201.4863030484129922
 20
247.3137592453848868
 30
0.0
 40
0.1394826292414632
 50
34.7690717381249712
 51
52.7722953136895896
  0
ARC
  5
10F47
  8
0
 10
4201.4863030484129922
 20
247.3137592453848868
 30
0.0
 40
0.1394826292414632
 50
72.7818969238586817
 51
96.2949502175378313
  0
ARC
  5
10F48
  8
0
 10
4201.5254307945806431
 20
247.3483850718677104
 30
0.0
 40
0.0878090318827962
 50
341.3475131349467233
 51
30.7658038953895385
  0
ARC
  5
10F49
  8
0
 10
4201.4834088828074528
 20
247.493657445030891
 30
0.0
 40
0.1108535191527658
 50
244.7116774918438011
 51
295.8382182055652265
  0
ARC
  5
10F4A
  8
0
 10
4201.5094956356779221
 20
247.3727051694000068
 30
0.0
 40
0.1041604826816417
 50
352.1011715471295815
 51
15.3519700137548796
  0
ARC
  5
10F4B
  8
0
 10
4200.7912836613413674
 20
248.0097297927017053
 30
0.0
 40
0.130703324101895
 50
103.712383519371599
 51
134.5657717589384959
  0
ARC
  5
10F4C
  8
0
 10
4200.7882438500691933
 20
248.0185732329503878
 30
0.0
 40
0.1223364621448919
 50
136.458226826323795
 51
195.9317628418260995
  0
ARC
  5
10F4D
  8
0
 10
4200.791001435315593
 20
248.0269753934973949
 30
0.0
 40
0.1275048909499564
 50
199.2240194827614062
 51
273.8259164365512106
  0
ARC
  5
10F4E
  8
0
 10
4200.7985364157557342
 20
247.9831684189647945
 30
0.0
 40
0.0848405799080838
 50
54.4928582906643229
 51
143.0944207783473132
  0
ARC
  5
10F4F
  8
0
 10
4200.7777189214521059
 20
248.0067050407187139
 30
0.0
 40
0.0544287955920015
 50
149.7619735020828955
 51
242.3282828798307094
  0
ARC
  5
10F50
  8
0
 10
4200.7914550203840918
 20
247.978707075246291
 30
0.0
 40
0.1334160261539252
 50
92.6353507398124236
 51
145.40808669041499
  0
ARC
  5
10F51
  8
0
 10
4200.756133156271062
 20
248.0070285378450023
 30
0.0
 40
0.0883198510084538
 50
147.5244021224260109
 51
194.4478751759291129
  0
LINE
  5
10F52
  8
0
 10
4200.793770495723038
 20
248.0663643575479966
 30
0.0
 11
4200.8055815193229137
 21
248.0663643575479966
 31
0.0
  0
LINE
  5
10F53
  8
0
 10
4200.8055815193229137
 20
248.0663643575479966
 30
0.0
 11
4200.8055815193229137
 21
248.0474418832488084
 31
0.0
  0
LINE
  5
10F54
  8
0
 10
4200.8055815193229137
 20
248.0474418832488084
 30
0.0
 11
4200.793770495723038
 21
248.0474418832488084
 31
0.0
  0
LINE
  5
10F55
  8
0
 10
4200.793770495723038
 20
248.0474418832488084
 30
0.0
 11
4200.793770495723038
 21
248.0663643575479966
 31
0.0
  0
LINE
  5
10F56
  8
0
 10
4200.793770495723038
 20
248.0506974425487101
 30
0.0
 11
4200.8055815193229137
 21
248.0506974425487101
 31
0.0
  0
LINE
  5
10F57
  8
0
 10
4200.7700109796905963
 20
248.0630697549763966
 30
0.0
 11
4200.7707125443730547
 21
248.0469793626560033
 31
0.0
  0
LINE
  5
10F58
  8
0
 10
4200.7707125443730547
 20
248.0469793626560033
 30
0.0
 11
4200.7667278346971216
 21
248.0468056234755068
 31
0.0
  0
LINE
  5
10F59
  8
0
 10
4200.7587835044532767
 20
248.0494482470055004
 30
0.0
 11
4200.7584140304788889
 21
248.0579221359217001
 31
0.0
  0
LINE
  5
10F5A
  8
0
 10
4200.770570846130795
 20
248.050229213104501
 30
0.0
 11
4200.758770096788794
 21
248.0497557518849021
 31
0.0
  0
ARC
  5
10F5B
  8
0
 10
4200.8201905738169444
 20
248.0079911976058042
 30
0.0
 40
0.0521558269382968
 50
320.8322349223010974
 51
58.0216964982182688
  0
ARC
  5
10F5C
  8
0
 10
4200.7964743551201536
 20
248.032544078841596
 30
0.0
 40
0.0861460200928725
 50
239.2603927327903932
 51
318.1330262593244242
  0
LINE
  5
10F5D
  8
0
 10
4200.8292999846325984
 20
248.0622350163943111
 30
0.0
 11
4200.8286348157771499
 21
248.0469793626560033
 31
0.0
  0
LINE
  5
10F5E
  8
0
 10
4200.8286348157771499
 20
248.0469793626560033
 30
0.0
 11
4200.8292176476152235
 21
248.0469539503338012
 31
0.0
  0
LINE
  5
10F5F
  8
0
 10
4200.8406327297670941
 20
248.0510278744476125
 30
0.0
 11
4200.8408794781016695
 21
248.0566870497347054
 31
0.0
  0
LINE
  5
10F60
  8
0
 10
4200.8287765140175907
 20
248.050229213104501
 30
0.0
 11
4200.8377601448128189
 21
248.0498687782990999
 31
0.0
  0
ARC
  5
10F61
  8
0
 10
4200.7961769563007692
 20
247.9986519637807021
 30
0.0
 40
0.1426412300644728
 50
49.9045139838614489
 51
82.9914902561729662
  0
ARC
  5
10F62
  8
0
 10
4200.7961769563007692
 20
247.9986519637807021
 30
0.0
 40
0.1426412300644728
 50
102.3093284487469958
 51
104.5671236886633011
  0
ARC
  5
10F63
  8
0
 10
4200.8068943461421441
 20
248.0160887651285009
 30
0.0
 40
0.1224374295850651
 50
348.3456831360958859
 51
1.202116886173862
  0
ARC
  5
10F64
  8
0
 10
4200.7968615812133066
 20
248.0071650622118113
 30
0.0
 40
0.1357786026545747
 50
27.9521368331675788
 51
47.8113443842231973
  0
ARC
  5
10F65
  8
0
 10
4200.8053235626566675
 20
248.0259286027520886
 30
0.0
 40
0.1263078381086331
 50
267.3615683089225854
 51
344.114246313677711
  0
ARC
  5
10F66
  8
0
 10
4200.8006144518049041
 20
247.9733403635547972
 30
0.0
 40
0.1394826292414632
 50
34.7690717381249712
 51
96.2949502175378313
  0
ARC
  5
10F67
  8
0
 10
4200.839742197970736
 20
248.0079661900375072
 30
0.0
 40
0.0878090318827962
 50
341.3475131349467233
 51
30.7658038953895385
  0
ARC
  5
10F68
  8
0
 10
4200.7977202861966362
 20
248.1532385632008015
 30
0.0
 40
0.1108535191527658
 50
244.7116774918438011
 51
295.8382182055652265
  0
ARC
  5
10F69
  8
0
 10
4200.8367161766082063
 20
248.0240319870906092
 30
0.0
 40
0.0927445112250111
 50
356.6778367491558015
 51
30.2892170359860202
  0
ARC
  5
10F6A
  8
0
 10
4200.972928953765404
 20
247.5693821274687991
 30
0.0
 40
0.1242958197517654
 50
97.3492813364375564
 51
113.6824934385227976
  0
ARC
  5
10F6B
  8
0
 10
4200.9731607796284152
 20
247.5876268419432051
 30
0.0
 40
0.1129061955496501
 50
144.1792678945593025
 51
197.2061306278613984
  0
ARC
  5
10F6C
  8
0
 10
4200.9857025238970891
 20
247.5962106120693988
 30
0.0
 40
0.1275048909499564
 50
199.2240194827614062
 51
273.8259164365512106
  0
ARC
  5
10F6D
  8
0
 10
4200.9932375043363209
 20
247.5524036375367984
 30
0.0
 40
0.0848405799080838
 50
54.4928582906643229
 51
143.0944207783473132
  0
ARC
  5
10F6E
  8
0
 10
4200.9724200100326925
 20
247.5759402592906042
 30
0.0
 40
0.0544287955920015
 50
149.7619735020828955
 51
242.3282828798307094
  0
ARC
  5
10F6F
  8
0
 10
4200.9861561089646784
 20
247.5479422938184086
 30
0.0
 40
0.1334160261539252
 50
92.6353507398124236
 51
145.40808669041499
  0
ARC
  5
10F70
  8
0
 10
4200.9508342448516487
 20
247.5762637564172053
 30
0.0
 40
0.0883198510084538
 50
147.5244021224260109
 51
194.4478751759291129
  0
LINE
  5
10F71
  8
0
 10
4200.9884715843027152
 20
247.6355995761200006
 30
0.0
 11
4201.0002826079025908
 21
247.6355995761200006
 31
0.0
  0
LINE
  5
10F72
  8
0
 10
4201.0002826079025908
 20
247.6355995761200006
 30
0.0
 11
4201.0002826079025908
 21
247.6166771018208124
 31
0.0
  0
LINE
  5
10F73
  8
0
 10
4201.0002826079025908
 20
247.6166771018208124
 30
0.0
 11
4200.9884715843027152
 21
247.6166771018208124
 31
0.0
  0
LINE
  5
10F74
  8
0
 10
4200.9884715843027152
 20
247.6166771018208124
 30
0.0
 11
4200.9884715843027152
 21
247.6355995761200006
 31
0.0
  0
LINE
  5
10F75
  8
0
 10
4200.9884715843027152
 20
247.6199326611207141
 30
0.0
 11
4201.0002826079025908
 21
247.6199326611207141
 31
0.0
  0
LINE
  5
10F76
  8
0
 10
4200.9647120682720924
 20
247.6323049735484005
 30
0.0
 11
4200.9654136329518224
 21
247.6162145812280073
 31
0.0
  0
LINE
  5
10F77
  8
0
 10
4200.9654136329518224
 20
247.6162145812280073
 30
0.0
 11
4200.9614289232777082
 21
247.6160408420477097
 31
0.0
  0
LINE
  5
10F78
  8
0
 10
4200.9534845930338633
 20
247.6186834655775897
 30
0.0
 11
4200.9531151190612945
 21
247.6271573544937894
 31
0.0
  0
LINE
  5
10F79
  8
0
 10
4200.9652719347122911
 20
247.6194644316765903
 30
0.0
 11
4200.9534711853702902
 21
247.6189909704569061
 31
0.0
  0
ARC
  5
10F7A
  8
0
 10
4201.0148916623984405
 20
247.5772264161778935
 30
0.0
 40
0.0521558269382968
 50
320.8322349223010974
 51
58.0216964982182688
  0
ARC
  5
10F7B
  8
0
 10
4200.9911754436989213
 20
247.6017792974137137
 30
0.0
 40
0.0861460200928725
 50
239.2603927327903932
 51
318.1330262593244242
  0
LINE
  5
10F7C
  8
0
 10
4201.024001073213185
 20
247.6314702349662014
 30
0.0
 11
4201.0233359043559176
 21
247.6162145812280073
 31
0.0
  0
LINE
  5
10F7D
  8
0
 10
4201.0233359043559176
 20
247.6162145812280073
 30
0.0
 11
4201.0239187361958102
 21
247.6161891689058905
 31
0.0
  0
LINE
  5
10F7E
  8
0
 10
4201.0353338183485903
 20
247.6202630930195028
 30
0.0
 11
4201.0355805666831657
 21
247.6259222683065104
 31
0.0
  0
LINE
  5
10F7F
  8
0
 10
4201.0234776025990868
 20
247.6194644316765903
 30
0.0
 11
4201.0324612333934056
 21
247.6191039968711038
 31
0.0
  0
ARC
  5
10F80
  8
0
 10
4200.982482765529312
 20
247.5295648980689975
 30
0.0
 40
0.1650662182324084
 50
53.0666727371573828
 51
98.8704853413859155
  0
ARC
  5
10F81
  8
0
 10
4201.0015954347227307
 20
247.5853239837003912
 30
0.0
 40
0.1224374295850651
 50
348.3456831360958859
 51
1.202116886173862
  0
ARC
  5
10F82
  8
0
 10
4201.0077469648731494
 20
247.5657904971261019
 30
0.0
 40
0.1209391618793003
 50
37.7111409403157296
 51
52.3214966454573727
  0
ARC
  5
10F83
  8
0
 10
4201.0000246512381636
 20
247.5951638213240926
 30
0.0
 40
0.1263078381086331
 50
267.3615683089225854
 51
344.114246313677711
  0
ARC
  5
10F84
  8
0
 10
4200.9953155403836718
 20
247.5425755821266876
 30
0.0
 40
0.1394826292414632
 50
34.7690717381249712
 51
96.2949502175378313
  0
ARC
  5
10F85
  8
0
 10
4201.0344432865522322
 20
247.5772014086095965
 30
0.0
 40
0.0878090318827962
 50
341.3475131349467233
 51
30.7658038953895385
  0
ARC
  5
10F86
  8
0
 10
4200.9924213747781323
 20
247.7224737817728908
 30
0.0
 40
0.1108535191527658
 50
244.7116774918438011
 51
295.8382182055652265
  0
ARC
  5
10F87
  8
0
 10
4201.0154107394382663
 20
247.5748232019022907
 30
0.0
 40
0.1093788043970852
 50
6.8625471151134301
 51
36.4234453626214716
  0
ARC
  5
10F88
  8
0
 10
4203.3906922782389302
 20
247.322201147434896
 30
0.0
 40
1.113430482194899
 50
143.8173718047451075
 51
149.5314704031970905
  0
ARC
  5
10F89
  8
0
 10
4203.3984323007562125
 20
247.3284153361923074
 30
0.0
 40
1.073665967990074
 50
143.8594141927021042
 51
149.3734895928986077
  0
ARC
  5
10F8A
  8
0
 10
4202.4174818032597614
 20
247.7463427275098979
 30
0.0
 40
0.1410908922486604
 50
66.1478434205266268
 51
84.4946586063259844
  0
ARC
  5
10F8B
  8
0
 10
4202.6892436135922253
 20
247.8925030383720127
 30
0.0
 40
0.258289104757131
 50
178.7323945450220037
 51
181.2690124339459885
  0
ARC
  5
10F8C
  8
0
 10
4203.34781563829074
 20
247.3629447728937123
 30
0.0
 40
1.0616189100887381
 50
144.1503024874807011
 51
149.7214950292585058
  0
ARC
  5
10F8D
  8
0
 10
4203.1140500961091675
 20
247.4554104419819112
 30
0.0
 40
0.760770608075792
 50
163.5378202990416128
 51
169.5509450242848004
  0
ARC
  5
10F8E
  8
0
 10
4202.3570201789234488
 20
247.5423129792075088
 30
0.0
 40
0.0518372001443515
 50
353.4042187562126855
 51
80.1413060130680606
  0
LINE
  5
10F8F
  8
0
 10
4202.4085142803478448
 20
247.5363587506890042
 30
0.0
 11
4202.4195215995514445
 21
247.5300782554876946
 31
0.0
  0
ARC
  5
10F90
  8
0
 10
4203.1015788430131579
 20
247.4505871985932117
 30
0.0
 40
0.7957506902487951
 50
162.9759443258288911
 51
169.5893452270836974
  0
ARC
  5
10F91
  8
0
 10
4202.3289067746436558
 20
247.5248058461878031
 30
0.0
 40
0.0702871044143827
 50
98.1620403362949929
 51
169.8184917430702114
  0
ARC
  5
10F92
  8
0
 10
4202.3383099476413918
 20
247.5262766332139961
 30
0.0
 40
0.0512395966307642
 50
69.9691063176022823
 51
147.5098525420877991
  0
ARC
  5
10F93
  8
0
 10
4202.3468542599794091
 20
247.5448543006120872
 30
0.0
 40
0.030903908982745
 50
304.9724894392115857
 51
73.0558405621235636
  0
ARC
  5
10F94
  8
0
 10
4202.3313426433924178
 20
247.5966203775689962
 30
0.0
 40
0.0500633402710445
 50
229.2193219000554052
 51
320.9483999121104034
  0
ARC
  5
10F95
  8
0
 10
4202.3306722453417024
 20
247.5586564364689934
 30
0.0
 40
0.0517660942788632
 50
248.1701818141409035
 51
310.903275635581906
  0
ARC
  5
10F96
  8
0
 10
4202.3209602060387624
 20
247.5388949046418077
 30
0.0
 40
0.0298567706583196
 50
150.0511146084812992
 51
251.371368619781407
  0
ARC
  5
10F97
  8
0
 10
4202.355598808609102
 20
247.5503657862965952
 30
0.0
 40
0.0551029966520873
 50
356.326440368106887
 51
77.0526430659395487
  0
ARC
  5
10F98
  8
0
 10
4202.319283640451431
 20
247.543462576242888
 30
0.0
 40
0.0597404898895609
 50
90.2440860764894239
 51
183.0425690954996014
  0
ARC
  5
10F99
  8
0
 10
4203.0996309129886868
 20
247.4626654329551059
 30
0.0
 40
0.7937574796586566
 50
163.7257960657385922
 51
169.5374903989799122
  0
LINE
  5
10F9A
  8
0
 10
4202.4105885846829551
 20
247.5468352385674962
 30
0.0
 11
4202.4195215995841863
 21
247.5417393880676968
 31
0.0
  0
ARC
  5
10F9B
  8
0
 10
4201.6697659074279727
 20
248.2853819394728987
 30
0.0
 40
1.0655872211830371
 50
279.1226010700817142
 51
311.0038301531805018
  0
LINE
  5
10F9C
  8
0
 10
4202.3689077838862431
 20
247.481219790070412
 30
0.0
 11
4202.3579010827870661
 21
247.4874999333702021
 31
0.0
  0
ARC
  5
10F9D
  8
0
 10
4202.3283991090547715
 20
247.5628609467466958
 30
0.0
 40
0.0809299004765882
 50
226.8804495087678106
 51
291.3791149406970931
  0
LINE
  5
10F9E
  8
0
 10
4202.4085142803478448
 20
247.5363587506890042
 30
0.0
 11
4202.4105885846829551
 21
247.5468352385674962
 31
0.0
  0
LINE
  5
10F9F
  8
0
 10
4202.3189278926884072
 20
247.5943809779654998
 30
0.0
 11
4202.3190704932867447
 21
247.6068055304648965
 31
0.0
  0
ARC
  5
10FA0
  8
0
 10
4201.6843454864456362
 20
248.2795465879993912
 30
0.0
 40
1.0432290092821661
 50
278.7981137176349762
 51
310.4476299972438937
  0
ARC
  5
10FA1
  8
0
 10
4202.7773728634620056
 20
245.8329376813186116
 30
0.0
 40
1.7811712614000981
 50
106.8951578270755931
 51
110.8863616359750068
  0
ARC
  5
10FA2
  8
0
 10
4202.7691410575816917
 20
245.869492580916301
 30
0.0
 40
1.707921534944268
 50
106.8846736147034022
 51
110.7598544487258039
  0
ARC
  5
10FA3
  8
0
 10
4202.0846473071796936
 20
247.433842057534207
 30
0.0
 40
0.0856029480801869
 50
22.4457911794006293
 51
47.6109537709629933
  0
ARC
  5
10FA4
  8
0
 10
4202.2045646003953152
 20
247.5028888184195068
 30
0.0
 40
0.0624789342236388
 50
174.6534365863639948
 51
185.3465634139049882
  0
ARC
  5
10FA5
  8
0
 10
4202.7795013387076324
 20
245.83863414421279
 30
0.0
 40
1.7874863965595109
 50
106.9028146687608967
 51
110.8821428428176006
  0
ARC
  5
10FA6
  8
0
 10
4201.2432729828333322
 20
245.6077563214446968
 30
0.0
 40
1.7796779401299401
 50
74.1006133691304711
 51
78.0016183434399437
  0
ARC
  5
10FA7
  8
0
 10
4201.7881693434510453
 20
247.2417548205534956
 30
0.0
 40
0.0964928643280166
 50
69.7830418942365469
 51
126.4699799517598962
  0
LINE
  5
10FA8
  8
0
 10
4201.821514957108775
 20
247.3323028349769004
 30
0.0
 11
4201.9181238696737637
 21
247.3930199648490884
 31
0.0
  0
ARC
  5
10FA9
  8
0
 10
4201.2466990647353668
 20
245.6571534501462963
 30
0.0
 40
1.6954607901298291
 50
74.074852470914152
 51
77.7648387080035519
  0
ARC
  5
10FAA
  8
0
 10
4201.7839987271172504
 20
247.2906555468316014
 30
0.0
 40
0.0721640220098707
 50
182.4711435075037116
 51
251.5563779063928109
  0
ARC
  5
10FAB
  8
0
 10
4201.7898319602818447
 20
247.2678617637502896
 30
0.0
 40
0.0512395966307642
 50
69.9691063176022823
 51
147.5098525420877991
  0
ARC
  5
10FAC
  8
0
 10
4201.7983762726207715
 20
247.2864394311484944
 30
0.0
 40
0.030903908982745
 50
304.9724894392115857
 51
73.0558405621235636
  0
ARC
  5
10FAD
  8
0
 10
4201.7828646560337802
 20
247.3382055081052044
 30
0.0
 40
0.0500633402710445
 50
229.2193219000554052
 51
320.9483999121104034
  0
ARC
  5
10FAE
  8
0
 10
4201.7821942579839742
 20
247.3002415670054006
 30
0.0
 40
0.0517660942788632
 50
248.1701818141409035
 51
310.903275635581906
  0
ARC
  5
10FAF
  8
0
 10
4201.7724822186810343
 20
247.2804800351781864
 30
0.0
 40
0.0298567706583196
 50
150.0511146084812992
 51
251.371368619781407
  0
ARC
  5
10FB0
  8
0
 10
4201.7878158617259032
 20
247.2500580921044104
 30
0.0
 40
0.0997583589249853
 50
70.2566648429241525
 51
125.5109303011096955
  0
ARC
  5
10FB1
  8
0
 10
4201.2455093683511222
 20
245.6283231463474976
 30
0.0
 40
1.770481824937912
 50
74.1228393554094396
 51
78.0232469618885887
  0
LINE
  5
10FB2
  8
0
 10
4201.821514957108775
 20
247.3439521874763045
 30
0.0
 11
4201.914094589819797
 21
247.4026671421135006
 31
0.0
  0
ARC
  5
10FB3
  8
0
 10
4201.8150848725217656
 20
247.2840555476541908
 30
0.0
 40
0.0457005436275551
 50
297.5423574629509744
 51
31.3803450027146411
  0
LINE
  5
10FB4
  8
0
 10
4201.8362169973861455
 20
247.2435342817977926
 30
0.0
 11
4201.8387121541099987
 21
247.2332729661812039
 31
0.0
  0
LINE
  5
10FB5
  8
0
 10
4201.821514957108775
 20
247.3323028349769004
 30
0.0
 11
4201.821514957108775
 21
247.3439521874763045
 31
0.0
  0
LINE
  5
10FB6
  8
0
 10
4201.7308138377065916
 20
247.3193513335355078
 30
0.0
 11
4201.7298703955630117
 21
247.331261867426889
 31
0.0
  0
ARC
  5
10FB7
  8
0
 10
4201.6254931574567308
 20
248.4258935349236879
 30
0.0
 40
1.2113175261553339
 50
247.3111831630693018
 51
276.4309707837750807
  0
ARC
  5
10FB8
  8
0
 10
4201.6262131951789343
 20
248.4501074089330928
 30
0.0
 40
1.2236823155643921
 50
247.861578403909391
 51
275.4328334459739267
  0
ARC
  5
10FB9
  8
0
 10
4200.2976008389896379
 20
246.8325837164227892
 30
0.0
 40
1.041912238450031
 50
34.8409747185372325
 51
40.3898847312442015
  0
ARC
  5
10FBA
  8
0
 10
4201.1616482777299098
 20
247.3429488915805052
 30
0.0
 40
0.0853460823087755
 50
33.8807050887216405
 51
95.9908199466869831
  0
LINE
  5
10FBB
  8
0
 10
4201.2325026007356428
 20
247.3905263933743868
 30
0.0
 11
4201.358261341598336
 21
247.3861444486360881
 31
0.0
  0
ARC
  5
10FBC
  8
0
 10
4201.7374064414807435
 20
247.9260328146955885
 30
0.0
 40
0.8170337520659906
 50
213.0590694287016049
 51
219.2319681086721914
  0
ARC
  5
10FBD
  8
0
 10
4201.1325788373269461
 20
247.3753517916202895
 30
0.0
 40
0.0440234778061029
 50
129.563458865706707
 51
216.6306560880179006
  0
ARC
  5
10FBE
  8
0
 10
4201.1674407956061259
 20
247.3607451439173985
 30
0.0
 40
0.0512395966307642
 50
69.9691063176022823
 51
147.5098525420877991
  0
ARC
  5
10FBF
  8
0
 10
4201.1759851079450527
 20
247.3793228113156033
 30
0.0
 40
0.030903908982745
 50
304.9724894392115857
 51
73.0558405621235636
  0
ARC
  5
10FC0
  8
0
 10
4201.1604734913571519
 20
247.4310888882723134
 30
0.0
 40
0.0500633402710445
 50
229.2193219000554052
 51
320.9483999121104034
  0
ARC
  5
10FC1
  8
0
 10
4201.159803093307346
 20
247.3931249471723959
 30
0.0
 40
0.0517660942788632
 50
248.1701818141409035
 51
310.903275635581906
  0
ARC
  5
10FC2
  8
0
 10
4201.150091054004406
 20
247.3733634153452954
 30
0.0
 40
0.0298567706583196
 50
150.0511146084812992
 51
251.371368619781407
  0
ARC
  5
10FC3
  8
0
 10
4201.1616980971075463
 20
247.354701288692695
 30
0.0
 40
0.0852472979577006
 50
33.8418736886741911
 51
96.0314571225282236
  0
ARC
  5
10FC4
  8
0
 10
4201.1484144884170746
 20
247.3779310869464041
 30
0.0
 40
0.0597404898895609
 50
142.9134842307229007
 51
183.0425690954996014
  0
ARC
  5
10FC5
  8
0
 10
4200.299559537944333
 20
246.8456510431120989
 30
0.0
 40
1.039493690433825
 50
34.8384370072517697
 51
39.965918857761352
  0
LINE
  5
10FC6
  8
0
 10
4201.2325026007356428
 20
247.4021757457736896
 30
0.0
 11
4201.3626652322591326
 21
247.3966847337322008
 31
0.0
  0
LINE
  5
10FC7
  8
0
 10
4201.3525427649210542
 20
247.3512738427197064
 30
0.0
 11
4201.235459175334654
 21
247.3555974848758012
 31
0.0
  0
ARC
  5
10FC8
  8
0
 10
4201.1704817619365713
 20
247.3899309257159871
 30
0.0
 40
0.0734904715722484
 50
265.7196787199044934
 51
332.1484574741216989
  0
LINE
  5
10FC9
  8
0
 10
4201.2325026007356428
 20
247.3905263933743868
 30
0.0
 11
4201.2325026007356428
 21
247.4021757457736896
 31
0.0
  0
LINE
  5
10FCA
  8
0
 10
4201.152740782438741
 20
247.4278288673880866
 30
0.0
 11
4201.152740782438741
 21
247.4394766879721885
 31
0.0
  0
ARC
  5
10FCB
  8
0
 10
4201.4441972227687074
 20
248.0949262820304
 30
0.0
 40
0.8230405765056104
 50
206.8751056276815916
 51
244.519697148449211
  0
ARC
  5
10FCC
  8
0
 10
419493.5035779353929684
 20
-335797.869552600022871
 30
0.0
 40
534222.9606847475515679
 50
141.0209991507906864
 51
141.0210003756828883
  0
ARC
  5
10FCD
  8
0
 10
4201.052110745948994
 20
247.401098369563897
 30
0.0
 40
0.140980635583943
 50
318.8431158462626058
 51
323.1988782532642972
  0
ARC
  5
10FCE
  8
0
 10
4201.4896753934108347
 20
248.1479188443568091
 30
0.0
 40
0.9011584835891049
 50
208.3431151975921125
 51
243.6764462934451103
  0
ARC
  5
10FCF
  8
0
 10
4200.814642626442037
 20
247.3460372655264052
 30
0.0
 40
0.2754850366886981
 50
358.7872597801716097
 51
1.2127402197925821
  0
ARC
  5
10FD0
  8
0
 10
4714.9426207703272667
 20
-168.5084184087035055
 30
0.0
 40
661.0478241112431306
 50
141.0164021629377089
 51
141.0167930152364875
  0
ARC
  5
10FD1
  8
0
 10
4200.089710432686843
 20
248.0060106096470065
 30
0.0
 40
0.7324704506654168
 50
344.6336220796883936
 51
351.6745296961951794
  0
ARC
  5
10FD2
  8
0
 10
4200.7729193281220432
 20
247.7594144439929096
 30
0.0
 40
0.0573465518460905
 50
342.120418893110525
 51
66.2714069222828215
  0
LINE
  5
10FD3
  8
0
 10
4200.8274962639188743
 20
247.741808050616612
 30
0.0
 11
4200.9232070773869054
 21
247.6722534698905918
 31
0.0
  0
ARC
  5
10FD4
  8
0
 10
4200.0780593086947192
 20
248.0081715403082114
 30
0.0
 40
0.6967091431077792
 50
344.6878538940932231
 51
351.2200920258250108
  0
ARC
  5
10FD5
  8
0
 10
4200.7441410995579645
 20
247.7589220015950957
 30
0.0
 40
0.065530025539666
 50
84.8385951459125209
 51
158.6234012087330996
  0
ARC
  5
10FD6
  8
0
 10
4200.7579517691729052
 20
247.7528830969854141
 30
0.0
 40
0.0512395966307642
 50
69.9691063176022823
 51
147.5098525420877991
  0
ARC
  5
10FD7
  8
0
 10
4200.7664960815109225
 20
247.7714607643837041
 30
0.0
 40
0.030903908982745
 50
304.9724894392115857
 51
73.0558405621235636
  0
ARC
  5
10FD8
  8
0
 10
4200.7509844649239312
 20
247.8232268413403006
 30
0.0
 40
0.0500633402710445
 50
229.2193219000554052
 51
320.9483999121104034
  0
ARC
  5
10FD9
  8
0
 10
4200.7503140668741253
 20
247.7852629002404967
 30
0.0
 40
0.0517660942788632
 50
248.1701818141409035
 51
310.903275635581906
  0
ARC
  5
10FDA
  8
0
 10
4200.7406020275702758
 20
247.7655013684133962
 30
0.0
 40
0.0298567706583196
 50
150.0511146084812992
 51
251.371368619781407
  0
ARC
  5
10FDB
  8
0
 10
4200.7681803631412549
 20
247.7658772912865004
 30
0.0
 40
0.06384953912219
 50
346.9695163369650004
 51
61.4499159510975872
  0
ARC
  5
10FDC
  8
0
 10
4200.745862976645185
 20
247.7672534663797137
 30
0.0
 40
0.0683912837179161
 50
86.5598197887895964
 51
156.5522289525551116
  0
ARC
  5
10FDD
  8
0
 10
4199.7837719438120985
 20
248.0859361480875975
 30
0.0
 40
0.9981183139413758
 50
345.463289606349008
 51
349.3914925674429242
  0
LINE
  5
10FDE
  8
0
 10
4200.8303857922001043
 20
247.7514811723110881
 30
0.0
 11
4200.9230033029452898
 21
247.6832104200767901
 31
0.0
  0
ARC
  5
10FDF
  8
0
 10
4200.9440336193938492
 20
247.6025668698057132
 30
0.0
 40
0.0727321598979698
 50
106.6393049737413037
 51
140.5653036174448118
  0
LINE
  5
10FE0
  8
0
 10
4200.8878590040249037
 20
247.648766216896405
 30
0.0
 11
4200.7994401697542344
 21
247.7142790223601025
 31
0.0
  0
ARC
  5
10FE1
  8
0
 10
4200.7625725871939721
 20
247.7999931034034091
 30
0.0
 40
0.0933066039079999
 50
235.7431480613709027
 51
293.2736436735710868
  0
LINE
  5
10FE2
  8
0
 10
4200.7500362933442375
 20
247.8241863175531989
 30
0.0
 11
4200.7499375150173364
 21
247.8354081902780877
 31
0.0
  0
ARC
  5
10FE3
  8
0
 10
4164.3268217662316601
 20
424.342729956858193
 30
0.0
 40
180.2642132960403103
 50
281.6310348959124212
 51
281.6354163282034051
  0
ARC
  5
10FE4
  8
0
 10
4200.7518957371748911
 20
247.4854319011325003
 30
0.0
 40
0.2411003811857313
 50
99.9949681909609467
 51
103.2714766129017931
  0
ARC
  5
10FE5
  8
0
 10
4201.2923692130152631
 20
248.0279711471185067
 30
0.0
 40
0.6702951490026372
 50
158.2889924700776021
 51
201.7095578985920952
  0
ARC
  5
10FE6
  8
0
 10
4196.9622258008503195
 20
247.7857667910803059
 30
0.0
 40
3.707396151072742
 50
359.9113070038970932
 51
0.0886932552017004
  0
ARC
  5
10FE7
  8
0
 10
4201.3237786369845708
 20
248.0492740771539957
 30
0.0
 40
0.7031153999244154
 50
184.789770133030288
 51
201.5066233344203965
  0
ARC
  5
10FE8
  8
0
 10
4328.7699126656571025
 20
582.0415802147988416
 30
0.0
 40
357.4385117699656007
 50
249.0036312582521134
 51
249.0059494247780094
  0
ARC
  5
10FE9
  8
0
 10
4200.7508446334113614
 20
248.254162477724293
 30
0.0
 40
0.0867121180510642
 50
55.9092771570723102
 51
118.0589720205562969
  0
LINE
  5
10FEA
  8
0
 10
4200.7994472013542691
 20
248.325973213733505
 30
0.0
 11
4200.8791929478884413
 21
248.3777911519003112
 31
0.0
  0
ARC
  5
10FEB
  8
0
 10
4200.7035647124275783
 20
248.344188598395391
 30
0.0
 40
0.0762311538289668
 50
243.5614980287919025
 51
254.4480757967805005
  0
ARC
  5
10FEC
  8
0
 10
4200.7587381125740649
 20
248.2949950383298869
 30
0.0
 40
0.0794043475781675
 50
197.7795944634275997
 51
263.7269787663196894
  0
ARC
  5
10FED
  8
0
 10
4200.7636172996953974
 20
248.2616245768639089
 30
0.0
 40
0.0512395966307642
 50
69.9691063176022823
 51
147.5098525420877991
  0
ARC
  5
10FEE
  8
0
 10
4200.7721616120343242
 20
248.280202244262199
 30
0.0
 40
0.030903908982745
 50
304.9724894392115857
 51
73.0558405621235636
  0
ARC
  5
10FEF
  8
0
 10
4200.7566499954464234
 20
248.3319683212187101
 30
0.0
 40
0.0500633402710445
 50
229.2193219000554052
 51
320.9483999121104034
  0
ARC
  5
10FF0
  8
0
 10
4200.755979597395708
 20
248.2940043801189915
 30
0.0
 40
0.0517660942788632
 50
248.1701818141409035
 51
310.903275635581906
  0
ARC
  5
10FF1
  8
0
 10
4200.7462675580936775
 20
248.2742428482918058
 30
0.0
 40
0.0298567706583196
 50
150.0511146084812992
 51
251.371368619781407
  0
ARC
  5
10FF2
  8
0
 10
4200.750838999942971
 20
248.2658210725398078
 30
0.0
 40
0.0867105122090246
 50
55.9040639634676992
 51
118.0553194533967059
  0
ARC
  5
10FF3
  8
0
 10
4200.7467230472957453
 20
248.4465372199263129
 30
0.0
 40
0.1104577992906449
 50
246.0156463977845078
 51
250.6130437357986125
  0
LINE
  5
10FF4
  8
0
 10
4200.7994472013542691
 20
248.3376260562328923
 30
0.0
 11
4200.873697953539704
 21
248.3852784666516129
 31
0.0
  0
LINE
  5
10FF5
  8
0
 10
4200.9137342567346423
 20
248.3474913349247117
 30
0.0
 11
4200.8275025411858223
 21
248.2918854697493884
 31
0.0
  0
ARC
  5
10FF6
  8
0
 10
4200.77594999219491
 20
248.2725582932085899
 30
0.0
 40
0.0550563807436066
 50
294.3826712337598224
 51
20.5511445688459489
  0
LINE
  5
10FF7
  8
0
 10
4200.7994472013542691
 20
248.325973213733505
 30
0.0
 11
4200.7994472013542691
 21
248.3376260562328923
 31
0.0
  0
LINE
  5
10FF8
  8
0
 10
4200.7100569792582974
 20
248.3306827932333078
 30
0.0
 11
4200.7100569792582974
 21
248.3423425709329138
 31
0.0
  0
ARC
  5
10FF9
  8
0
 10
4199.9089393518243014
 20
248.0062113706368905
 30
0.0
 40
0.8669060793093674
 50
7.4795750997907859
 51
14.00893628328798
  0
ARC
  5
10FFA
  8
0
 10
4200.1987649221637184
 20
248.0711856877445882
 30
0.0
 40
0.6186810766709528
 50
4.2924195244562373
 51
14.14839618014555
  0
ARC
  5
10FFB
  8
0
 10
4200.7869090226331537
 20
247.9620772231355943
 30
0.0
 40
0.1580610007642272
 50
79.5010049915611887
 51
96.6995317297924828
  0
ARC
  5
10FFC
  8
0
 10
4201.3122273858161861
 20
248.8377558535875949
 30
0.0
 40
0.1783909603229203
 50
210.3440947628843958
 51
214.6404500125966877
  0
ARC
  5
10FFD
  8
0
 10
4201.1625049089907407
 20
248.6590794512426896
 30
0.0
 40
0.0773310084737577
 50
19.3291397096979516
 51
87.8108451411917059
  0
LINE
  5
10FFE
  8
0
 10
4201.2354769800349459
 20
248.6846755782738967
 30
0.0
 11
4201.3504446706374438
 21
248.6822695778074888
 31
0.0
  0
ARC
  5
10FFF
  8
0
 10
4199.7852793252568517
 20
247.8768117304788916
 30
0.0
 40
1.5512322633862861
 50
32.2452745154620075
 51
32.7392668387495718
  0
ARC
  5
11000
  8
0
 10
4201.4781597413366399
 20
247.9199522058671903
 30
0.0
 40
0.8853747517859938
 50
115.9966620926018948
 51
151.981393216718601
  0
ARC
  5
11001
  8
0
 10
4201.1495823491613919
 20
248.6730028759482991
 30
0.0
 40
0.0610457226412803
 50
148.9782814755857032
 51
230.1051128337419982
  0
ARC
  5
11002
  8
0
 10
4201.1665705739542318
 20
248.6531396541543018
 30
0.0
 40
0.0512395966307642
 50
69.9691063176022823
 51
147.5098525420877991
  0
ARC
  5
11003
  8
0
 10
4201.1751148862922491
 20
248.6717173215523928
 30
0.0
 40
0.030903908982745
 50
304.9724894392115857
 51
73.0558405621235636
  0
ARC
  5
11004
  8
0
 10
4201.1596032697052578
 20
248.7234833985091882
 30
0.0
 40
0.0500633402710445
 50
229.2193219000554052
 51
320.9483999121104034
  0
ARC
  5
11005
  8
0
 10
4201.1589328716554519
 20
248.6855194574092991
 30
0.0
 40
0.0517660942788632
 50
248.1701818141409035
 51
310.903275635581906
  0
ARC
  5
11006
  8
0
 10
4201.1492208323516024
 20
248.6657579255821986
 30
0.0
 40
0.0298567706583196
 50
150.0511146084812992
 51
251.371368619781407
  0
ARC
  5
11007
  8
0
 10
4201.1625244290225965
 20
248.6707830118184859
 30
0.0
 40
0.0772865139702381
 50
19.2787574900271288
 51
87.8240657541880694
  0
ARC
  5
11008
  8
0
 10
4201.1478558933122258
 20
248.6847085115774121
 30
0.0
 40
0.0595822846099763
 50
155.0254587222732141
 51
186.9054771333557881
  0
ARC
  5
11009
  8
0
 10
4201.1980173237488998
 20
248.7701979415213884
 30
0.0
 40
0.0393978476350705
 50
210.7157414288271866
 51
214.2690742428339092
  0
LINE
  5
1100A
  8
0
 10
4201.2354769800349459
 20
248.6963002715172877
 30
0.0
 11
4201.3514366924828209
 21
248.6939748141411997
 31
0.0
  0
LINE
  5
1100B
  8
0
 10
4201.3565735463298552
 20
248.6401163811981974
 30
0.0
 11
4201.2321218152656002
 21
248.6423207977234995
 31
0.0
  0
ARC
  5
1100C
  8
0
 10
4201.1676714169116167
 20
248.6779961564733981
 30
0.0
 40
0.0736653586844167
 50
258.3203084568390864
 51
331.0340680002984755
  0
LINE
  5
1100D
  8
0
 10
4201.2354769800349459
 20
248.6846755782738967
 30
0.0
 11
4201.2354769800349459
 21
248.6963002715172877
 31
0.0
  0
LINE
  5
1100E
  8
0
 10
4201.1654588502387924
 20
248.7363540208156962
 30
0.0
 11
4201.1654588502387924
 21
248.7480137985151032
 31
0.0
  0
ARC
  5
1100F
  8
0
 10
4200.3577106097709475
 20
249.0976799449969121
 30
0.0
 40
0.8882054219613587
 50
321.229733874473709
 51
327.9364212294224785
  0
ARC
  5
11010
  8
0
 10
4200.3691818489969592
 20
249.0945036977759059
 30
0.0
 40
0.9234549323548114
 50
321.1184423367984095
 51
328.0518519713464798
  0
ARC
  5
11011
  8
0
 10
4133.8343452058743424
 20
153.077898306440801
 30
0.0
 40
116.7530270658004952
 50
54.827934430772558
 51
54.8506422213320732
  0
ARC
  5
11012
  8
0
 10
4201.2180104928766013
 20
248.5473103679813107
 30
0.0
 40
0.1678999856952466
 50
178.0121556101179863
 51
181.987843966537497
  0
ARC
  5
11013
  8
0
 10
4200.357539817579891
 20
249.1094305231275996
 30
0.0
 40
0.888402785739948
 50
321.2314760027796865
 51
327.3767044843855842
  0
LINE
  5
11014
  8
0
 10
4202.4195215995841863
 20
247.530078255468311
 30
0.0
 11
4202.4195215995841863
 21
247.5417393880676968
 31
0.0
  0
ARC
  5
11015
  8
0
 10
4201.9387174666262581
 20
248.1007031768837976
 30
0.0
 40
0.7373012487963522
 50
310.7011444911976241
 51
318.6770251455038192
  0
LINE
  5
11016
  8
0
 10
4201.8540996663286933
 20
247.3078547888900118
 30
0.0
 11
4201.9392017112559188
 21
247.3613031757722069
 31
0.0
  0
ARC
  5
11017
  8
0
 10
4202.3054941249001786
 20
246.7518637955425049
 30
0.0
 40
1.0480703690963611
 50
91.7019260284210276
 51
99.993370043355668
  0
ARC
  5
11018
  8
0
 10
4202.3054941249001786
 20
246.7518637955425049
 30
0.0
 40
1.0480703690963611
 50
108.7235637921472033
 51
112.3111025766974933
  0
ARC
  5
11019
  8
0
 10
4202.3054941249001786
 20
246.7518637955425049
 30
0.0
 40
1.0480703690963611
 50
120.1520575397186974
 51
123.4957967713253026
  0
ARC
  5
1101A
  8
0
 10
4202.3054941249001786
 20
246.7518637955425049
 30
0.0
 40
1.0480703690963611
 50
132.2118583919022967
 51
137.893279642168693
  0
ARC
  5
1101B
  8
0
 10
4202.3088326671859249
 20
246.7331652902929875
 30
0.0
 40
1.0535423129224799
 50
91.9448966788575177
 51
100.0852052816638036
  0
ARC
  5
1101C
  8
0
 10
4202.3088326671859249
 20
246.7331652902929875
 30
0.0
 40
1.0535423129224799
 50
108.7458989080137997
 51
112.203588050030902
  0
ARC
  5
1101D
  8
0
 10
4202.3088326671859249
 20
246.7331652902929875
 30
0.0
 40
1.0535423129224799
 50
120.140801895576999
 51
123.4345149959791001
  0
ARC
  5
1101E
  8
0
 10
4202.3088326671859249
 20
246.7331652902929875
 30
0.0
 40
1.0535423129224799
 50
131.6407870117029972
 51
137.9862632841656023
  0
ARC
  5
1101F
  8
0
 10
4202.3045179277041825
 20
246.7618596884335034
 30
0.0
 40
0.9889508072033647
 50
91.4889818558238659
 51
100.4375894195857057
  0
ARC
  5
11020
  8
0
 10
4202.3045179277041825
 20
246.7618596884335034
 30
0.0
 40
0.9889508072033647
 50
108.6189970200502017
 51
112.0205112389971021
  0
ARC
  5
11021
  8
0
 10
4202.3045179277041825
 20
246.7618596884335034
 30
0.0
 40
0.9889508072033647
 50
120.8867770103449999
 51
124.4286351145876068
  0
ARC
  5
11022
  8
0
 10
4202.3045179277041825
 20
246.7618596884335034
 30
0.0
 40
0.9889508072033647
 50
131.5671172441307988
 51
138.1862101568725052
  0
ARC
  5
11023
  8
0
 10
4201.5214343965990338
 20
247.3685250503924919
 30
0.0
 40
0.0699389433430785
 50
48.8706646435650498
 51
86.2019192073587845
  0
ARC
  5
11024
  8
0
 10
4201.4641251452167126
 20
247.4536599919491948
 30
0.0
 40
0.0638155684045147
 50
346.082132747564799
 51
0.8523310639517029
  0
ARC
  5
11025
  8
0
 10
4201.6942075119150104
 20
247.6159989131577959
 30
0.0
 40
0.0343336982366502
 50
353.9215488605090059
 51
16.7212370069298686
  0
ARC
  5
11026
  8
0
 10
4201.6847060218497063
 20
247.5694231252983002
 30
0.0
 40
0.0612249775562519
 50
7.6533357063362493
 51
44.5354826236594974
  0
ARC
  5
11027
  8
0
 10
4201.786299855636571
 20
247.58904137702649
 30
0.0
 40
0.1725281510126144
 50
31.2973490185507508
 51
43.859218170041693
  0
ARC
  5
11028
  8
0
 10
4201.8738799483471666
 20
247.706567727948709
 30
0.0
 40
0.0368755523246481
 50
3.13467405296156
 51
23.8389287358008097
  0
ARC
  5
11029
  8
0
 10
4202.0605641438978637
 20
247.7520823225370066
 30
0.0
 40
0.0663663327434601
 50
350.3760021680209888
 51
16.0479267356714494
  0
ARC
  5
1102A
  8
0
 10
4201.7630436207091407
 20
247.7579637623900055
 30
0.0
 40
0.3615155707578991
 50
1.9759344155471319
 51
4.135191361641942
  0
LINE
  5
1102B
  8
0
 10
4200.9232070773869054
 20
247.6722534698905918
 30
0.0
 11
4200.9230033029452898
 21
247.6832104200767901
 31
0.0
  0
LINE
  5
1102C
  8
0
 10
4200.6696175099596076
 20
247.7915057984631915
 30
0.0
 11
4200.683119227658608
 21
247.7944672432566904
 31
0.0
  0
LINE
  5
1102D
  8
0
 10
4200.683119227658608
 20
247.7944672432566904
 30
0.0
 11
4200.6831192275813009
 21
247.7828074655346882
 31
0.0
  0
ARC
  5
1102E
  8
0
 10
4200.5296717999535758
 20
247.993227369283602
 30
0.0
 40
0.6589543710563249
 50
349.2827238276390176
 51
353.4390183820959237
  0
ARC
  5
1102F
  8
0
 10
4200.5296717999535758
 20
247.993227369283602
 30
0.0
 40
0.6589543710563249
 50
5.540922224597149
 51
8.7341775222181859
  0
ARC
  5
11030
  8
0
 10
4200.5296717999535758
 20
247.993227369283602
 30
0.0
 40
0.6589543710563249
 50
22.6642782608530311
 51
33.9012207492667414
  0
ARC
  5
11031
  8
0
 10
4200.5094972871784194
 20
247.9726322839001966
 30
0.0
 40
0.6798892237380788
 50
6.0913443256116171
 51
10.1832714793746302
  0
ARC
  5
11032
  8
0
 10
4200.5094972871784194
 20
247.9726322839001114
 30
0.0
 40
0.6798892237382556
 50
22.4762698000730587
 51
34.3332508022358525
  0
ARC
  5
11033
  8
0
 10
4200.5422415602679393
 20
247.9906453715248063
 30
0.0
 40
0.5983946783300373
 50
348.1833011167655059
 51
352.880349508960478
  0
ARC
  5
11034
  8
0
 10
4200.5422415602679393
 20
247.9906453715248063
 30
0.0
 40
0.5983946783300373
 50
5.5174476264489476
 51
10.1857455834785604
  0
ARC
  5
11035
  8
0
 10
4200.5422415602679393
 20
247.9906453715248063
 30
0.0
 40
0.5983946783300373
 50
21.3923784552944802
 51
35.176604332814847
  0
ARC
  5
11036
  8
0
 10
4201.1733487746887477
 20
248.1319304967861967
 30
0.0
 40
0.1067385234004597
 50
109.487468160913707
 51
133.8453763883150884
  0
LINE
  5
11037
  8
0
 10
4201.1377407312402283
 20
248.2325544483055069
 30
0.0
 11
4201.1377407312402283
 21
248.2471427842149012
 31
0.0
  0
ARC
  5
11038
  8
0
 10
4201.1550647518397454
 20
247.953405116165186
 30
0.0
 40
0.096323486132341
 50
71.5506707561077633
 51
100.2867262351459061
  0
LINE
  5
11039
  8
0
 10
4201.1855471993376341
 20
248.0447840186309918
 30
0.0
 11
4201.1855471993376341
 21
248.0568538073266041
 31
0.0
  0
ARC
  5
1103A
  8
0
 10
4201.1579820664892395
 20
247.7657702330195093
 30
0.0
 40
0.1066494183475857
 50
79.6559545337713644
 51
106.3527441673797966
  0
ARC
  5
1103B
  8
0
 10
4201.7409660727471419
 20
248.8502141743342975
 30
0.0
 40
2.495728487619588
 50
269.200373196360772
 51
313.6408809224458878
  0
ARC
  5
1103C
  8
0
 10
4201.656373553450976
 20
248.9465994927105044
 30
0.0
 40
2.4948179637690102
 50
271.6152309536373082
 51
303.8774879988789053
  0
ARC
  5
1103D
  8
0
 10
4201.6411285669164499
 20
249.0400976383602938
 30
0.0
 40
2.6035091945888329
 50
271.4355002872380851
 51
293.6822119502681971
  0
ARC
  5
1103E
  8
0
 10
4202.3052317082929221
 20
247.1378676716722964
 30
0.0
 40
0.0163075007456071
 50
312.4321467855895094
 51
37.5996950543657888
  0
ARC
  5
1103F
  8
0
 10
4202.2981014616816537
 20
247.1454911502027869
 30
0.0
 40
0.0267453745564015
 50
217.5923314898375054
 51
312.6870406153066142
  0
ARC
  5
11040
  8
0
 10
4202.2901926528984404
 20
247.1379245271926948
 30
0.0
 40
0.0159058808922801
 50
153.7770878470593914
 51
213.370753392617587
  0
ARC
  5
11041
  8
0
 10
4202.2980971815277371
 20
247.1307708140732018
 30
0.0
 40
0.0263208626609977
 50
40.3647263624312416
 51
147.397293657207797
  0
ARC
  5
11042
  8
0
 10
4202.3041942909094359
 20
247.1576232005702991
 30
0.0
 40
0.0638081396133301
 50
297.0523826459931911
 51
345.8703988503667119
  0
ARC
  5
11043
  8
0
 10
4202.2975181502361011
 20
247.1883912984793881
 30
0.0
 40
0.0945892540343133
 50
239.1918360515417135
 51
292.1716863631202727
  0
ARC
  5
11044
  8
0
 10
4202.272728282551725
 20
247.1447906016861111
 30
0.0
 40
0.0444568211776321
 50
189.4396215744135077
 51
237.8525666187931904
  0
LINE
  5
11045
  8
0
 10
4202.2288734520161597
 20
247.1374993200518873
 30
0.0
 11
4202.224494336742282
 21
247.1576628331550864
 31
0.0
  0
ARC
  5
11046
  8
0
 10
4202.2745755177411411
 20
247.1601786398163085
 30
0.0
 40
0.0501443314175578
 50
121.4836442636237024
 51
182.8758115025869984
  0
ARC
  5
11047
  8
0
 10
4202.3122373112137211
 20
247.1125464698284873
 30
0.0
 40
0.110670766280392
 50
86.1659941621973076
 51
125.235311483244999
  0
ARC
  5
11048
  8
0
 10
4202.319314301884333
 20
247.1617922031605019
 30
0.0
 40
0.061178200499301
 50
37.9295526475489879
 51
89.6973732047843555
  0
ARC
  5
11049
  8
0
 10
4202.3365672423406068
 20
247.1812659844408984
 30
0.0
 40
0.0359154315349884
 50
351.3163852515049825
 51
30.3215266097460194
  0
LINE
  5
1104A
  8
0
 10
4202.3720709789995453
 20
247.1758435398230063
 30
0.0
 11
4202.3660719806739507
 21
247.1420466094724873
 31
0.0
  0
ARC
  5
1104B
  8
0
 10
4202.3151762111274365
 20
247.1480558418568023
 30
0.0
 40
0.0512492949379738
 50
353.2662970031043983
 51
44.9297726543049407
  0
ARC
  5
1104C
  8
0
 10
4202.2978798297663161
 20
247.1265942423436002
 30
0.0
 40
0.0787080853927483
 50
47.0987483063975674
 51
139.9811637229045118
  0
ARC
  5
1104D
  8
0
 10
4202.2808537409182463
 20
247.1468853031211097
 30
0.0
 40
0.0528208965809964
 50
144.9675257771407928
 51
190.2354999015927888
  0
ARC
  5
1104E
  8
0
 10
4202.4108286200907969
 20
246.9594232774832108
 30
0.0
 40
0.0163075007456071
 50
312.4321467855895094
 51
37.5996950543657888
  0
ARC
  5
1104F
  8
0
 10
4202.403698373478619
 20
246.9670467560135023
 30
0.0
 40
0.0267453745564015
 50
217.5923314898375054
 51
312.6870406153066142
  0
ARC
  5
11050
  8
0
 10
4202.3957895646935867
 20
246.9594801330034954
 30
0.0
 40
0.0159058808922801
 50
153.7770878470593914
 51
213.370753392617587
  0
ARC
  5
11051
  8
0
 10
4202.4036940933247024
 20
246.9523264198838888
 30
0.0
 40
0.0263208626609977
 50
40.3647263624312416
 51
147.397293657207797
  0
ARC
  5
11052
  8
0
 10
4202.4097912027045822
 20
246.9791788063809861
 30
0.0
 40
0.0638081396133301
 50
297.0523826459931911
 51
345.8703988503667119
  0
ARC
  5
11053
  8
0
 10
4202.4031150620321569
 20
247.0099469042901035
 30
0.0
 40
0.0945892540343133
 50
239.1918360515417135
 51
292.1716863631202727
  0
ARC
  5
11054
  8
0
 10
4202.3783251943477808
 20
246.9663462074969118
 30
0.0
 40
0.0444568211776321
 50
189.4396215744135077
 51
237.8525666187931904
  0
LINE
  5
11055
  8
0
 10
4202.334470363813125
 20
246.9590549258626027
 30
0.0
 11
4202.3300912485401568
 21
246.9792184389658019
 31
0.0
  0
ARC
  5
11056
  8
0
 10
4202.3801724295371969
 20
246.9817342456269955
 30
0.0
 40
0.0501443314175578
 50
121.4836442636237024
 51
182.8758115025869984
  0
ARC
  5
11057
  8
0
 10
4202.4178342230106864
 20
246.9341020756392027
 30
0.0
 40
0.110670766280392
 50
86.1659941621973076
 51
125.235311483244999
  0
ARC
  5
11058
  8
0
 10
4202.4249112136822077
 20
246.9833478089713026
 30
0.0
 40
0.061178200499301
 50
37.9295526475489879
 51
89.6973732047843555
  0
ARC
  5
11059
  8
0
 10
4202.442164154137572
 20
247.002821590251699
 30
0.0
 40
0.0359154315349884
 50
351.3163852515049825
 51
30.3215266097460194
  0
LINE
  5
1105A
  8
0
 10
4202.4776678907956011
 20
246.9973991456336933
 30
0.0
 11
4202.471668892470916
 21
246.9636022152832879
 31
0.0
  0
ARC
  5
1105B
  8
0
 10
4202.4207731229244018
 20
246.969611447667603
 30
0.0
 40
0.0512492949379738
 50
353.2662970031043983
 51
44.9297726543049407
  0
ARC
  5
1105C
  8
0
 10
4202.4034767415641909
 20
246.9481498481544008
 30
0.0
 40
0.0787080853927483
 50
47.0987483063975674
 51
139.9811637229045118
  0
ARC
  5
1105D
  8
0
 10
4202.3864506527143021
 20
246.9684409089317114
 30
0.0
 40
0.0528208965809964
 50
144.9675257771407928
 51
190.2354999015927888
  0
ARC
  5
1105E
  8
0
 10
4202.3294963773942072
 20
246.71798959249071
 30
0.0
 40
0.0163075007456071
 50
312.4321467855895094
 51
37.5996950543657888
  0
ARC
  5
1105F
  8
0
 10
4202.3223661307820294
 20
246.7256130710210869
 30
0.0
 40
0.0267453745564015
 50
217.5923314898375054
 51
312.6870406153066142
  0
ARC
  5
11060
  8
0
 10
4202.3144573219969971
 20
246.7180464480109947
 30
0.0
 40
0.0159058808922801
 50
153.7770878470593914
 51
213.370753392617587
  0
ARC
  5
11061
  8
0
 10
4202.3223618506272032
 20
246.7108927348915017
 30
0.0
 40
0.0263208626609977
 50
40.3647263624312416
 51
147.397293657207797
  0
ARC
  5
11062
  8
0
 10
4202.3284589600079926
 20
246.7377451213885138
 30
0.0
 40
0.0638081396133301
 50
297.0523826459931911
 51
345.8703988503667119
  0
ARC
  5
11063
  8
0
 10
4202.3217828193346577
 20
246.7685132192976027
 30
0.0
 40
0.0945892540343133
 50
239.1918360515417135
 51
292.1716863631202727
  0
ARC
  5
11064
  8
0
 10
4202.2969929516511911
 20
246.7249125225044111
 30
0.0
 40
0.0444568211776321
 50
189.4396215744135077
 51
237.8525666187931904
  0
LINE
  5
11065
  8
0
 10
4202.2531381211138068
 20
246.7176212408701872
 30
0.0
 11
4202.2487590058417481
 21
246.7377847539733011
 31
0.0
  0
ARC
  5
11066
  8
0
 10
4202.2988401868387882
 20
246.7403005606346085
 30
0.0
 40
0.0501443314175578
 50
121.4836442636237024
 51
182.8758115025869984
  0
ARC
  5
11067
  8
0
 10
4202.3365019803131872
 20
246.6926683906467872
 30
0.0
 40
0.110670766280392
 50
86.1659941621973076
 51
125.235311483244999
  0
ARC
  5
11068
  8
0
 10
4202.3435789709828896
 20
246.7419141239788019
 30
0.0
 40
0.061178200499301
 50
37.9295526475489879
 51
89.6973732047843555
  0
ARC
  5
11069
  8
0
 10
4202.3608319114400729
 20
246.7613879052591983
 30
0.0
 40
0.0359154315349884
 50
351.3163852515049825
 51
30.3215266097460194
  0
LINE
  5
1106A
  8
0
 10
4202.396335648098102
 20
246.7559654606413915
 30
0.0
 11
4202.3903366497734169
 21
246.7221685302907872
 31
0.0
  0
ARC
  5
1106B
  8
0
 10
4202.3394408802250837
 20
246.7281777626751023
 30
0.0
 40
0.0512492949379738
 50
353.2662970031043983
 51
44.9297726543049407
  0
ARC
  5
1106C
  8
0
 10
4202.3221444988639632
 20
246.7067161631617864
 30
0.0
 40
0.0787080853927483
 50
47.0987483063975674
 51
139.9811637229045118
  0
ARC
  5
1106D
  8
0
 10
4202.3051184100158935
 20
246.7270072239394096
 30
0.0
 40
0.0528208965809964
 50
144.9675257771407928
 51
190.2354999015927888
  0
ARC
  5
1106E
  8
0
 10
4202.7502141862751159
 20
246.9053393432824919
 30
0.0
 40
0.0163075007456071
 50
312.4321467855895094
 51
37.5996950543657888
  0
ARC
  5
1106F
  8
0
 10
4202.7430839396638476
 20
246.9129628218128971
 30
0.0
 40
0.0267453745564015
 50
217.5923314898375054
 51
312.6870406153066142
  0
ARC
  5
11070
  8
0
 10
4202.7351751308788153
 20
246.905396198802805
 30
0.0
 40
0.0159058808922801
 50
153.7770878470593914
 51
213.370753392617587
  0
ARC
  5
11071
  8
0
 10
4202.7430796595090214
 20
246.898242485683312
 30
0.0
 40
0.0263208626609977
 50
40.3647263624312416
 51
147.397293657207797
  0
ARC
  5
11072
  8
0
 10
4202.7491767688898108
 20
246.9250948721804093
 30
0.0
 40
0.0638081396133301
 50
297.0523826459931911
 51
345.8703988503667119
  0
ARC
  5
11073
  8
0
 10
4202.7425006282155664
 20
246.9558629700894983
 30
0.0
 40
0.0945892540343133
 50
239.1918360515417135
 51
292.1716863631202727
  0
ARC
  5
11074
  8
0
 10
4202.7177107605320998
 20
246.9122622732963066
 30
0.0
 40
0.0444568211776321
 50
189.4396215744135077
 51
237.8525666187931904
  0
LINE
  5
11075
  8
0
 10
4202.673855929995625
 20
246.9049709916621111
 30
0.0
 11
4202.6694768147226569
 21
246.9251345047651967
 31
0.0
  0
ARC
  5
11076
  8
0
 10
4202.7195579957206064
 20
246.927650311426504
 30
0.0
 40
0.0501443314175578
 50
121.4836442636237024
 51
182.8758115025869984
  0
ARC
  5
11077
  8
0
 10
4202.7572197891940959
 20
246.8800181414385975
 30
0.0
 40
0.110670766280392
 50
86.1659941621973076
 51
125.235311483244999
  0
ARC
  5
11078
  8
0
 10
4202.7642967798647078
 20
246.9292638747706974
 30
0.0
 40
0.061178200499301
 50
37.9295526475489879
 51
89.6973732047843555
  0
ARC
  5
11079
  8
0
 10
4202.7815497203218911
 20
246.9487376560510086
 30
0.0
 40
0.0359154315349884
 50
351.3163852515049825
 51
30.3215266097460194
  0
LINE
  5
1107A
  8
0
 10
4202.8170534569808297
 20
246.9433152114330881
 30
0.0
 11
4202.8110544586552351
 21
246.9095182810825975
 31
0.0
  0
ARC
  5
1107B
  8
0
 10
4202.7601586891069019
 20
246.9155275134669125
 30
0.0
 40
0.0512492949379738
 50
353.2662970031043983
 51
44.9297726543049407
  0
ARC
  5
1107C
  8
0
 10
4202.7428623077457814
 20
246.8940659139537104
 30
0.0
 40
0.0787080853927483
 50
47.0987483063975674
 51
139.9811637229045118
  0
ARC
  5
1107D
  8
0
 10
4202.7258362188977117
 20
246.9143569747311915
 30
0.0
 40
0.0528208965809964
 50
144.9675257771407928
 51
190.2354999015927888
  0
ARC
  5
1107E
  8
0
 10
4202.7312845629739968
 20
247.1509908893171996
 30
0.0
 40
0.0163075007456071
 50
312.4321467855895094
 51
37.5996950543657888
  0
ARC
  5
1107F
  8
0
 10
4202.7241543163627284
 20
247.1586143678476049
 30
0.0
 40
0.0267453745564015
 50
217.5923314898375054
 51
312.6870406153066142
  0
ARC
  5
11080
  8
0
 10
4202.7162455075786056
 20
247.151047744837598
 30
0.0
 40
0.0159058808922801
 50
153.7770878470593914
 51
213.370753392617587
  0
ARC
  5
11081
  8
0
 10
4202.7241500362079023
 20
247.143894031718105
 30
0.0
 40
0.0263208626609977
 50
40.3647263624312416
 51
147.397293657207797
  0
ARC
  5
11082
  8
0
 10
4202.7302471455886916
 20
247.1707464182152023
 30
0.0
 40
0.0638081396133301
 50
297.0523826459931911
 51
345.8703988503667119
  0
ARC
  5
11083
  8
0
 10
4202.7235710049162662
 20
247.2015145161242913
 30
0.0
 40
0.0945892540343133
 50
239.1918360515417135
 51
292.1716863631202727
  0
ARC
  5
11084
  8
0
 10
4202.6987811372309807
 20
247.1579138193309859
 30
0.0
 40
0.0444568211776321
 50
189.4396215744135077
 51
237.8525666187931904
  0
LINE
  5
11085
  8
0
 10
4202.6549263066954154
 20
247.1506225376967905
 30
0.0
 11
4202.6505471914206282
 21
247.1707860507999044
 31
0.0
  0
ARC
  5
11086
  8
0
 10
4202.7006283724203968
 20
247.1733018574610981
 30
0.0
 40
0.0501443314175578
 50
121.4836442636237024
 51
182.8758115025869984
  0
ARC
  5
11087
  8
0
 10
4202.7382901658929768
 20
247.1256696874733905
 30
0.0
 40
0.110670766280392
 50
86.1659941621973076
 51
125.235311483244999
  0
ARC
  5
11088
  8
0
 10
4202.7453671565635887
 20
247.1749154208054904
 30
0.0
 40
0.061178200499301
 50
37.9295526475489879
 51
89.6973732047843555
  0
ARC
  5
11089
  8
0
 10
4202.7626200970207719
 20
247.1943892020858016
 30
0.0
 40
0.0359154315349884
 50
351.3163852515049825
 51
30.3215266097460194
  0
LINE
  5
1108A
  8
0
 10
4202.798123833678801
 20
247.1889667574679095
 30
0.0
 11
4202.7921248353541159
 21
247.1551698271173905
 31
0.0
  0
ARC
  5
1108B
  8
0
 10
4202.7412290658057827
 20
247.1611790595015918
 30
0.0
 40
0.0512492949379738
 50
353.2662970031043983
 51
44.9297726543049407
  0
ARC
  5
1108C
  8
0
 10
4202.7239326844455718
 20
247.1397174599885034
 30
0.0
 40
0.0787080853927483
 50
47.0987483063975674
 51
139.9811637229045118
  0
ARC
  5
1108D
  8
0
 10
4202.7069065955965925
 20
247.1600085207660129
 30
0.0
 40
0.0528208965809964
 50
144.9675257771407928
 51
190.2354999015927888
  0
ARC
  5
1108E
  8
0
 10
4202.5805509610117952
 20
247.3088519002712928
 30
0.0
 40
0.0163075007456071
 50
312.4321467855895094
 51
37.5996950543657888
  0
ARC
  5
1108F
  8
0
 10
4202.5734207143996173
 20
247.3164753788016981
 30
0.0
 40
0.0267453745564015
 50
217.5923314898375054
 51
312.6870406153066142
  0
ARC
  5
11090
  8
0
 10
4202.5655119056173135
 20
247.3089087557916912
 30
0.0
 40
0.0159058808922801
 50
153.7770878470593914
 51
213.370753392617587
  0
ARC
  5
11091
  8
0
 10
4202.5734164342457007
 20
247.3017550426721129
 30
0.0
 40
0.0263208626609977
 50
40.3647263624312416
 51
147.397293657207797
  0
ARC
  5
11092
  8
0
 10
4202.5795135436273995
 20
247.3286074291692103
 30
0.0
 40
0.0638081396133301
 50
297.0523826459931911
 51
345.8703988503667119
  0
ARC
  5
11093
  8
0
 10
4202.5728374029531551
 20
247.3593755270784129
 30
0.0
 40
0.0945892540343133
 50
239.1918360515417135
 51
292.1716863631202727
  0
ARC
  5
11094
  8
0
 10
4202.5480475352696885
 20
247.3157748302851076
 30
0.0
 40
0.0444568211776321
 50
189.4396215744135077
 51
237.8525666187931904
  0
LINE
  5
11095
  8
0
 10
4202.5041927047341233
 20
247.3084835486507984
 30
0.0
 11
4202.4998135894611551
 21
247.3286470617539976
 31
0.0
  0
ARC
  5
11096
  8
0
 10
4202.5498947704581951
 20
247.3311628684151913
 30
0.0
 40
0.0501443314175578
 50
121.4836442636237024
 51
182.8758115025869984
  0
ARC
  5
11097
  8
0
 10
4202.5875565639316847
 20
247.2835306984275121
 30
0.0
 40
0.110670766280392
 50
86.1659941621973076
 51
125.235311483244999
  0
ARC
  5
11098
  8
0
 10
4202.5946335546022965
 20
247.3327764317594131
 30
0.0
 40
0.061178200499301
 50
37.9295526475489879
 51
89.6973732047843555
  0
ARC
  5
11099
  8
0
 10
4202.6118864950576608
 20
247.3522502130398948
 30
0.0
 40
0.0359154315349884
 50
351.3163852515049825
 51
30.3215266097460194
  0
LINE
  5
1109A
  8
0
 10
4202.6473902317165994
 20
247.3468277684220027
 30
0.0
 11
4202.6413912333919143
 21
247.3130308380715121
 31
0.0
  0
ARC
  5
1109B
  8
0
 10
4202.5904954638454001
 20
247.3190400704559124
 30
0.0
 40
0.0512492949379738
 50
353.2662970031043983
 51
44.9297726543049407
  0
ARC
  5
1109C
  8
0
 10
4202.5731990824842796
 20
247.2975784709425966
 30
0.0
 40
0.0787080853927483
 50
47.0987483063975674
 51
139.9811637229045118
  0
ARC
  5
1109D
  8
0
 10
4202.5561729936353004
 20
247.3178695317201061
 30
0.0
 40
0.0528208965809964
 50
144.9675257771407928
 51
190.2354999015927888
  0
ARC
  5
1109E
  8
0
 10
4202.7922814016519624
 20
247.5330759200587067
 30
0.0
 40
0.0163075007456071
 50
312.4321467855895094
 51
37.5996950543657888
  0
ARC
  5
1109F
  8
0
 10
4202.785151155040694
 20
247.540699398589112
 30
0.0
 40
0.0267453745564015
 50
217.5923314898375054
 51
312.6870406153066142
  0
ARC
  5
110A0
  8
0
 10
4202.7772423462556617
 20
247.5331327755791051
 30
0.0
 40
0.0159058808922801
 50
153.7770878470593914
 51
213.370753392617587
  0
ARC
  5
110A1
  8
0
 10
4202.7851468748858679
 20
247.5259790624594984
 30
0.0
 40
0.0263208626609977
 50
40.3647263624312416
 51
147.397293657207797
  0
ARC
  5
110A2
  8
0
 10
4202.7912439842657477
 20
247.5528314489565105
 30
0.0
 40
0.0638081396133301
 50
297.0523826459931911
 51
345.8703988503667119
  0
ARC
  5
110A3
  8
0
 10
4202.7845678435924128
 20
247.5835995468657131
 30
0.0
 40
0.0945892540343133
 50
239.1918360515417135
 51
292.1716863631202727
  0
ARC
  5
110A4
  8
0
 10
4202.7597779759089462
 20
247.5399988500724078
 30
0.0
 40
0.0444568211776321
 50
189.4396215744135077
 51
237.8525666187931904
  0
LINE
  5
110A5
  8
0
 10
4202.7159231453742905
 20
247.5327075684382123
 30
0.0
 11
4202.7115440301013223
 21
247.5528710815412126
 31
0.0
  0
ARC
  5
110A6
  8
0
 10
4202.7616252110983623
 20
247.5553868882026052
 30
0.0
 40
0.0501443314175578
 50
121.4836442636237024
 51
182.8758115025869984
  0
ARC
  5
110A7
  8
0
 10
4202.7992870045718519
 20
247.5077547182146986
 30
0.0
 40
0.110670766280392
 50
86.1659941621973076
 51
125.235311483244999
  0
ARC
  5
110A8
  8
0
 10
4202.8063639952433732
 20
247.5570004515467986
 30
0.0
 40
0.061178200499301
 50
37.9295526475489879
 51
89.6973732047843555
  0
ARC
  5
110A9
  8
0
 10
4202.823616935697828
 20
247.576474232827195
 30
0.0
 40
0.0359154315349884
 50
351.3163852515049825
 51
30.3215266097460194
  0
LINE
  5
110AA
  8
0
 10
4202.8591206723567666
 20
247.5710517882091892
 30
0.0
 11
4202.853121674031172
 21
247.5372548578588123
 31
0.0
  0
ARC
  5
110AB
  8
0
 10
4202.8022259044837483
 20
247.543264090243099
 30
0.0
 40
0.0512492949379738
 50
353.2662970031043983
 51
44.9297726543049407
  0
ARC
  5
110AC
  8
0
 10
4202.7849295231244469
 20
247.5218024907300105
 30
0.0
 40
0.0787080853927483
 50
47.0987483063975674
 51
139.9811637229045118
  0
ARC
  5
110AD
  8
0
 10
4202.7679034342772866
 20
247.5420935515074063
 30
0.0
 40
0.0528208965809964
 50
144.9675257771407928
 51
190.2354999015927888
  0
ARC
  5
110AE
  8
0
 10
4202.9982916879971526
 20
247.4055089473683893
 30
0.0
 40
0.0163075007456071
 50
312.4321467855895094
 51
37.5996950543657888
  0
ARC
  5
110AF
  8
0
 10
4202.9911614413858842
 20
247.4131324258987945
 30
0.0
 40
0.0267453745564015
 50
217.5923314898375054
 51
312.6870406153066142
  0
ARC
  5
110B0
  8
0
 10
4202.9832526325990329
 20
247.4055658028887876
 30
0.0
 40
0.0159058808922801
 50
153.7770878470593914
 51
213.370753392617587
  0
ARC
  5
110B1
  8
0
 10
4202.9911571612301486
 20
247.3984120897692094
 30
0.0
 40
0.0263208626609977
 50
40.3647263624312416
 51
147.397293657207797
  0
ARC
  5
110B2
  8
0
 10
4202.9972542706118475
 20
247.4252644762663067
 30
0.0
 40
0.0638081396133301
 50
297.0523826459931911
 51
345.8703988503667119
  0
ARC
  5
110B3
  8
0
 10
4202.9905781299376031
 20
247.4560325741753957
 30
0.0
 40
0.0945892540343133
 50
239.1918360515417135
 51
292.1716863631202727
  0
ARC
  5
110B4
  8
0
 10
4202.965788262255046
 20
247.412431877382204
 30
0.0
 40
0.0444568211776321
 50
189.4396215744135077
 51
237.8525666187931904
  0
LINE
  5
110B5
  8
0
 10
4202.9219334317167522
 20
247.4051405957480085
 30
0.0
 11
4202.9175543164446935
 21
247.425304108851094
 31
0.0
  0
ARC
  5
110B6
  8
0
 10
4202.9676354974426431
 20
247.4278199155122877
 30
0.0
 40
0.0501443314175578
 50
121.4836442636237024
 51
182.8758115025869984
  0
ARC
  5
110B7
  8
0
 10
4203.0052972909170421
 20
247.3801877455246085
 30
0.0
 40
0.110670766280392
 50
86.1659941621973076
 51
125.235311483244999
  0
ARC
  5
110B8
  8
0
 10
4203.0123742815867445
 20
247.4294334788565095
 30
0.0
 40
0.061178200499301
 50
37.9295526475489879
 51
89.6973732047843555
  0
ARC
  5
110B9
  8
0
 10
4203.0296272220430183
 20
247.4489072601369912
 30
0.0
 40
0.0359154315349884
 50
351.3163852515049825
 51
30.3215266097460194
  0
LINE
  5
110BA
  8
0
 10
4203.0651309587028663
 20
247.4434848155190139
 30
0.0
 11
4203.0591319603763623
 21
247.4096878851686085
 31
0.0
  0
ARC
  5
110BB
  8
0
 10
4203.0082361908289386
 20
247.4156971175528099
 30
0.0
 40
0.0512492949379738
 50
353.2662970031043983
 51
44.9297726543049407
  0
ARC
  5
110BC
  8
0
 10
4202.9909398094687276
 20
247.394235518039693
 30
0.0
 40
0.0787080853927483
 50
47.0987483063975674
 51
139.9811637229045118
  0
ARC
  5
110BD
  8
0
 10
4202.9739137206206578
 20
247.4145265788172026
 30
0.0
 40
0.0528208965809964
 50
144.9675257771407928
 51
190.2354999015927888
  0
ARC
  5
110BE
  8
0
 10
4203.3447255460214365
 20
247.4902517969821076
 30
0.0
 40
0.0163075007456071
 50
312.4321467855895094
 51
37.5996950543657888
  0
ARC
  5
110BF
  8
0
 10
4203.3375952994110776
 20
247.4978752755125981
 30
0.0
 40
0.0267453745564015
 50
217.5923314898375054
 51
312.6870406153066142
  0
ARC
  5
110C0
  8
0
 10
4203.3296864906251358
 20
247.490308652502506
 30
0.0
 40
0.0159058808922801
 50
153.7770878470593914
 51
213.370753392617587
  0
ARC
  5
110C1
  8
0
 10
4203.3375910192562515
 20
247.483154939383013
 30
0.0
 40
0.0263208626609977
 50
40.3647263624312416
 51
147.397293657207797
  0
ARC
  5
110C2
  8
0
 10
4203.3436881286361313
 20
247.5100073258801103
 30
0.0
 40
0.0638081396133301
 50
297.0523826459931911
 51
345.8703988503667119
  0
ARC
  5
110C3
  8
0
 10
4203.3370119879618869
 20
247.5407754237891993
 30
0.0
 40
0.0945892540343133
 50
239.1918360515417135
 51
292.1716863631202727
  0
ARC
  5
110C4
  8
0
 10
4203.3122221202793298
 20
247.4971747269960076
 30
0.0
 40
0.0444568211776321
 50
189.4396215744135077
 51
237.8525666187931904
  0
LINE
  5
110C5
  8
0
 10
4203.2683672897428551
 20
247.4898834453616985
 30
0.0
 11
4203.2639881744698869
 21
247.5100469584648124
 31
0.0
  0
ARC
  5
110C6
  8
0
 10
4203.3140693554678364
 20
247.5125627651260913
 30
0.0
 40
0.0501443314175578
 50
121.4836442636237024
 51
182.8758115025869984
  0
ARC
  5
110C7
  8
0
 10
4203.351731148941326
 20
247.4649305951382132
 30
0.0
 40
0.110670766280392
 50
86.1659941621973076
 51
125.235311483244999
  0
ARC
  5
110C8
  8
0
 10
4203.3588081396128473
 20
247.5141763284701995
 30
0.0
 40
0.061178200499301
 50
37.9295526475489879
 51
89.6973732047843555
  0
ARC
  5
110C9
  8
0
 10
4203.3760610800691211
 20
247.5336501097507949
 30
0.0
 40
0.0359154315349884
 50
351.3163852515049825
 51
30.3215266097460194
  0
LINE
  5
110CA
  8
0
 10
4203.4115648167271502
 20
247.5282276651327891
 30
0.0
 11
4203.4055658184006461
 21
247.4944307347824122
 31
0.0
  0
ARC
  5
110CB
  8
0
 10
4203.3546700488550414
 20
247.5004399671664999
 30
0.0
 40
0.0512492949379738
 50
353.2662970031043983
 51
44.9297726543049407
  0
ARC
  5
110CC
  8
0
 10
4203.3373736674939209
 20
247.4789783676534967
 30
0.0
 40
0.0787080853927483
 50
47.0987483063975674
 51
139.9811637229045118
  0
ARC
  5
110CD
  8
0
 10
4203.3203475786449417
 20
247.4992694284308925
 30
0.0
 40
0.0528208965809964
 50
144.9675257771407928
 51
190.2354999015927888
  0
ARC
  5
110CE
  8
0
 10
4203.1689903874203083
 20
247.7016581718883117
 30
0.0
 40
0.0163075007456071
 50
312.4321467855895094
 51
37.5996950543657888
  0
ARC
  5
110CF
  8
0
 10
4203.1618601408081304
 20
247.7092816504186032
 30
0.0
 40
0.0267453745564015
 50
217.5923314898375054
 51
312.6870406153066142
  0
ARC
  5
110D0
  8
0
 10
4203.1539513320249171
 20
247.7017150274085964
 30
0.0
 40
0.0159058808922801
 50
153.7770878470593914
 51
213.370753392617587
  0
ARC
  5
110D1
  8
0
 10
4203.1618558606542138
 20
247.6945613142891887
 30
0.0
 40
0.0263208626609977
 50
40.3647263624312416
 51
147.397293657207797
  0
ARC
  5
110D2
  8
0
 10
4203.1679529700340936
 20
247.7214137007862007
 30
0.0
 40
0.0638081396133301
 50
297.0523826459931911
 51
345.8703988503667119
  0
ARC
  5
110D3
  8
0
 10
4203.1612768293607587
 20
247.7521817986952897
 30
0.0
 40
0.0945892540343133
 50
239.1918360515417135
 51
292.1716863631202727
  0
ARC
  5
110D4
  8
0
 10
4203.1364869616772921
 20
247.708581101902098
 30
0.0
 40
0.0444568211776321
 50
189.4396215744135077
 51
237.8525666187931904
  0
LINE
  5
110D5
  8
0
 10
4203.0926321311408174
 20
247.7012898202679025
 30
0.0
 11
4203.0882530158669397
 21
247.721453333370988
 31
0.0
  0
ARC
  5
110D6
  8
0
 10
4203.1383341968667082
 20
247.7239691400322101
 30
0.0
 40
0.0501443314175578
 50
121.4836442636237024
 51
182.8758115025869984
  0
ARC
  5
110D7
  8
0
 10
4203.1759959903401977
 20
247.6763369700445026
 30
0.0
 40
0.110670766280392
 50
86.1659941621973076
 51
125.235311483244999
  0
ARC
  5
110D8
  8
0
 10
4203.1830729810108096
 20
247.7255827033764888
 30
0.0
 40
0.061178200499301
 50
37.9295526475489879
 51
89.6973732047843555
  0
ARC
  5
110D9
  8
0
 10
4203.2003259214670834
 20
247.7450564846568
 30
0.0
 40
0.0359154315349884
 50
351.3163852515049825
 51
30.3215266097460194
  0
LINE
  5
110DA
  8
0
 10
4203.2358296581251125
 20
247.7396340400389931
 30
0.0
 11
4203.2298306598004274
 21
247.7058371096885026
 31
0.0
  0
ARC
  5
110DB
  8
0
 10
4203.1789348902520942
 20
247.7118463420727039
 30
0.0
 40
0.0512492949379738
 50
353.2662970031043983
 51
44.9297726543049407
  0
ARC
  5
110DC
  8
0
 10
4203.1616385088927927
 20
247.6903847425595018
 30
0.0
 40
0.0787080853927483
 50
47.0987483063975674
 51
139.9811637229045118
  0
ARC
  5
110DD
  8
0
 10
4203.144612420044723
 20
247.7106758033370966
 30
0.0
 40
0.0528208965809964
 50
144.9675257771407928
 51
190.2354999015927888
  0
ARC
  5
110DE
  8
0
 10
4202.9247233627456808
 20
247.7942092170625017
 30
0.0
 40
0.0163075007456071
 50
312.4321467855895094
 51
37.5996950543657888
  0
ARC
  5
110DF
  8
0
 10
4202.9175931161353219
 20
247.8018326955929069
 30
0.0
 40
0.0267453745564015
 50
217.5923314898375054
 51
312.6870406153066142
  0
ARC
  5
110E0
  8
0
 10
4202.9096843073502896
 20
247.7942660725827864
 30
0.0
 40
0.0159058808922801
 50
153.7770878470593914
 51
213.370753392617587
  0
ARC
  5
110E1
  8
0
 10
4202.9175888359814053
 20
247.7871123594634071
 30
0.0
 40
0.0263208626609977
 50
40.3647263624312416
 51
147.397293657207797
  0
ARC
  5
110E2
  8
0
 10
4202.9236859453612851
 20
247.8139647459603907
 30
0.0
 40
0.0638081396133301
 50
297.0523826459931911
 51
345.8703988503667119
  0
ARC
  5
110E3
  8
0
 10
4202.9170098046879502
 20
247.8447328438695081
 30
0.0
 40
0.0945892540343133
 50
239.1918360515417135
 51
292.1716863631202727
  0
ARC
  5
110E4
  8
0
 10
4202.8922199370035742
 20
247.801132147076288
 30
0.0
 40
0.0444568211776321
 50
189.4396215744135077
 51
237.8525666187931904
  0
LINE
  5
110E5
  8
0
 10
4202.8483651064680089
 20
247.7938408654420073
 30
0.0
 11
4202.8439859911941312
 21
247.8140043785452065
 31
0.0
  0
ARC
  5
110E6
  8
0
 10
4202.8940671721929903
 20
247.8165201852065138
 30
0.0
 40
0.0501443314175578
 50
121.4836442636237024
 51
182.8758115025869984
  0
ARC
  5
110E7
  8
0
 10
4202.9317289656646608
 20
247.7688880152186925
 30
0.0
 40
0.110670766280392
 50
86.1659941621973076
 51
125.235311483244999
  0
ARC
  5
110E8
  8
0
 10
4202.9388059563370916
 20
247.8181337485507072
 30
0.0
 40
0.061178200499301
 50
37.9295526475489879
 51
89.6973732047843555
  0
ARC
  5
110E9
  8
0
 10
4202.9560588967933654
 20
247.8376075298311036
 30
0.0
 40
0.0359154315349884
 50
351.3163852515049825
 51
30.3215266097460194
  0
LINE
  5
110EA
  8
0
 10
4202.9915626334513945
 20
247.8321850852132116
 30
0.0
 11
4202.9855636351257999
 21
247.7983881548626925
 31
0.0
  0
ARC
  5
110EB
  8
0
 10
4202.9346678655792857
 20
247.8043973872470076
 30
0.0
 40
0.0512492949379738
 50
353.2662970031043983
 51
44.9297726543049407
  0
ARC
  5
110EC
  8
0
 10
4202.9173714842190748
 20
247.7829357877338055
 30
0.0
 40
0.0787080853927483
 50
47.0987483063975674
 51
139.9811637229045118
  0
ARC
  5
110ED
  8
0
 10
4202.900345395371005
 20
247.8032268485112866
 30
0.0
 40
0.0528208965809964
 50
144.9675257771407928
 51
190.2354999015927888
  0
ARC
  5
110EE
  8
0
 10
4203.4823786473825749
 20
247.854213178592488
 30
0.0
 40
0.0163075007456071
 50
312.4321467855895094
 51
37.5996950543657888
  0
ARC
  5
110EF
  8
0
 10
4203.4752484007731255
 20
247.8618366571230069
 30
0.0
 40
0.0267453745564015
 50
217.5923314898375054
 51
312.6870406153066142
  0
ARC
  5
110F0
  8
0
 10
4203.4673395919871837
 20
247.8542700341130001
 30
0.0
 40
0.0159058808922801
 50
153.7770878470593914
 51
213.370753392617587
  0
ARC
  5
110F1
  8
0
 10
4203.4752441206182993
 20
247.8471163209933934
 30
0.0
 40
0.0263208626609977
 50
40.3647263624312416
 51
147.397293657207797
  0
ARC
  5
110F2
  8
0
 10
4203.4813412299981792
 20
247.8739687074904054
 30
0.0
 40
0.0638081396133301
 50
297.0523826459931911
 51
345.8703988503667119
  0
ARC
  5
110F3
  8
0
 10
4203.4746650893257538
 20
247.9047368053996934
 30
0.0
 40
0.0945892540343133
 50
239.1918360515417135
 51
292.1716863631202727
  0
ARC
  5
110F4
  8
0
 10
4203.4498752216413777
 20
247.8611361086063027
 30
0.0
 40
0.0444568211776321
 50
189.4396215744135077
 51
237.8525666187931904
  0
LINE
  5
110F5
  8
0
 10
4203.406020391104903
 20
247.8538448269721073
 30
0.0
 11
4203.4016412758310253
 21
247.8740083400753065
 31
0.0
  0
ARC
  5
110F6
  8
0
 10
4203.4517224568307938
 20
247.8765241467365001
 30
0.0
 40
0.0501443314175578
 50
121.4836442636237024
 51
182.8758115025869984
  0
ARC
  5
110F7
  8
0
 10
4203.4893842503015549
 20
247.8288919767487073
 30
0.0
 40
0.110670766280392
 50
86.1659941621973076
 51
125.235311483244999
  0
ARC
  5
110F8
  8
0
 10
4203.4964612409748952
 20
247.8781377100806935
 30
0.0
 40
0.061178200499301
 50
37.9295526475489879
 51
89.6973732047843555
  0
ARC
  5
110F9
  8
0
 10
4203.513714181431169
 20
247.89761149136109
 30
0.0
 40
0.0359154315349884
 50
351.3163852515049825
 51
30.3215266097460194
  0
LINE
  5
110FA
  8
0
 10
4203.5492179180901076
 20
247.8921890467431979
 30
0.0
 11
4203.5432189197636035
 21
247.8583921163927073
 31
0.0
  0
ARC
  5
110FB
  8
0
 10
4203.4923231502170893
 20
247.8644013487771076
 30
0.0
 40
0.0512492949379738
 50
353.2662970031043983
 51
44.9297726543049407
  0
ARC
  5
110FC
  8
0
 10
4203.4750267688568783
 20
247.8429397492639055
 30
0.0
 40
0.0787080853927483
 50
47.0987483063975674
 51
139.9811637229045118
  0
ARC
  5
110FD
  8
0
 10
4203.4580006800069896
 20
247.8632308100413013
 30
0.0
 40
0.0528208965809964
 50
144.9675257771407928
 51
190.2354999015927888
  0
ARC
  5
110FE
  8
0
 10
4203.2368485990891713
 20
248.0225275428906002
 30
0.0
 40
0.0163075007456071
 50
312.4321467855895094
 51
37.5996950543657888
  0
ARC
  5
110FF
  8
0
 10
4203.2297183524788124
 20
248.0301510214210907
 30
0.0
 40
0.0267453745564015
 50
217.5923314898375054
 51
312.6870406153066142
  0
ARC
  5
11100
  8
0
 10
4203.2218095436937801
 20
248.0225843984109986
 30
0.0
 40
0.0159058808922801
 50
153.7770878470593914
 51
213.370753392617587
  0
ARC
  5
11101
  8
0
 10
4203.2297140723239863
 20
248.0154306852915056
 30
0.0
 40
0.0263208626609977
 50
40.3647263624312416
 51
147.397293657207797
  0
ARC
  5
11102
  8
0
 10
4203.2358111817038662
 20
248.0422830717884892
 30
0.0
 40
0.0638081396133301
 50
297.0523826459931911
 51
345.8703988503667119
  0
ARC
  5
11103
  8
0
 10
4203.2291350410323503
 20
248.0730511696976066
 30
0.0
 40
0.0945892540343133
 50
239.1918360515417135
 51
292.1716863631202727
  0
ARC
  5
11104
  8
0
 10
4203.2043451733479742
 20
248.0294504729045002
 30
0.0
 40
0.0444568211776321
 50
189.4396215744135077
 51
237.8525666187931904
  0
LINE
  5
11105
  8
0
 10
4203.1604903428124089
 20
248.0221591912701058
 30
0.0
 11
4203.1561112275376217
 21
248.042322704373305
 31
0.0
  0
ARC
  5
11106
  8
0
 10
4203.2061924085355713
 20
248.0448385110346123
 30
0.0
 40
0.0501443314175578
 50
121.4836442636237024
 51
182.8758115025869984
  0
ARC
  5
11107
  8
0
 10
4203.2438542020090608
 20
247.9972063410467058
 30
0.0
 40
0.110670766280392
 50
86.1659941621973076
 51
125.235311483244999
  0
ARC
  5
11108
  8
0
 10
4203.2509311926796727
 20
248.046452074378692
 30
0.0
 40
0.061178200499301
 50
37.9295526475489879
 51
89.6973732047843555
  0
ARC
  5
11109
  8
0
 10
4203.2681841331359465
 20
248.0659258556590885
 30
0.0
 40
0.0359154315349884
 50
351.3163852515049825
 51
30.3215266097460194
  0
LINE
  5
1110A
  8
0
 10
4203.3036878697939756
 20
248.0605034110413101
 30
0.0
 11
4203.2976888714702
 21
248.0267064806909048
 31
0.0
  0
ARC
  5
1110B
  8
0
 10
4203.2467931019218668
 20
248.0327157130751061
 30
0.0
 40
0.0512492949379738
 50
353.2662970031043983
 51
44.9297726543049407
  0
ARC
  5
1110C
  8
0
 10
4203.2294967205616558
 20
248.011254113561904
 30
0.0
 40
0.0787080853927483
 50
47.0987483063975674
 51
139.9811637229045118
  0
ARC
  5
1110D
  8
0
 10
4203.212470631713586
 20
248.0315451743392998
 30
0.0
 40
0.0528208965809964
 50
144.9675257771407928
 51
190.2354999015927888
  0
ARC
  5
1110E
  8
0
 10
4202.9723579972423977
 20
248.0759834662887044
 30
0.0
 40
0.0163075007456071
 50
312.4321467855895094
 51
37.5996950543657888
  0
ARC
  5
1110F
  8
0
 10
4202.9652277506302198
 20
248.083606944819195
 30
0.0
 40
0.0267453745564015
 50
217.5923314898375054
 51
312.6870406153066142
  0
ARC
  5
11110
  8
0
 10
4202.957318941844278
 20
248.0760403218091028
 30
0.0
 40
0.0159058808922801
 50
153.7770878470593914
 51
213.370753392617587
  0
ARC
  5
11111
  8
0
 10
4202.9652234704735747
 20
248.0688866086894961
 30
0.0
 40
0.0263208626609977
 50
40.3647263624312416
 51
147.397293657207797
  0
ARC
  5
11112
  8
0
 10
4202.971320579856183
 20
248.0957389951865082
 30
0.0
 40
0.0638081396133301
 50
297.0523826459931911
 51
345.8703988503667119
  0
ARC
  5
11113
  8
0
 10
4202.9646444391828481
 20
248.1265070930957961
 30
0.0
 40
0.0945892540343133
 50
239.1918360515417135
 51
292.1716863631202727
  0
ARC
  5
11114
  8
0
 10
4202.9398545714975626
 20
248.0829063963024907
 30
0.0
 40
0.0444568211776321
 50
189.4396215744135077
 51
237.8525666187931904
  0
LINE
  5
11115
  8
0
 10
4202.8959997409619973
 20
248.07561511466821
 30
0.0
 11
4202.8916206256899386
 21
248.0957786277714092
 31
0.0
  0
ARC
  5
11116
  8
0
 10
4202.9417018066878882
 20
248.0982944344324892
 30
0.0
 40
0.0501443314175578
 50
121.4836442636237024
 51
182.8758115025869984
  0
ARC
  5
11117
  8
0
 10
4202.9793636001613777
 20
248.05066226444481
 30
0.0
 40
0.110670766280392
 50
86.1659941621973076
 51
125.235311483244999
  0
ARC
  5
11118
  8
0
 10
4202.986440590832899
 20
248.0999079977767963
 30
0.0
 40
0.061178200499301
 50
37.9295526475489879
 51
89.6973732047843555
  0
ARC
  5
11119
  8
0
 10
4203.0036935312891728
 20
248.1193817790573064
 30
0.0
 40
0.0359154315349884
 50
351.3163852515049825
 51
30.3215266097460194
  0
LINE
  5
1111A
  8
0
 10
4203.0391972679472019
 20
248.1139593344391869
 30
0.0
 11
4203.0331982696206978
 21
248.0801624040888953
 31
0.0
  0
ARC
  5
1111B
  8
0
 10
4202.9823025000741836
 20
248.0861716364730967
 30
0.0
 40
0.0512492949379738
 50
353.2662970031043983
 51
44.9297726543049407
  0
ARC
  5
1111C
  8
0
 10
4202.9650061187139727
 20
248.0647100369600082
 30
0.0
 40
0.0787080853927483
 50
47.0987483063975674
 51
139.9811637229045118
  0
ARC
  5
1111D
  8
0
 10
4202.9479800298649934
 20
248.0850010977372904
 30
0.0
 40
0.0528208965809964
 50
144.9675257771407928
 51
190.2354999015927888
  0
ARC
  5
1111E
  8
0
 10
4203.5238661985677027
 20
248.239968196414992
 30
0.0
 40
0.0163075007456071
 50
312.4321467855895094
 51
37.5996950543657888
  0
ARC
  5
1111F
  8
0
 10
4203.5167359519573438
 20
248.2475916749453972
 30
0.0
 40
0.0267453745564015
 50
217.5923314898375054
 51
312.6870406153066142
  0
ARC
  5
11120
  8
0
 10
4203.508827143173221
 20
248.2400250519353051
 30
0.0
 40
0.0159058808922801
 50
153.7770878470593914
 51
213.370753392617587
  0
ARC
  5
11121
  8
0
 10
4203.5167316718016082
 20
248.2328713388158974
 30
0.0
 40
0.0263208626609977
 50
40.3647263624312416
 51
147.397293657207797
  0
ARC
  5
11122
  8
0
 10
4203.522828781183307
 20
248.2597237253129094
 30
0.0
 40
0.0638081396133301
 50
297.0523826459931911
 51
345.8703988503667119
  0
ARC
  5
11123
  8
0
 10
4203.5161526405090626
 20
248.2904918232219984
 30
0.0
 40
0.0945892540343133
 50
239.1918360515417135
 51
292.1716863631202727
  0
ARC
  5
11124
  8
0
 10
4203.4913627728246865
 20
248.2468911264288067
 30
0.0
 40
0.0444568211776321
 50
189.4396215744135077
 51
237.8525666187931904
  0
LINE
  5
11125
  8
0
 10
4203.4475079422900308
 20
248.2395998447944976
 30
0.0
 11
4203.4431288270161531
 21
248.2597633578976115
 31
0.0
  0
ARC
  5
11126
  8
0
 10
4203.4932100080150121
 20
248.2622791645590041
 30
0.0
 40
0.0501443314175578
 50
121.4836442636237024
 51
182.8758115025869984
  0
ARC
  5
11127
  8
0
 10
4203.5308718014866827
 20
248.2146469945710123
 30
0.0
 40
0.110670766280392
 50
86.1659941621973076
 51
125.235311483244999
  0
ARC
  5
11128
  8
0
 10
4203.5379487921591135
 20
248.2638927279031122
 30
0.0
 40
0.061178200499301
 50
37.9295526475489879
 51
89.6973732047843555
  0
ARC
  5
11129
  8
0
 10
4203.5552017326153873
 20
248.2833665091835087
 30
0.0
 40
0.0359154315349884
 50
351.3163852515049825
 51
30.3215266097460194
  0
LINE
  5
1112A
  8
0
 10
4203.5907054692734164
 20
248.2779440645657019
 30
0.0
 11
4203.5847064709478218
 21
248.2441471342152113
 31
0.0
  0
ARC
  5
1112B
  8
0
 10
4203.5338107014013076
 20
248.2501563665994979
 30
0.0
 40
0.0512492949379738
 50
353.2662970031043983
 51
44.9297726543049407
  0
ARC
  5
1112C
  8
0
 10
4203.5165143200410967
 20
248.2286947670862105
 30
0.0
 40
0.0787080853927483
 50
47.0987483063975674
 51
139.9811637229045118
  0
ARC
  5
1112D
  8
0
 10
4203.4994882311921174
 20
248.2489858278636916
 30
0.0
 40
0.0528208965809964
 50
144.9675257771407928
 51
190.2354999015927888
  0
ARC
  5
1112E
  8
0
 10
4203.2207654529784122
 20
248.3515471764659992
 30
0.0
 40
0.0163075007456071
 50
312.4321467855895094
 51
37.5996950543657888
  0
ARC
  5
1112F
  8
0
 10
4203.2136352063671438
 20
248.3591706549964897
 30
0.0
 40
0.0267453745564015
 50
217.5923314898375054
 51
312.6870406153066142
  0
ARC
  5
11130
  8
0
 10
4203.205726397583021
 20
248.3516040319863976
 30
0.0
 40
0.0159058808922801
 50
153.7770878470593914
 51
213.370753392617587
  0
ARC
  5
11131
  8
0
 10
4203.2136309262132272
 20
248.3444503188669046
 30
0.0
 40
0.0263208626609977
 50
40.3647263624312416
 51
147.397293657207797
  0
ARC
  5
11132
  8
0
 10
4203.2197280355931071
 20
248.3713027053638029
 30
0.0
 40
0.0638081396133301
 50
297.0523826459931911
 51
345.8703988503667119
  0
ARC
  5
11133
  8
0
 10
4203.2130518949206817
 20
248.4020708032730056
 30
0.0
 40
0.0945892540343133
 50
239.1918360515417135
 51
292.1716863631202727
  0
ARC
  5
11134
  8
0
 10
4203.1882620272372151
 20
248.3584701064797002
 30
0.0
 40
0.0444568211776321
 50
189.4396215744135077
 51
237.8525666187931904
  0
LINE
  5
11135
  8
0
 10
4203.1444071967007403
 20
248.3511788248455048
 30
0.0
 11
4203.1400280814277721
 21
248.3713423379485903
 31
0.0
  0
ARC
  5
11136
  8
0
 10
4203.1901092624248122
 20
248.3738581446100113
 30
0.0
 40
0.0501443314175578
 50
121.4836442636237024
 51
182.8758115025869984
  0
ARC
  5
11137
  8
0
 10
4203.2277710558992112
 20
248.3262259746221048
 30
0.0
 40
0.110670766280392
 50
86.1659941621973076
 51
125.235311483244999
  0
ARC
  5
11138
  8
0
 10
4203.2348480465689136
 20
248.375471707954091
 30
0.0
 40
0.061178200499301
 50
37.9295526475489879
 51
89.6973732047843555
  0
ARC
  5
11139
  8
0
 10
4203.2521009870251874
 20
248.3949454892344875
 30
0.0
 40
0.0359154315349884
 50
351.3163852515049825
 51
30.3215266097460194
  0
LINE
  5
1113A
  8
0
 10
4203.2876047236841259
 20
248.3895230446165954
 30
0.0
 11
4203.2816057253576218
 21
248.3557261142661048
 31
0.0
  0
ARC
  5
1113B
  8
0
 10
4203.2307099558111076
 20
248.3617353466503914
 30
0.0
 40
0.0512492949379738
 50
353.2662970031043983
 51
44.9297726543049407
  0
ARC
  5
1113C
  8
0
 10
4203.2134135744508967
 20
248.3402737471371893
 30
0.0
 40
0.0787080853927483
 50
47.0987483063975674
 51
139.9811637229045118
  0
ARC
  5
1113D
  8
0
 10
4203.1963874856028269
 20
248.3605648079146988
 30
0.0
 40
0.0528208965809964
 50
144.9675257771407928
 51
190.2354999015927888
  0
ARC
  5
1113E
  8
0
 10
4202.9251675705090747
 20
248.355591476506703
 30
0.0
 40
0.0163075007456071
 50
312.4321467855895094
 51
37.5996950543657888
  0
ARC
  5
1113F
  8
0
 10
4202.9180373238987158
 20
248.3632149550369945
 30
0.0
 40
0.0267453745564015
 50
217.5923314898375054
 51
312.6870406153066142
  0
ARC
  5
11140
  8
0
 10
4202.910128515112774
 20
248.3556483320269876
 30
0.0
 40
0.0159058808922801
 50
153.7770878470593914
 51
213.370753392617587
  0
ARC
  5
11141
  8
0
 10
4202.9180330437429802
 20
248.3484946189074094
 30
0.0
 40
0.0263208626609977
 50
40.3647263624312416
 51
147.397293657207797
  0
ARC
  5
11142
  8
0
 10
4202.9241301531246791
 20
248.375347005404592
 30
0.0
 40
0.0638081396133301
 50
297.0523826459931911
 51
345.8703988503667119
  0
ARC
  5
11143
  8
0
 10
4202.9174540124513442
 20
248.4061151033137094
 30
0.0
 40
0.0945892540343133
 50
239.1918360515417135
 51
292.1716863631202727
  0
ARC
  5
11144
  8
0
 10
4202.8926641447669681
 20
248.362514406520404
 30
0.0
 40
0.0444568211776321
 50
189.4396215744135077
 51
237.8525666187931904
  0
LINE
  5
11145
  8
0
 10
4202.8488093142314028
 20
248.3552231248860949
 30
0.0
 11
4202.8444301989566156
 21
248.3753866379892941
 31
0.0
  0
ARC
  5
11146
  8
0
 10
4202.8945113799545652
 20
248.3779024446504877
 30
0.0
 40
0.0501443314175578
 50
121.4836442636237024
 51
182.8758115025869984
  0
ARC
  5
11147
  8
0
 10
4202.9321731734289642
 20
248.3302702746626949
 30
0.0
 40
0.110670766280392
 50
86.1659941621973076
 51
125.235311483244999
  0
ARC
  5
11148
  8
0
 10
4202.9392501640995761
 20
248.3795160079947948
 30
0.0
 40
0.061178200499301
 50
37.9295526475489879
 51
89.6973732047843555
  0
ARC
  5
11149
  8
0
 10
4202.9565031045567594
 20
248.398989789275106
 30
0.0
 40
0.0359154315349884
 50
351.3163852515049825
 51
30.3215266097460194
  0
LINE
  5
1114A
  8
0
 10
4202.9920068412138789
 20
248.3935673446572139
 30
0.0
 11
4202.9860078428882844
 21
248.3597704143066949
 31
0.0
  0
ARC
  5
1114B
  8
0
 10
4202.9351120733408607
 20
248.3657796466910099
 30
0.0
 40
0.0512492949379738
 50
353.2662970031043983
 51
44.9297726543049407
  0
ARC
  5
1114C
  8
0
 10
4202.9178156919806497
 20
248.344318047177893
 30
0.0
 40
0.0787080853927483
 50
47.0987483063975674
 51
139.9811637229045118
  0
ARC
  5
1114D
  8
0
 10
4202.9007896031325799
 20
248.3646091079552889
 30
0.0
 40
0.0528208965809964
 50
144.9675257771407928
 51
190.2354999015927888
  0
ARC
  5
1114E
  8
0
 10
4203.4327548656856379
 20
248.6163604851390971
 30
0.0
 40
0.0163075007456071
 50
312.4321467855895094
 51
37.5996950543657888
  0
ARC
  5
1114F
  8
0
 10
4203.4256246190743695
 20
248.6239839636695024
 30
0.0
 40
0.0267453745564015
 50
217.5923314898375054
 51
312.6870406153066142
  0
ARC
  5
11150
  8
0
 10
4203.4177158102911562
 20
248.6164173406592965
 30
0.0
 40
0.0159058808922801
 50
153.7770878470593914
 51
213.370753392617587
  0
ARC
  5
11151
  8
0
 10
4203.4256203389204529
 20
248.6092636275398888
 30
0.0
 40
0.0263208626609977
 50
40.3647263624312416
 51
147.397293657207797
  0
ARC
  5
11152
  8
0
 10
4203.4317174483012423
 20
248.6361160140369009
 30
0.0
 40
0.0638081396133301
 50
297.0523826459931911
 51
345.8703988503667119
  0
ARC
  5
11153
  8
0
 10
4203.4250413076269979
 20
248.6668841119459898
 30
0.0
 40
0.0945892540343133
 50
239.1918360515417135
 51
292.1716863631202727
  0
ARC
  5
11154
  8
0
 10
4203.4002514399444408
 20
248.6232834151527129
 30
0.0
 40
0.0444568211776321
 50
189.4396215744135077
 51
237.8525666187931904
  0
LINE
  5
11155
  8
0
 10
4203.3563966094088755
 20
248.6159921335186027
 30
0.0
 11
4203.3520174941349978
 21
248.636155646621603
 31
0.0
  0
ARC
  5
11156
  8
0
 10
4203.4020986751329474
 20
248.6386714532827966
 30
0.0
 40
0.0501443314175578
 50
121.4836442636237024
 51
182.8758115025869984
  0
ARC
  5
11157
  8
0
 10
4203.4397604686064369
 20
248.591039283295089
 30
0.0
 40
0.110670766280392
 50
86.1659941621973076
 51
125.235311483244999
  0
ARC
  5
11158
  8
0
 10
4203.4468374592770488
 20
248.640285016627189
 30
0.0
 40
0.061178200499301
 50
37.9295526475489879
 51
89.6973732047843555
  0
ARC
  5
11159
  8
0
 10
4203.4640903997342321
 20
248.6597587979076138
 30
0.0
 40
0.0359154315349884
 50
351.3163852515049825
 51
30.3215266097460194
  0
LINE
  5
1115A
  8
0
 10
4203.4995941363922611
 20
248.654336353289608
 30
0.0
 11
4203.4935951380657571
 21
248.620539422939089
 31
0.0
  0
ARC
  5
1115B
  8
0
 10
4203.4426993685201523
 20
248.6265486553234041
 30
0.0
 40
0.0512492949379738
 50
353.2662970031043983
 51
44.9297726543049407
  0
ARC
  5
1115C
  8
0
 10
4203.4254029871599414
 20
248.6050870558102872
 30
0.0
 40
0.0787080853927483
 50
47.0987483063975674
 51
139.9811637229045118
  0
ARC
  5
1115D
  8
0
 10
4203.4083768983109621
 20
248.6253781165877115
 30
0.0
 40
0.0528208965809964
 50
144.9675257771407928
 51
190.2354999015927888
  0
ARC
  5
1115E
  8
0
 10
4203.0891621577757178
 20
248.6619052205086007
 30
0.0
 40
0.0163075007456071
 50
312.4321467855895094
 51
37.5996950543657888
  0
ARC
  5
1115F
  8
0
 10
4203.0820319111662684
 20
248.6695286990388922
 30
0.0
 40
0.0267453745564015
 50
217.5923314898375054
 51
312.6870406153066142
  0
ARC
  5
11160
  8
0
 10
4203.0741231023812361
 20
248.6619620760289138
 30
0.0
 40
0.0159058808922801
 50
153.7770878470593914
 51
213.370753392617587
  0
ARC
  5
11161
  8
0
 10
4203.0820276310114423
 20
248.6548083629093924
 30
0.0
 40
0.0263208626609977
 50
40.3647263624312416
 51
147.397293657207797
  0
ARC
  5
11162
  8
0
 10
4203.0881247403913221
 20
248.6816607494064044
 30
0.0
 40
0.0638081396133301
 50
297.0523826459931911
 51
345.8703988503667119
  0
ARC
  5
11163
  8
0
 10
4203.0814485997188967
 20
248.7124288473154934
 30
0.0
 40
0.0945892540343133
 50
239.1918360515417135
 51
292.1716863631202727
  0
ARC
  5
11164
  8
0
 10
4203.0566587320336112
 20
248.668828150522188
 30
0.0
 40
0.0444568211776321
 50
189.4396215744135077
 51
237.8525666187931904
  0
LINE
  5
11165
  8
0
 10
4203.0128039014989554
 20
248.6615368688879926
 30
0.0
 11
4203.0084247862250777
 21
248.6817003819911065
 31
0.0
  0
ARC
  5
11166
  8
0
 10
4203.0585059672239368
 20
248.6842161886523002
 30
0.0
 40
0.0501443314175578
 50
121.4836442636237024
 51
182.8758115025869984
  0
ARC
  5
11167
  8
0
 10
4203.0961677606974263
 20
248.6365840186645926
 30
0.0
 40
0.110670766280392
 50
86.1659941621973076
 51
125.235311483244999
  0
ARC
  5
11168
  8
0
 10
4203.1032447513680381
 20
248.6858297519966925
 30
0.0
 40
0.061178200499301
 50
37.9295526475489879
 51
89.6973732047843555
  0
ARC
  5
11169
  8
0
 10
4203.1204976918243119
 20
248.7053035332770889
 30
0.0
 40
0.0359154315349884
 50
351.3163852515049825
 51
30.3215266097460194
  0
LINE
  5
1116A
  8
0
 10
4203.156001428482341
 20
248.6998810886591116
 30
0.0
 11
4203.1500024301576559
 21
248.6660841583087063
 31
0.0
  0
ARC
  5
1116B
  8
0
 10
4203.0991066606102322
 20
248.6720933906929929
 30
0.0
 40
0.0512492949379738
 50
353.2662970031043983
 51
44.9297726543049407
  0
ARC
  5
1116C
  8
0
 10
4203.0818102792491118
 20
248.6506317911797055
 30
0.0
 40
0.0787080853927483
 50
47.0987483063975674
 51
139.9811637229045118
  0
ARC
  5
1116D
  8
0
 10
4203.064784190401042
 20
248.6709228519571866
 30
0.0
 40
0.0528208965809964
 50
144.9675257771407928
 51
190.2354999015927888
  0
ARC
  5
1116E
  8
0
 10
4202.7895386915861309
 20
248.616632022318214
 30
0.0
 40
0.0163075007456071
 50
312.4321467855895094
 51
37.5996950543657888
  0
ARC
  5
1116F
  8
0
 10
4202.782408444973953
 20
248.6242555008485908
 30
0.0
 40
0.0267453745564015
 50
217.5923314898375054
 51
312.6870406153066142
  0
ARC
  5
11170
  8
0
 10
4202.7744996361898302
 20
248.6166888778386124
 30
0.0
 40
0.0159058808922801
 50
153.7770878470593914
 51
213.370753392617587
  0
ARC
  5
11171
  8
0
 10
4202.7824041648200364
 20
248.6095351647190057
 30
0.0
 40
0.0263208626609977
 50
40.3647263624312416
 51
147.397293657207797
  0
ARC
  5
11172
  8
0
 10
4202.7885012742008257
 20
248.6363875512161883
 30
0.0
 40
0.0638081396133301
 50
297.0523826459931911
 51
345.8703988503667119
  0
ARC
  5
11173
  8
0
 10
4202.7818251335265813
 20
248.667155649125192
 30
0.0
 40
0.0945892540343133
 50
239.1918360515417135
 51
292.1716863631202727
  0
ARC
  5
11174
  8
0
 10
4202.7570352658422053
 20
248.6235549523320003
 30
0.0
 40
0.0444568211776321
 50
189.4396215744135077
 51
237.8525666187931904
  0
LINE
  5
11175
  8
0
 10
4202.7131804353075495
 20
248.6162636706976912
 30
0.0
 11
4202.7088013200336718
 21
248.6364271838008904
 31
0.0
  0
ARC
  5
11176
  8
0
 10
4202.7588825010316214
 20
248.6389429904621124
 30
0.0
 40
0.0501443314175578
 50
121.4836442636237024
 51
182.8758115025869984
  0
ARC
  5
11177
  8
0
 10
4202.7965442945060204
 20
248.5913108204742912
 30
0.0
 40
0.110670766280392
 50
86.1659941621973076
 51
125.235311483244999
  0
ARC
  5
11178
  8
0
 10
4202.8036212851757227
 20
248.6405565538063058
 30
0.0
 40
0.061178200499301
 50
37.9295526475489879
 51
89.6973732047843555
  0
ARC
  5
11179
  8
0
 10
4202.820874225632906
 20
248.6600303350867023
 30
0.0
 40
0.0359154315349884
 50
351.3163852515049825
 51
30.3215266097460194
  0
LINE
  5
1117A
  8
0
 10
4202.8563779622918446
 20
248.6546078904688954
 30
0.0
 11
4202.85037896396625
 21
248.6208109601184049
 31
0.0
  0
ARC
  5
1117B
  8
0
 10
4202.7994831944188263
 20
248.6268201925026062
 30
0.0
 40
0.0512492949379738
 50
353.2662970031043983
 51
44.9297726543049407
  0
ARC
  5
1117C
  8
0
 10
4202.7821868130586154
 20
248.6053585929894041
 30
0.0
 40
0.0787080853927483
 50
47.0987483063975674
 51
139.9811637229045118
  0
ARC
  5
1117D
  8
0
 10
4202.7651607242105456
 20
248.6256496537669989
 30
0.0
 40
0.0528208965809964
 50
144.9675257771407928
 51
190.2354999015927888
  0
ARC
  5
1117E
  8
0
 10
4202.5792706076417744
 20
248.8418200989353863
 30
0.0
 40
0.0163075007456071
 50
312.4321467855895094
 51
37.5996950543657888
  0
ARC
  5
1117F
  8
0
 10
4202.5721403610295965
 20
248.8494435774657916
 30
0.0
 40
0.0267453745564015
 50
217.5923314898375054
 51
312.6870406153066142
  0
ARC
  5
11180
  8
0
 10
4202.5642315522472927
 20
248.8418769544558131
 30
0.0
 40
0.0159058808922801
 50
153.7770878470593914
 51
213.370753392617587
  0
ARC
  5
11181
  8
0
 10
4202.5721360808756799
 20
248.8347232413362065
 30
0.0
 40
0.0263208626609977
 50
40.3647263624312416
 51
147.397293657207797
  0
ARC
  5
11182
  8
0
 10
4202.5782331902573787
 20
248.8615756278333038
 30
0.0
 40
0.0638081396133301
 50
297.0523826459931911
 51
345.8703988503667119
  0
ARC
  5
11183
  8
0
 10
4202.5715570495831344
 20
248.8923437257425064
 30
0.0
 40
0.0945892540343133
 50
239.1918360515417135
 51
292.1716863631202727
  0
ARC
  5
11184
  8
0
 10
4202.5467671818987583
 20
248.8487430289492863
 30
0.0
 40
0.0444568211776321
 50
189.4396215744135077
 51
237.8525666187931904
  0
LINE
  5
11185
  8
0
 10
4202.5029123513641025
 20
248.8414517473148919
 30
0.0
 11
4202.4985332360911343
 21
248.8616152604180911
 31
0.0
  0
ARC
  5
11186
  8
0
 10
4202.5486144170881744
 20
248.8641310670793985
 30
0.0
 40
0.0501443314175578
 50
121.4836442636237024
 51
182.8758115025869984
  0
ARC
  5
11187
  8
0
 10
4202.5862762105616639
 20
248.8164988970916056
 30
0.0
 40
0.110670766280392
 50
86.1659941621973076
 51
125.235311483244999
  0
ARC
  5
11188
  8
0
 10
4202.5933532012322758
 20
248.8657446304235066
 30
0.0
 40
0.061178200499301
 50
37.9295526475489879
 51
89.6973732047843555
  0
ARC
  5
11189
  8
0
 10
4202.61060614168764
 20
248.8852184117039883
 30
0.0
 40
0.0359154315349884
 50
351.3163852515049825
 51
30.3215266097460194
  0
LINE
  5
1118A
  8
0
 10
4202.6461098783465786
 20
248.8797959670860962
 30
0.0
 11
4202.6401108800218935
 21
248.8459990367356056
 31
0.0
  0
ARC
  5
1118B
  8
0
 10
4202.5892151104735603
 20
248.8520082691198922
 30
0.0
 40
0.0512492949379738
 50
353.2662970031043983
 51
44.9297726543049407
  0
ARC
  5
1118C
  8
0
 10
4202.5719187291142589
 20
248.8305466696066901
 30
0.0
 40
0.0787080853927483
 50
47.0987483063975674
 51
139.9811637229045118
  0
ARC
  5
1118D
  8
0
 10
4202.5548926402652796
 20
248.8508377303841996
 30
0.0
 40
0.0528208965809964
 50
144.9675257771407928
 51
190.2354999015927888
  0
ARC
  5
1118E
  8
0
 10
4202.877956256462312
 20
248.9400661647096058
 30
0.0
 40
0.0163075007456071
 50
312.4321467855895094
 51
37.5996950543657888
  0
ARC
  5
1118F
  8
0
 10
4202.8708260098510436
 20
248.947689643240011
 30
0.0
 40
0.0267453745564015
 50
217.5923314898375054
 51
312.6870406153066142
  0
ARC
  5
11190
  8
0
 10
4202.8629172010651018
 20
248.9401230202298905
 30
0.0
 40
0.0159058808922801
 50
153.7770878470593914
 51
213.370753392617587
  0
ARC
  5
11191
  8
0
 10
4202.870821729695308
 20
248.9329693071105112
 30
0.0
 40
0.0263208626609977
 50
40.3647263624312416
 51
147.397293657207797
  0
ARC
  5
11192
  8
0
 10
4202.8769188390760974
 20
248.9598216936072959
 30
0.0
 40
0.0638081396133301
 50
297.0523826459931911
 51
345.8703988503667119
  0
ARC
  5
11193
  8
0
 10
4202.870242698403672
 20
248.9905897915166122
 30
0.0
 40
0.0945892540343133
 50
239.1918360515417135
 51
292.1716863631202727
  0
ARC
  5
11194
  8
0
 10
4202.8454528307192959
 20
248.9469890947233068
 30
0.0
 40
0.0444568211776321
 50
189.4396215744135077
 51
237.8525666187931904
  0
LINE
  5
11195
  8
0
 10
4202.8015980001828211
 20
248.9396978130889977
 30
0.0
 11
4202.7972188849089434
 21
248.9598613261921969
 31
0.0
  0
ARC
  5
11196
  8
0
 10
4202.847300065906893
 20
248.9623771328533905
 30
0.0
 40
0.0501443314175578
 50
121.4836442636237024
 51
182.8758115025869984
  0
ARC
  5
11197
  8
0
 10
4202.884961859381292
 20
248.9147449628655977
 30
0.0
 40
0.110670766280392
 50
86.1659941621973076
 51
125.235311483244999
  0
ARC
  5
11198
  8
0
 10
4202.8920388500528134
 20
248.9639906961976976
 30
0.0
 40
0.061178200499301
 50
37.9295526475489879
 51
89.6973732047843555
  0
ARC
  5
11199
  8
0
 10
4202.9092917905081777
 20
248.9834644774780941
 30
0.0
 40
0.0359154315349884
 50
351.3163852515049825
 51
30.3215266097460194
  0
LINE
  5
1119A
  8
0
 10
4202.9447955271671162
 20
248.978042032860202
 30
0.0
 11
4202.9387965288406122
 21
248.9442451025097114
 31
0.0
  0
ARC
  5
1119B
  8
0
 10
4202.887900759294098
 20
248.950254334893998
 30
0.0
 40
0.0512492949379738
 50
353.2662970031043983
 51
44.9297726543049407
  0
ARC
  5
1119C
  8
0
 10
4202.870604377933887
 20
248.9287927353807959
 30
0.0
 40
0.0787080853927483
 50
47.0987483063975674
 51
139.9811637229045118
  0
ARC
  5
1119D
  8
0
 10
4202.8535782890858172
 20
248.9490837961583054
 30
0.0
 40
0.0528208965809964
 50
144.9675257771407928
 51
190.2354999015927888
  0
ARC
  5
1119E
  8
0
 10
4203.2263545435971537
 20
248.9627584832697096
 30
0.0
 40
0.0163075007456071
 50
312.4321467855895094
 51
37.5996950543657888
  0
ARC
  5
1119F
  8
0
 10
4203.2192242969867948
 20
248.9703819618002001
 30
0.0
 40
0.0267453745564015
 50
217.5923314898375054
 51
312.6870406153066142
  0
ARC
  5
111A0
  8
0
 10
4203.211315488202672
 20
248.9628153387901079
 30
0.0
 40
0.0159058808922801
 50
153.7770878470593914
 51
213.370753392617587
  0
ARC
  5
111A1
  8
0
 10
4203.2192200168319687
 20
248.9556616256705865
 30
0.0
 40
0.0263208626609977
 50
40.3647263624312416
 51
147.397293657207797
  0
ARC
  5
111A2
  8
0
 10
4203.225317126212758
 20
248.9825140121677123
 30
0.0
 40
0.0638081396133301
 50
297.0523826459931911
 51
345.8703988503667119
  0
ARC
  5
111A3
  8
0
 10
4203.2186409855376041
 20
249.0132821100768012
 30
0.0
 40
0.0945892540343133
 50
239.1918360515417135
 51
292.1716863631202727
  0
ARC
  5
111A4
  8
0
 10
4203.1938511178550471
 20
248.9696814132834959
 30
0.0
 40
0.0444568211776321
 50
189.4396215744135077
 51
237.8525666187931904
  0
LINE
  5
111A5
  8
0
 10
4203.1499962873203913
 20
248.9623901316491867
 30
0.0
 11
4203.1456171720456041
 21
248.9825536447523859
 31
0.0
  0
ARC
  5
111A6
  8
0
 10
4203.1956983530435537
 20
248.985069451413608
 30
0.0
 40
0.0501443314175578
 50
121.4836442636237024
 51
182.8758115025869984
  0
ARC
  5
111A7
  8
0
 10
4203.2333601465170432
 20
248.9374372814257868
 30
0.0
 40
0.110670766280392
 50
86.1659941621973076
 51
125.235311483244999
  0
ARC
  5
111A8
  8
0
 10
4203.240437137187655
 20
248.9866830147580004
 30
0.0
 40
0.061178200499301
 50
37.9295526475489879
 51
89.6973732047843555
  0
ARC
  5
111A9
  8
0
 10
4203.2576900776439288
 20
249.0061567960383115
 30
0.0
 40
0.0359154315349884
 50
351.3163852515049825
 51
30.3215266097460194
  0
LINE
  5
111AA
  8
0
 10
4203.2931938143028674
 20
249.000734351420391
 30
0.0
 11
4203.2871948159781823
 21
248.9669374210699004
 31
0.0
  0
ARC
  5
111AB
  8
0
 10
4203.2362990464298491
 20
248.9729466534541018
 30
0.0
 40
0.0512492949379738
 50
353.2662970031043983
 51
44.9297726543049407
  0
ARC
  5
111AC
  8
0
 10
4203.2190026650696382
 20
248.9514850539410133
 30
0.0
 40
0.0787080853927483
 50
47.0987483063975674
 51
139.9811637229045118
  0
ARC
  5
111AD
  8
0
 10
4203.2019765762206589
 20
248.9717761147184092
 30
0.0
 40
0.0528208965809964
 50
144.9675257771407928
 51
190.2354999015927888
  0
ARC
  5
111AE
  8
0
 10
4202.9266094983668154
 20
249.2592381465817084
 30
0.0
 40
0.0163075007456071
 50
312.4321467855895094
 51
37.5996950543657888
  0
ARC
  5
111AF
  8
0
 10
4202.919479251757366
 20
249.2668616251121989
 30
0.0
 40
0.0267453745564015
 50
217.5923314898375054
 51
312.6870406153066142
  0
ARC
  5
111B0
  8
0
 10
4202.9115704429714242
 20
249.259295002102192
 30
0.0
 40
0.0159058808922801
 50
153.7770878470593914
 51
213.370753392617587
  0
ARC
  5
111B1
  8
0
 10
4202.9194749716034494
 20
249.2521412889826138
 30
0.0
 40
0.0263208626609977
 50
40.3647263624312416
 51
147.397293657207797
  0
ARC
  5
111B2
  8
0
 10
4202.9255720809824197
 20
249.2789936754797111
 30
0.0
 40
0.0638081396133301
 50
297.0523826459931911
 51
345.8703988503667119
  0
ARC
  5
111B3
  8
0
 10
4202.9188959403090848
 20
249.3097617733886864
 30
0.0
 40
0.0945892540343133
 50
239.1918360515417135
 51
292.1716863631202727
  0
ARC
  5
111B4
  8
0
 10
4202.8941060726247088
 20
249.2661610765956084
 30
0.0
 40
0.0444568211776321
 50
189.4396215744135077
 51
237.8525666187931904
  0
LINE
  5
111B5
  8
0
 10
4202.8502512420891435
 20
249.2588697949612992
 30
0.0
 11
4202.8458721268161753
 21
249.2790333080644984
 31
0.0
  0
ARC
  5
111B6
  8
0
 10
4202.8959533078150343
 20
249.2815491147258058
 30
0.0
 40
0.0501443314175578
 50
121.4836442636237024
 51
182.8758115025869984
  0
ARC
  5
111B7
  8
0
 10
4202.9336151012867049
 20
249.233916944737814
 30
0.0
 40
0.110670766280392
 50
86.1659941621973076
 51
125.235311483244999
  0
ARC
  5
111B8
  8
0
 10
4202.9406920919582262
 20
249.2831626780699139
 30
0.0
 40
0.061178200499301
 50
37.9295526475489879
 51
89.6973732047843555
  0
ARC
  5
111B9
  8
0
 10
4202.9579450324154095
 20
249.3026364593503956
 30
0.0
 40
0.0359154315349884
 50
351.3163852515049825
 51
30.3215266097460194
  0
LINE
  5
111BA
  8
0
 10
4202.9934487690734386
 20
249.2972140147323898
 30
0.0
 11
4202.987449770747844
 21
249.2634170843820129
 31
0.0
  0
ARC
  5
111BB
  8
0
 10
4202.9365540012013298
 20
249.2694263167661859
 30
0.0
 40
0.0512492949379738
 50
353.2662970031043983
 51
44.9297726543049407
  0
ARC
  5
111BC
  8
0
 10
4202.9192576198411189
 20
249.2479647172530974
 30
0.0
 40
0.0787080853927483
 50
47.0987483063975674
 51
139.9811637229045118
  0
ARC
  5
111BD
  8
0
 10
4202.9022315309912301
 20
249.268255778030408
 30
0.0
 40
0.0528208965809964
 50
144.9675257771407928
 51
190.2354999015927888
  0
ARC
  5
111BE
  8
0
 10
4202.582190326984346
 20
249.1643554375150984
 30
0.0
 40
0.0163075007456071
 50
312.4321467855895094
 51
37.5996950543657888
  0
ARC
  5
111BF
  8
0
 10
4202.5750600803730777
 20
249.17197891604539
 30
0.0
 40
0.0267453745564015
 50
217.5923314898375054
 51
312.6870406153066142
  0
ARC
  5
111C0
  8
0
 10
4202.5671512715880453
 20
249.1644122930354968
 30
0.0
 40
0.0159058808922801
 50
153.7770878470593914
 51
213.370753392617587
  0
ARC
  5
111C1
  8
0
 10
4202.5750558002182515
 20
249.1572585799158901
 30
0.0
 40
0.0263208626609977
 50
40.3647263624312416
 51
147.397293657207797
  0
ARC
  5
111C2
  8
0
 10
4202.5811529095990409
 20
249.1841109664129021
 30
0.0
 40
0.0638081396133301
 50
297.0523826459931911
 51
345.8703988503667119
  0
ARC
  5
111C3
  8
0
 10
4202.5744767689247965
 20
249.2148790643219911
 30
0.0
 40
0.0945892540343133
 50
239.1918360515417135
 51
292.1716863631202727
  0
ARC
  5
111C4
  8
0
 10
4202.5496869012413299
 20
249.1712783675287994
 30
0.0
 40
0.0444568211776321
 50
189.4396215744135077
 51
237.8525666187931904
  0
LINE
  5
111C5
  8
0
 10
4202.5058320707057646
 20
249.163987085894604
 30
0.0
 11
4202.5014529554318869
 21
249.1841505989976895
 31
0.0
  0
ARC
  5
111C6
  8
0
 10
4202.551534136430746
 20
249.1866664056589968
 30
0.0
 40
0.0501443314175578
 50
121.4836442636237024
 51
182.8758115025869984
  0
ARC
  5
111C7
  8
0
 10
4202.589195929903326
 20
249.139034235671204
 30
0.0
 40
0.110670766280392
 50
86.1659941621973076
 51
125.235311483244999
  0
ARC
  5
111C8
  8
0
 10
4202.5962729205748474
 20
249.1882799690031902
 30
0.0
 40
0.061178200499301
 50
37.9295526475489879
 51
89.6973732047843555
  0
ARC
  5
111C9
  8
0
 10
4202.6135258610311212
 20
249.2077537502837004
 30
0.0
 40
0.0359154315349884
 50
351.3163852515049825
 51
30.3215266097460194
  0
LINE
  5
111CA
  8
0
 10
4202.6490295976891503
 20
249.2023313056656946
 30
0.0
 11
4202.6430305993635557
 21
249.168534375315204
 31
0.0
  0
ARC
  5
111CB
  8
0
 10
4202.592134829816132
 20
249.1745436076994906
 30
0.0
 40
0.0512492949379738
 50
353.2662970031043983
 51
44.9297726543049407
  0
ARC
  5
111CC
  8
0
 10
4202.5748384484568305
 20
249.1530820081862032
 30
0.0
 40
0.0787080853927483
 50
47.0987483063975674
 51
139.9811637229045118
  0
ARC
  5
111CD
  8
0
 10
4202.5578123596069418
 20
249.173373068963798
 30
0.0
 40
0.0528208965809964
 50
144.9675257771407928
 51
190.2354999015927888
  0
ARC
  5
111CE
  8
0
 10
4202.5455475958906391
 20
249.4858031818193069
 30
0.0
 40
0.0163075007456071
 50
312.4321467855895094
 51
37.5996950543657888
  0
ARC
  5
111CF
  8
0
 10
4202.5384173492802802
 20
249.4934266603497974
 30
0.0
 40
0.0267453745564015
 50
217.5923314898375054
 51
312.6870406153066142
  0
ARC
  5
111D0
  8
0
 10
4202.5305085404943384
 20
249.4858600373397053
 30
0.0
 40
0.0159058808922801
 50
153.7770878470593914
 51
213.370753392617587
  0
ARC
  5
111D1
  8
0
 10
4202.5384130691236351
 20
249.4787063242202976
 30
0.0
 40
0.0263208626609977
 50
40.3647263624312416
 51
147.397293657207797
  0
ARC
  5
111D2
  8
0
 10
4202.5445101785053339
 20
249.5055587107171959
 30
0.0
 40
0.0638081396133301
 50
297.0523826459931911
 51
345.8703988503667119
  0
ARC
  5
111D3
  8
0
 10
4202.537834037831999
 20
249.5363268086263986
 30
0.0
 40
0.0945892540343133
 50
239.1918360515417135
 51
292.1716863631202727
  0
ARC
  5
111D4
  8
0
 10
4202.5130441701476229
 20
249.4927261118332069
 30
0.0
 40
0.0444568211776321
 50
189.4396215744135077
 51
237.8525666187931904
  0
LINE
  5
111D5
  8
0
 10
4202.4691893396120577
 20
249.4854348301988125
 30
0.0
 11
4202.46481022433818
 21
249.5055983433020117
 31
0.0
  0
ARC
  5
111D6
  8
0
 10
4202.5148914053361295
 20
249.5081141499632906
 30
0.0
 40
0.0501443314175578
 50
121.4836442636237024
 51
182.8758115025869984
  0
ARC
  5
111D7
  8
0
 10
4202.5525531988087096
 20
249.4604819799754978
 30
0.0
 40
0.110670766280392
 50
86.1659941621973076
 51
125.235311483244999
  0
ARC
  5
111D8
  8
0
 10
4202.5596301894811404
 20
249.5097277133075124
 30
0.0
 40
0.061178200499301
 50
37.9295526475489879
 51
89.6973732047843555
  0
ARC
  5
111D9
  8
0
 10
4202.5768831299374142
 20
249.5292014945879089
 30
0.0
 40
0.0359154315349884
 50
351.3163852515049825
 51
30.3215266097460194
  0
LINE
  5
111DA
  8
0
 10
4202.6123868665954433
 20
249.5237790499701021
 30
0.0
 11
4202.6063878682707582
 21
249.4899821196194978
 31
0.0
  0
ARC
  5
111DB
  8
0
 10
4202.5554920987233345
 20
249.4959913520038128
 30
0.0
 40
0.0512492949379738
 50
353.2662970031043983
 51
44.9297726543049407
  0
ARC
  5
111DC
  8
0
 10
4202.5381957173622141
 20
249.4745297524906107
 30
0.0
 40
0.0787080853927483
 50
47.0987483063975674
 51
139.9811637229045118
  0
ARC
  5
111DD
  8
0
 10
4202.5211696285132348
 20
249.4948208132680918
 30
0.0
 40
0.0528208965809964
 50
144.9675257771407928
 51
190.2354999015927888
  0
ARC
  5
111DE
  8
0
 10
4202.2294433547322114
 20
249.3230629138550967
 30
0.0
 40
0.0163075007456071
 50
312.4321467855895094
 51
37.5996950543657888
  0
ARC
  5
111DF
  8
0
 10
4202.2223131081209431
 20
249.3306863923855872
 30
0.0
 40
0.0267453745564015
 50
217.5923314898375054
 51
312.6870406153066142
  0
ARC
  5
111E0
  8
0
 10
4202.2144042993350013
 20
249.3231197693756087
 30
0.0
 40
0.0159058808922801
 50
153.7770878470593914
 51
213.370753392617587
  0
ARC
  5
111E1
  8
0
 10
4202.2223088279652075
 20
249.315966056256002
 30
0.0
 40
0.0263208626609977
 50
40.3647263624312416
 51
147.397293657207797
  0
ARC
  5
111E2
  8
0
 10
4202.2284059373459968
 20
249.3428184427530994
 30
0.0
 40
0.0638081396133301
 50
297.0523826459931911
 51
345.8703988503667119
  0
ARC
  5
111E3
  8
0
 10
4202.2217297966726619
 20
249.373586540662302
 30
0.0
 40
0.0945892540343133
 50
239.1918360515417135
 51
292.1716863631202727
  0
ARC
  5
111E4
  8
0
 10
4202.1969399289891953
 20
249.3299858438689967
 30
0.0
 40
0.0444568211776321
 50
189.4396215744135077
 51
237.8525666187931904
  0
LINE
  5
111E5
  8
0
 10
4202.1530850984518111
 20
249.3226945622346022
 30
0.0
 11
4202.1487059831797524
 21
249.3428580753378014
 31
0.0
  0
ARC
  5
111E6
  8
0
 10
4202.1987871641767924
 20
249.3453738819991088
 30
0.0
 40
0.0501443314175578
 50
121.4836442636237024
 51
182.8758115025869984
  0
ARC
  5
111E7
  8
0
 10
4202.2364489576511914
 20
249.2977417120112023
 30
0.0
 40
0.110670766280392
 50
86.1659941621973076
 51
125.235311483244999
  0
ARC
  5
111E8
  8
0
 10
4202.2435259483227128
 20
249.3469874453433874
 30
0.0
 40
0.061178200499301
 50
37.9295526475489879
 51
89.6973732047843555
  0
ARC
  5
111E9
  8
0
 10
4202.2607788887780771
 20
249.3664612266238123
 30
0.0
 40
0.0359154315349884
 50
351.3163852515049825
 51
30.3215266097460194
  0
LINE
  5
111EA
  8
0
 10
4202.2962826254379252
 20
249.3610387820058065
 30
0.0
 11
4202.2902836271114211
 21
249.3272418516552875
 31
0.0
  0
ARC
  5
111EB
  8
0
 10
4202.2393878575639974
 20
249.3332510840396878
 30
0.0
 40
0.0512492949379738
 50
353.2662970031043983
 51
44.9297726543049407
  0
ARC
  5
111EC
  8
0
 10
4202.2220914762037864
 20
249.3117894845265141
 30
0.0
 40
0.0787080853927483
 50
47.0987483063975674
 51
139.9811637229045118
  0
ARC
  5
111ED
  8
0
 10
4202.2050653873557167
 20
249.33208054530391
 30
0.0
 40
0.0528208965809964
 50
144.9675257771407928
 51
190.2354999015927888
  0
ARC
  5
111EE
  8
0
 10
4202.3028880520023449
 20
249.0149271589876037
 30
0.0
 40
0.0163075007456071
 50
312.4321467855895094
 51
37.5996950543657888
  0
ARC
  5
111EF
  8
0
 10
4202.2957578053910765
 20
249.0225506375180089
 30
0.0
 40
0.0267453745564015
 50
217.5923314898375054
 51
312.6870406153066142
  0
ARC
  5
111F0
  8
0
 10
4202.2878489966060442
 20
249.014984014508002
 30
0.0
 40
0.0159058808922801
 50
153.7770878470593914
 51
213.370753392617587
  0
ARC
  5
111F1
  8
0
 10
4202.2957535252371599
 20
249.0078303013883954
 30
0.0
 40
0.0263208626609977
 50
40.3647263624312416
 51
147.397293657207797
  0
ARC
  5
111F2
  8
0
 10
4202.3018506346161303
 20
249.0346826878854074
 30
0.0
 40
0.0638081396133301
 50
297.0523826459931911
 51
345.8703988503667119
  0
ARC
  5
111F3
  8
0
 10
4202.2951744939437049
 20
249.0654507857946101
 30
0.0
 40
0.0945892540343133
 50
239.1918360515417135
 51
292.1716863631202727
  0
ARC
  5
111F4
  8
0
 10
4202.2703846262602383
 20
249.0218500890013047
 30
0.0
 40
0.0444568211776321
 50
189.4396215744135077
 51
237.8525666187931904
  0
LINE
  5
111F5
  8
0
 10
4202.2265297957237635
 20
249.0145588073671092
 30
0.0
 11
4202.2221506804498858
 21
249.0347223204703084
 31
0.0
  0
ARC
  5
111F6
  8
0
 10
4202.2722318614478354
 20
249.0372381271315021
 30
0.0
 40
0.0501443314175578
 50
121.4836442636237024
 51
182.8758115025869984
  0
ARC
  5
111F7
  8
0
 10
4202.3098936549213249
 20
248.9896059571437092
 30
0.0
 40
0.110670766280392
 50
86.1659941621973076
 51
125.235311483244999
  0
ARC
  5
111F8
  8
0
 10
4202.3169706455919368
 20
249.0388516904756955
 30
0.0
 40
0.061178200499301
 50
37.9295526475489879
 51
89.6973732047843555
  0
ARC
  5
111F9
  8
0
 10
4202.3342235860482106
 20
249.0583254717562056
 30
0.0
 40
0.0359154315349884
 50
351.3163852515049825
 51
30.3215266097460194
  0
LINE
  5
111FA
  8
0
 10
4202.3697273227062396
 20
249.0529030271383135
 30
0.0
 11
4202.3637283243806451
 21
249.0191060967877945
 31
0.0
  0
ARC
  5
111FB
  8
0
 10
4202.3128325548341309
 20
249.0251153291719959
 30
0.0
 40
0.0512492949379738
 50
353.2662970031043983
 51
44.9297726543049407
  0
ARC
  5
111FC
  8
0
 10
4202.2955361734748294
 20
249.0036537296589074
 30
0.0
 40
0.0787080853927483
 50
47.0987483063975674
 51
139.9811637229045118
  0
ARC
  5
111FD
  8
0
 10
4202.2785100846249406
 20
249.0239447904363885
 30
0.0
 40
0.0528208965809964
 50
144.9675257771407928
 51
190.2354999015927888
  0
ARC
  5
111FE
  8
0
 10
4202.1053243543583449
 20
249.6274471641143862
 30
0.0
 40
0.0163075007456071
 50
312.4321467855895094
 51
37.5996950543657888
  0
ARC
  5
111FF
  8
0
 10
4202.0981941077470765
 20
249.6350706426447061
 30
0.0
 40
0.0267453745564015
 50
217.5923314898375054
 51
312.6870406153066142
  0
ARC
  5
11200
  8
0
 10
4202.0902852989629537
 20
249.6275040196346993
 30
0.0
 40
0.0159058808922801
 50
153.7770878470593914
 51
213.370753392617587
  0
ARC
  5
11201
  8
0
 10
4202.0981898275922504
 20
249.6203503065152915
 30
0.0
 40
0.0263208626609977
 50
40.3647263624312416
 51
147.397293657207797
  0
ARC
  5
11202
  8
0
 10
4202.1042869369730397
 20
249.6472026930121046
 30
0.0
 40
0.0638081396133301
 50
297.0523826459931911
 51
345.8703988503667119
  0
ARC
  5
11203
  8
0
 10
4202.0976107962987953
 20
249.6779707909213073
 30
0.0
 40
0.0945892540343133
 50
239.1918360515417135
 51
292.1716863631202727
  0
ARC
  5
11204
  8
0
 10
4202.0728209286162382
 20
249.6343700941280872
 30
0.0
 40
0.0444568211776321
 50
189.4396215744135077
 51
237.8525666187931904
  0
LINE
  5
11205
  8
0
 10
4202.0289660980797635
 20
249.6270788124938065
 30
0.0
 11
4202.0245869828067953
 21
249.647242325596892
 31
0.0
  0
ARC
  5
11206
  8
0
 10
4202.0905451566868578
 20
249.6560784796116081
 30
0.0
 40
0.066547414071292
 50
134.6250747412782971
 51
187.6302574724263081
  0
ARC
  5
11207
  8
0
 10
4202.0987264121285989
 20
249.6512709163127113
 30
0.0
 40
0.0757555749781028
 50
72.2536789815891325
 51
136.475069906100714
  0
ARC
  5
11208
  8
0
 10
4202.0988316306102206
 20
249.6450959333135131
 30
0.0
 40
0.0816287273691169
 50
32.5186748683427425
 51
73.6452524218178155
  0
ARC
  5
11209
  8
0
 10
4202.13665988840512
 20
249.6708454768829029
 30
0.0
 40
0.0359154315349884
 50
351.3163852515049825
 51
30.3215266097460194
  0
LINE
  5
1120A
  8
0
 10
4202.1721636250631491
 20
249.6654230322650108
 30
0.0
 11
4202.1661646267375545
 21
249.6316261019144918
 31
0.0
  0
ARC
  5
1120B
  8
0
 10
4202.1152688571901308
 20
249.6376353342986931
 30
0.0
 40
0.0512492949379738
 50
353.2662970031043983
 51
44.9297726543049407
  0
ARC
  5
1120C
  8
0
 10
4202.0979724758308294
 20
249.6161737347856047
 30
0.0
 40
0.0787080853927483
 50
47.0987483063975674
 51
139.9811637229045118
  0
ARC
  5
1120D
  8
0
 10
4202.0809463869827596
 20
249.6364647955630005
 30
0.0
 40
0.0528208965809964
 50
144.9675257771407928
 51
190.2354999015927888
  0
ARC
  5
1120E
  8
0
 10
4201.834618850735751
 20
249.4040737969679071
 30
0.0
 40
0.0163075007456071
 50
312.4321467855895094
 51
37.5996950543657888
  0
ARC
  5
1120F
  8
0
 10
4201.8274886041253922
 20
249.4116972754983976
 30
0.0
 40
0.0267453745564015
 50
217.5923314898375054
 51
312.6870406153066142
  0
ARC
  5
11210
  8
0
 10
4201.8195797953403599
 20
249.4041306524883908
 30
0.0
 40
0.0159058808922801
 50
153.7770878470593914
 51
213.370753392617587
  0
ARC
  5
11211
  8
0
 10
4201.8274843239696565
 20
249.3969769393688125
 30
0.0
 40
0.0263208626609977
 50
40.3647263624312416
 51
147.397293657207797
  0
ARC
  5
11212
  8
0
 10
4201.8335814333504459
 20
249.4238293258657961
 30
0.0
 40
0.0638081396133301
 50
297.0523826459931911
 51
345.8703988503667119
  0
ARC
  5
11213
  8
0
 10
4201.8269052926780205
 20
249.4545974237749988
 30
0.0
 40
0.0945892540343133
 50
239.1918360515417135
 51
292.1716863631202727
  0
ARC
  5
11214
  8
0
 10
4201.8021154249927349
 20
249.4109967269816934
 30
0.0
 40
0.0444568211776321
 50
189.4396215744135077
 51
237.8525666187931904
  0
LINE
  5
11215
  8
0
 10
4201.7582605944571696
 20
249.403705445347498
 30
0.0
 11
4201.7538814791851109
 21
249.4238689584506972
 31
0.0
  0
ARC
  5
11216
  8
0
 10
4201.8198396530669925
 20
249.4327051124651859
 30
0.0
 40
0.066547414071292
 50
134.6250747412782971
 51
187.6302574724263081
  0
ARC
  5
11217
  8
0
 10
4201.8280209085069146
 20
249.4278975491662891
 30
0.0
 40
0.0757555749781028
 50
72.2536789815891325
 51
136.475069906100714
  0
ARC
  5
11218
  8
0
 10
4201.8281261269876268
 20
249.4217225661670909
 30
0.0
 40
0.0816287273691169
 50
32.5186748683427425
 51
73.6452524218178155
  0
ARC
  5
11219
  8
0
 10
4201.8659543847834357
 20
249.4474721097365943
 30
0.0
 40
0.0359154315349884
 50
351.3163852515049825
 51
30.3215266097460194
  0
LINE
  5
1121A
  8
0
 10
4201.9014581214405553
 20
249.4420496651187023
 30
0.0
 11
4201.8954591231167797
 21
249.4082527347682117
 31
0.0
  0
ARC
  5
1121B
  8
0
 10
4201.844563353569356
 20
249.414261967152413
 30
0.0
 40
0.0512492949379738
 50
353.2662970031043983
 51
44.9297726543049407
  0
ARC
  5
1121C
  8
0
 10
4201.8272669722082355
 20
249.3928003676392962
 30
0.0
 40
0.0787080853927483
 50
47.0987483063975674
 51
139.9811637229045118
  0
ARC
  5
1121D
  8
0
 10
4201.8102408833601658
 20
249.4130914284166067
 30
0.0
 40
0.0528208965809964
 50
144.9675257771407928
 51
190.2354999015927888
  0
ARC
  5
1121E
  8
0
 10
4201.9732190355143757
 20
249.1232474284256
 30
0.0
 40
0.0163075007456071
 50
312.4321467855895094
 51
37.5996950543657888
  0
ARC
  5
1121F
  8
0
 10
4201.9660887889021978
 20
249.1308709069560052
 30
0.0
 40
0.0267453745564015
 50
217.5923314898375054
 51
312.6870406153066142
  0
ARC
  5
11220
  8
0
 10
4201.958179980118075
 20
249.1233042839459983
 30
0.0
 40
0.0159058808922801
 50
153.7770878470593914
 51
213.370753392617587
  0
ARC
  5
11221
  8
0
 10
4201.9660845087482812
 20
249.1161505708263917
 30
0.0
 40
0.0263208626609977
 50
40.3647263624312416
 51
147.397293657207797
  0
ARC
  5
11222
  8
0
 10
4201.9721816181290706
 20
249.1430029573234037
 30
0.0
 40
0.0638081396133301
 50
297.0523826459931911
 51
345.8703988503667119
  0
ARC
  5
11223
  8
0
 10
4201.9655054774548262
 20
249.1737710552326064
 30
0.0
 40
0.0945892540343133
 50
239.1918360515417135
 51
292.1716863631202727
  0
ARC
  5
11224
  8
0
 10
4201.9407156097713596
 20
249.130170358439301
 30
0.0
 40
0.0444568211776321
 50
189.4396215744135077
 51
237.8525666187931904
  0
LINE
  5
11225
  8
0
 10
4201.8968607792357943
 20
249.1228790768051056
 30
0.0
 11
4201.8924816639628261
 21
249.1430425899081911
 31
0.0
  0
ARC
  5
11226
  8
0
 10
4201.9584398378437982
 20
249.1518787439227083
 30
0.0
 40
0.066547414071292
 50
134.6250747412782971
 51
187.6302574724263081
  0
ARC
  5
11227
  8
0
 10
4201.9666210932846298
 20
249.1470711806238967
 30
0.0
 40
0.0757555749781028
 50
72.2536789815891325
 51
136.475069906100714
  0
ARC
  5
11228
  8
0
 10
4201.966726311765342
 20
249.1408961976246985
 30
0.0
 40
0.0816287273691169
 50
32.5186748683427425
 51
73.6452524218178155
  0
ARC
  5
11229
  8
0
 10
4202.0045545695620604
 20
249.1666457411942019
 30
0.0
 40
0.0359154315349884
 50
351.3163852515049825
 51
30.3215266097460194
  0
LINE
  5
1122A
  8
0
 10
4202.0400583062200894
 20
249.1612232965761109
 30
0.0
 11
4202.0340593078935854
 21
249.1274263662255919
 31
0.0
  0
ARC
  5
1122B
  8
0
 10
4201.9831635383479806
 20
249.1334355986099922
 30
0.0
 40
0.0512492949379738
 50
353.2662970031043983
 51
44.9297726543049407
  0
ARC
  5
1122C
  8
0
 10
4201.9658671569877697
 20
249.1119739990967901
 30
0.0
 40
0.0787080853927483
 50
47.0987483063975674
 51
139.9811637229045118
  0
ARC
  5
1122D
  8
0
 10
4201.9488410681378809
 20
249.1322650598742996
 30
0.0
 40
0.0528208965809964
 50
144.9675257771407928
 51
190.2354999015927888
  0
ARC
  5
1122E
  8
0
 10
4201.9788738620391086
 20
247.0279454266110974
 30
0.0
 40
0.0163075007456071
 50
312.4321467855895094
 51
37.5996950543657888
  0
ARC
  5
1122F
  8
0
 10
4201.9717436154278403
 20
247.0355689051415027
 30
0.0
 40
0.0267453745564015
 50
217.5923314898375054
 51
312.6870406153066142
  0
ARC
  5
11230
  8
0
 10
4201.963834806642808
 20
247.0280022821312969
 30
0.0
 40
0.0159058808922801
 50
153.7770878470593914
 51
213.370753392617587
  0
ARC
  5
11231
  8
0
 10
4201.9717393352730141
 20
247.0208485690118039
 30
0.0
 40
0.0263208626609977
 50
40.3647263624312416
 51
147.397293657207797
  0
ARC
  5
11232
  8
0
 10
4201.9778364446538035
 20
247.0477009555089012
 30
0.0
 40
0.0638081396133301
 50
297.0523826459931911
 51
345.8703988503667119
  0
ARC
  5
11233
  8
0
 10
4201.9711603039795591
 20
247.0784690534179902
 30
0.0
 40
0.0945892540343133
 50
239.1918360515417135
 51
292.1716863631202727
  0
ARC
  5
11234
  8
0
 10
4201.9463704362960925
 20
247.0348683566247985
 30
0.0
 40
0.0444568211776321
 50
189.4396215744135077
 51
237.8525666187931904
  0
LINE
  5
11235
  8
0
 10
4201.9025156057614367
 20
247.0275770749904893
 30
0.0
 11
4201.8981364904866496
 21
247.0477405880936033
 31
0.0
  0
ARC
  5
11236
  8
0
 10
4201.9482176714845991
 20
247.0502563947547969
 30
0.0
 40
0.0501443314175578
 50
121.4836442636237024
 51
182.8758115025869984
  0
ARC
  5
11237
  8
0
 10
4201.9858794649580886
 20
247.0026242247670893
 30
0.0
 40
0.110670766280392
 50
86.1659941621973076
 51
125.235311483244999
  0
ARC
  5
11238
  8
0
 10
4201.9929564556287005
 20
247.0518699580991893
 30
0.0
 40
0.061178200499301
 50
37.9295526475489879
 51
89.6973732047843555
  0
ARC
  5
11239
  8
0
 10
4202.0102093960849743
 20
247.0713437393796994
 30
0.0
 40
0.0359154315349884
 50
351.3163852515049825
 51
30.3215266097460194
  0
LINE
  5
1123A
  8
0
 10
4202.0457131327439129
 20
247.0659212947616084
 30
0.0
 11
4202.0397141344192278
 21
247.032124364411203
 31
0.0
  0
ARC
  5
1123B
  8
0
 10
4201.9888183648708946
 20
247.0381335967954897
 30
0.0
 40
0.0512492949379738
 50
353.2662970031043983
 51
44.9297726543049407
  0
ARC
  5
1123C
  8
0
 10
4201.9715219835097741
 20
247.0166719972822023
 30
0.0
 40
0.0787080853927483
 50
47.0987483063975674
 51
139.9811637229045118
  0
ARC
  5
1123D
  8
0
 10
4201.9544958946617044
 20
247.0369630580597118
 30
0.0
 40
0.0528208965809964
 50
144.9675257771407928
 51
190.2354999015927888
  0
ARC
  5
1123E
  8
0
 10
4202.0337590006583923
 20
246.8388621620752872
 30
0.0
 40
0.0163075007456071
 50
312.4321467855895094
 51
37.5996950543657888
  0
ARC
  5
1123F
  8
0
 10
4202.0266287540471239
 20
246.8464856406056072
 30
0.0
 40
0.0267453745564015
 50
217.5923314898375054
 51
312.6870406153066142
  0
ARC
  5
11240
  8
0
 10
4202.0187199452630011
 20
246.8389190175956003
 30
0.0
 40
0.0159058808922801
 50
153.7770878470593914
 51
213.370753392617587
  0
ARC
  5
11241
  8
0
 10
4202.0266244738932073
 20
246.8317653044759084
 30
0.0
 40
0.0263208626609977
 50
40.3647263624312416
 51
147.397293657207797
  0
ARC
  5
11242
  8
0
 10
4202.0327215832739967
 20
246.8586176909730909
 30
0.0
 40
0.0638081396133301
 50
297.0523826459931911
 51
345.8703988503667119
  0
ARC
  5
11243
  8
0
 10
4202.0260454426006618
 20
246.8893857888822083
 30
0.0
 40
0.0945892540343133
 50
239.1918360515417135
 51
292.1716863631202727
  0
ARC
  5
11244
  8
0
 10
4202.0012555749171952
 20
246.8457850920889882
 30
0.0
 40
0.0444568211776321
 50
189.4396215744135077
 51
237.8525666187931904
  0
LINE
  5
11245
  8
0
 10
4201.9574007443798109
 20
246.8384938104547075
 30
0.0
 11
4201.9530216291068427
 21
246.8586573235579067
 31
0.0
  0
ARC
  5
11246
  8
0
 10
4202.0031028101047923
 20
246.8611731302191004
 30
0.0
 40
0.0501443314175578
 50
121.4836442636237024
 51
182.8758115025869984
  0
ARC
  5
11247
  8
0
 10
4202.0407646035791913
 20
246.8135409602313075
 30
0.0
 40
0.110670766280392
 50
86.1659941621973076
 51
125.235311483244999
  0
ARC
  5
11248
  8
0
 10
4202.0478415942488937
 20
246.8627866935634074
 30
0.0
 40
0.061178200499301
 50
37.9295526475489879
 51
89.6973732047843555
  0
ARC
  5
11249
  8
0
 10
4202.0650945347069865
 20
246.8822604748438039
 30
0.0
 40
0.0359154315349884
 50
351.3163852515049825
 51
30.3215266097460194
  0
LINE
  5
1124A
  8
0
 10
4202.1005982713650155
 20
246.8768380302257128
 30
0.0
 11
4202.094599273037602
 21
246.8430410998753075
 31
0.0
  0
ARC
  5
1124B
  8
0
 10
4202.0437035034919973
 20
246.8490503322597078
 30
0.0
 40
0.0512492949379738
 50
353.2662970031043983
 51
44.9297726543049407
  0
ARC
  5
1124C
  8
0
 10
4202.0264071221308768
 20
246.827588732746392
 30
0.0
 40
0.0787080853927483
 50
47.0987483063975674
 51
139.9811637229045118
  0
ARC
  5
1124D
  8
0
 10
4202.009381033282807
 20
246.8478797935239868
 30
0.0
 40
0.0528208965809964
 50
144.9675257771407928
 51
190.2354999015927888
  0
ARC
  5
1124E
  8
0
 10
4201.8729344602188576
 20
246.622648946334607
 30
0.0
 40
0.0163075007456071
 50
312.4321467855895094
 51
37.5996950543657888
  0
ARC
  5
1124F
  8
0
 10
4201.8658042136066797
 20
246.6302724248650975
 30
0.0
 40
0.0267453745564015
 50
217.5923314898375054
 51
312.6870406153066142
  0
ARC
  5
11250
  8
0
 10
4201.8578954048225569
 20
246.6227058018550053
 30
0.0
 40
0.0159058808922801
 50
153.7770878470593914
 51
213.370753392617587
  0
ARC
  5
11251
  8
0
 10
4201.8657999334527631
 20
246.6155520887355124
 30
0.0
 40
0.0263208626609977
 50
40.3647263624312416
 51
147.397293657207797
  0
ARC
  5
11252
  8
0
 10
4201.8718970428335524
 20
246.6424044752326097
 30
0.0
 40
0.0638081396133301
 50
297.0523826459931911
 51
345.8703988503667119
  0
ARC
  5
11253
  8
0
 10
4201.8652209021602175
 20
246.6731725731416986
 30
0.0
 40
0.0945892540343133
 50
239.1918360515417135
 51
292.1716863631202727
  0
ARC
  5
11254
  8
0
 10
4201.8404310344767509
 20
246.629571876348507
 30
0.0
 40
0.0444568211776321
 50
189.4396215744135077
 51
237.8525666187931904
  0
LINE
  5
11255
  8
0
 10
4201.7965762039411857
 20
246.6222805947141978
 30
0.0
 11
4201.792197088667308
 21
246.6424441078173118
 31
0.0
  0
ARC
  5
11256
  8
0
 10
4201.8422782696652575
 20
246.6449599144787044
 30
0.0
 40
0.0501443314175578
 50
121.4836442636237024
 51
182.8758115025869984
  0
ARC
  5
11257
  8
0
 10
4201.8799400631387471
 20
246.5973277444907978
 30
0.0
 40
0.110670766280392
 50
86.1659941621973076
 51
125.235311483244999
  0
ARC
  5
11258
  8
0
 10
4201.8870170538093589
 20
246.6465734778228978
 30
0.0
 40
0.061178200499301
 50
37.9295526475489879
 51
89.6973732047843555
  0
ARC
  5
11259
  8
0
 10
4201.9042699942647232
 20
246.6660472591032089
 30
0.0
 40
0.0359154315349884
 50
351.3163852515049825
 51
30.3215266097460194
  0
LINE
  5
1125A
  8
0
 10
4201.9397737309236618
 20
246.6606248144852884
 30
0.0
 11
4201.9337747325989767
 21
246.6268278841347978
 31
0.0
  0
ARC
  5
1125B
  8
0
 10
4201.882878963051553
 20
246.6328371165189992
 30
0.0
 40
0.0512492949379738
 50
353.2662970031043983
 51
44.9297726543049407
  0
ARC
  5
1125C
  8
0
 10
4201.8655825816913421
 20
246.6113755170059108
 30
0.0
 40
0.0787080853927483
 50
47.0987483063975674
 51
139.9811637229045118
  0
ARC
  5
1125D
  8
0
 10
4201.8485564928423628
 20
246.6316665777833919
 30
0.0
 40
0.0528208965809964
 50
144.9675257771407928
 51
190.2354999015927888
  0
ARC
  5
1125E
  8
0
 10
4201.6328852043279767
 20
246.9909957389214128
 30
0.0
 40
0.0163075007456071
 50
312.4321467855895094
 51
37.5996950543657888
  0
ARC
  5
1125F
  8
0
 10
4201.6257549577176178
 20
246.9986192174517896
 30
0.0
 40
0.0267453745564015
 50
217.5923314898375054
 51
312.6870406153066142
  0
ARC
  5
11260
  8
0
 10
4201.617846148931676
 20
246.9910525944418112
 30
0.0
 40
0.0159058808922801
 50
153.7770878470593914
 51
213.370753392617587
  0
ARC
  5
11261
  8
0
 10
4201.6257506775627917
 20
246.9838988813222045
 30
0.0
 40
0.0263208626609977
 50
40.3647263624312416
 51
147.397293657207797
  0
ARC
  5
11262
  8
0
 10
4201.631847786943581
 20
247.0107512678191881
 30
0.0
 40
0.0638081396133301
 50
297.0523826459931911
 51
345.8703988503667119
  0
ARC
  5
11263
  8
0
 10
4201.6251716462711556
 20
247.0415193657283908
 30
0.0
 40
0.0945892540343133
 50
239.1918360515417135
 51
292.1716863631202727
  0
ARC
  5
11264
  8
0
 10
4201.6003817785858701
 20
246.9979186689351138
 30
0.0
 40
0.0444568211776321
 50
189.4396215744135077
 51
237.8525666187931904
  0
LINE
  5
11265
  8
0
 10
4201.5565269480512143
 20
246.9906273873008899
 30
0.0
 11
4201.5521478327773366
 21
247.0107909004040039
 31
0.0
  0
ARC
  5
11266
  8
0
 10
4201.6022290137761956
 20
247.0133067070653112
 30
0.0
 40
0.0501443314175578
 50
121.4836442636237024
 51
182.8758115025869984
  0
ARC
  5
11267
  8
0
 10
4201.6398908072487757
 20
246.9656745370774047
 30
0.0
 40
0.110670766280392
 50
86.1659941621973076
 51
125.235311483244999
  0
ARC
  5
11268
  8
0
 10
4201.646967797920297
 20
247.0149202704095046
 30
0.0
 40
0.061178200499301
 50
37.9295526475489879
 51
89.6973732047843555
  0
ARC
  5
11269
  8
0
 10
4201.6642207383756613
 20
247.0343940516899863
 30
0.0
 40
0.0359154315349884
 50
351.3163852515049825
 51
30.3215266097460194
  0
LINE
  5
1126A
  8
0
 10
4201.6997244750345999
 20
247.0289716070718953
 30
0.0
 11
4201.6937254767099148
 21
246.9951746767214047
 31
0.0
  0
ARC
  5
1126B
  8
0
 10
4201.6428297071634006
 20
247.001183909105805
 30
0.0
 40
0.0512492949379738
 50
353.2662970031043983
 51
44.9297726543049407
  0
ARC
  5
1126C
  8
0
 10
4201.6255333258022802
 20
246.9797223095926881
 30
0.0
 40
0.0787080853927483
 50
47.0987483063975674
 51
139.9811637229045118
  0
ARC
  5
1126D
  8
0
 10
4201.6085072369542104
 20
247.0000133703701977
 30
0.0
 40
0.0528208965809964
 50
144.9675257771407928
 51
190.2354999015927888
  0
ARC
  5
1126E
  8
0
 10
4201.6328827648294464
 20
246.797748253727093
 30
0.0
 40
0.0163075007456071
 50
312.4321467855895094
 51
37.5996950543657888
  0
ARC
  5
1126F
  8
0
 10
4201.6257525182190875
 20
246.805371732257413
 30
0.0
 40
0.0267453745564015
 50
217.5923314898375054
 51
312.6870406153066142
  0
ARC
  5
11270
  8
0
 10
4201.6178437094331457
 20
246.7978051092472924
 30
0.0
 40
0.0159058808922801
 50
153.7770878470593914
 51
213.370753392617587
  0
ARC
  5
11271
  8
0
 10
4201.6257482380633519
 20
246.7906513961279131
 30
0.0
 40
0.0263208626609977
 50
40.3647263624312416
 51
147.397293657207797
  0
ARC
  5
11272
  8
0
 10
4201.6318453474432317
 20
246.8175037826248968
 30
0.0
 40
0.0638081396133301
 50
297.0523826459931911
 51
345.8703988503667119
  0
ARC
  5
11273
  8
0
 10
4201.6251692067708063
 20
246.8482718805340141
 30
0.0
 40
0.0945892540343133
 50
239.1918360515417135
 51
292.1716863631202727
  0
ARC
  5
11274
  8
0
 10
4201.6003793390873398
 20
246.804671183740794
 30
0.0
 40
0.0444568211776321
 50
189.4396215744135077
 51
237.8525666187931904
  0
LINE
  5
11275
  8
0
 10
4201.556524508550865
 20
246.7973799021065986
 30
0.0
 11
4201.5521453932778968
 21
246.8175434152097125
 31
0.0
  0
ARC
  5
11276
  8
0
 10
4201.6022265742758464
 20
246.8200592218709915
 30
0.0
 40
0.0501443314175578
 50
121.4836442636237024
 51
182.8758115025869984
  0
ARC
  5
11277
  8
0
 10
4201.6398883677502454
 20
246.7724270518831986
 30
0.0
 40
0.110670766280392
 50
86.1659941621973076
 51
125.235311483244999
  0
ARC
  5
11278
  8
0
 10
4201.6469653584199477
 20
246.8216727852152133
 30
0.0
 40
0.061178200499301
 50
37.9295526475489879
 51
89.6973732047843555
  0
ARC
  5
11279
  8
0
 10
4201.664218298875312
 20
246.8411465664956097
 30
0.0
 40
0.0359154315349884
 50
351.3163852515049825
 51
30.3215266097460194
  0
LINE
  5
1127A
  8
0
 10
4201.6997220355342506
 20
246.8357241218776892
 30
0.0
 11
4201.6937230372077465
 21
246.8019271915271133
 31
0.0
  0
ARC
  5
1127B
  8
0
 10
4201.6428272676621418
 20
246.8079364239115137
 30
0.0
 40
0.0512492949379738
 50
353.2662970031043983
 51
44.9297726543049407
  0
ARC
  5
1127C
  8
0
 10
4201.6255308863019309
 20
246.7864748243981978
 30
0.0
 40
0.0787080853927483
 50
47.0987483063975674
 51
139.9811637229045118
  0
ARC
  5
1127D
  8
0
 10
4201.6085047974520421
 20
246.8067658851757926
 30
0.0
 40
0.0528208965809964
 50
144.9675257771407928
 51
190.2354999015927888
  0
ARC
  5
1127E
  8
0
 10
4201.6981375125333216
 20
247.9895999127396067
 30
0.0
 40
0.1930069620747613
 50
319.5906313813864017
 51
60.08907017576675
  0
ARC
  5
1127F
  8
0
 10
4186.5956499386811629
 20
244.6133103156739992
 30
0.0
 40
15.6521638429437999
 50
0.2609941622744191
 51
6.5093432337331656
  0
ARC
  5
11280
  8
0
 10
4185.1687922676737799
 20
244.9206644447438919
 30
0.0
 40
17.0804903669826196
 50
352.2463985600223282
 51
359.2081365677786948
  0
ARC
  5
11281
  8
0
 10
4203.7360318750706938
 20
242.3545461334921924
 30
0.0
 40
1.663627042657345
 50
170.9481845357611007
 51
183.0995907853157973
  0
ARC
  5
11282
  8
0
 10
4202.0006701809716105
 20
242.1178626113598966
 30
0.0
 40
0.2135672812542478
 50
355.8650023592235243
 51
70.2645523249202881
  0
ARC
  5
11283
  8
0
 10
4201.9399005862160266
 20
242.2083072134369957
 30
0.0
 40
0.2935285453353566
 50
284.3434418818338258
 51
338.8634036533961194
  0
ARC
  5
11284
  8
0
 10
4201.6619893061360926
 20
246.679060619603689
 30
0.0
 40
0.0444683327080971
 50
351.2738774603425895
 51
83.4130497510521849
  0
ARC
  5
11285
  8
0
 10
4164.9905318784431074
 20
246.4911390508090108
 30
0.0
 40
36.7158580407358528
 50
359.2396220988409823
 51
0.2827284363469679
  0
ARC
  5
11286
  8
0
 10
4201.6629952032244546
 20
246.0038829322380991
 30
0.0
 40
0.0401615289099366
 50
270.4243723889524063
 51
0.015227167317329
  0
ARC
  5
11287
  8
0
 10
4201.7306584067282529
 20
246.4239416698704019
 30
0.0
 40
0.0291021835634396
 50
97.8256168723529953
 51
146.6296123726000076
  0
ARC
  5
11288
  8
0
 10
4200.8725947009597803
 20
248.3204566492383094
 30
0.0
 40
1.650460910614193
 50
159.4771489171334053
 51
179.593739396891209
  0
ARC
  5
11289
  8
0
 10
4200.9964051698516414
 20
248.3433911705317882
 30
0.0
 40
1.7742654418249939
 50
180.3627100725692003
 51
227.0790983394736884
  0
ARC
  5
1128A
  8
0
 10
4201.5590064425596211
 20
247.5788257567068911
 30
0.0
 40
2.4148958984952311
 50
102.0788021767394014
 51
123.1253325540693027
  0
ARC
  5
1128B
  8
0
 10
4201.2481752801741095
 20
248.0356588446144031
 30
0.0
 40
1.8624785416872069
 50
122.7971681025517938
 51
151.9855189978536032
  0
ARC
  5
1128C
  8
0
 10
4200.9078102515886712
 20
248.2265574290728125
 30
0.0
 40
1.4723558868036219
 50
152.3226413511357862
 51
187.2636868752395003
  0
ARC
  5
1128D
  8
0
 10
4201.1323649434852996
 20
248.3069772772842896
 30
0.0
 40
1.706050380651466
 50
188.9895772036136066
 51
237.0518119358301874
  0
ARC
  5
1128E
  8
0
 10
4201.552071993496611
 20
247.5860470002596969
 30
0.0
 40
2.4218215752215682
 50
103.2315300522561046
 51
123.5073558866180008
  0
ARC
  5
1128F
  8
0
 10
4201.1394446986114417
 20
248.1434418407042983
 30
0.0
 40
1.7296509518708101
 50
122.3032065189492954
 51
162.9646713328386056
  0
ARC
  5
11290
  8
0
 10
4200.8462990463885944
 20
248.2110370176945935
 30
0.0
 40
1.4297224420234069
 50
162.1130136081675062
 51
208.7064637272839889
  0
ARC
  5
11291
  8
0
 10
4201.3352046028412587
 20
248.4971148437317936
 30
0.0
 40
1.9960119936391929
 50
209.1681692861824047
 51
247.2911402166965047
  0
ARC
  5
11292
  8
0
 10
4201.3777241264106124
 20
248.0864506190090992
 30
0.0
 40
0.8535510652158494
 50
185.880459349680109
 51
238.4220120320696026
  0
ARC
  5
11293
  8
0
 10
4201.3701759327996115
 20
248.0193906917207869
 30
0.0
 40
0.84175830038076
 50
119.5825666756500993
 51
181.3879620724337087
  0
ARC
  5
11294
  8
0
 10
4201.2211687429071389
 20
248.5400000885337874
 30
0.0
 40
1.928016804910311
 50
142.6993808035398104
 51
169.2664789976765007
  0
ARC
  5
11295
  8
0
 10
4201.3932208308160625
 20
248.3657273631494888
 30
0.0
 40
2.170759332773526
 50
115.4088457959899046
 51
141.7922973704419007
  0
ARC
  5
11296
  8
0
 10
4201.5890925476242046
 20
247.992705621619308
 30
0.0
 40
2.5917968161369132
 50
101.8867809985082005
 51
115.7818022250924059
  0
ARC
  5
11297
  8
0
 10
4200.1608880116791624
 20
247.1659416480424909
 30
0.0
 40
0.0163075007456071
 50
142.4003049456341898
 51
227.5678532144104906
  0
ARC
  5
11298
  8
0
 10
4200.1680182582904308
 20
247.1735651265728961
 30
0.0
 40
0.0267453745564015
 50
227.3129593846933005
 51
322.407668510162523
  0
ARC
  5
11299
  8
0
 10
4200.1759270670772821
 20
247.1659985035628893
 30
0.0
 40
0.0159058808922801
 50
326.629246607382413
 51
26.2229121529406406
  0
ARC
  5
1129A
  8
0
 10
4200.1680225384452569
 20
247.158844790443311
 30
0.0
 40
0.0263208626609977
 50
32.6027063427922101
 51
139.6352736375687016
  0
ARC
  5
1129B
  8
0
 10
4200.1619254290653771
 20
247.1856971769404083
 30
0.0
 40
0.0638081396133301
 50
194.1296011496332881
 51
242.9476173540066952
  0
ARC
  5
1129C
  8
0
 10
4200.1686015697378025
 20
247.2164652748494973
 30
0.0
 40
0.0945892540343133
 50
247.8283136368796988
 51
300.8081639484581729
  0
ARC
  5
1129D
  8
0
 10
4200.1933914374212691
 20
247.1728645780563909
 30
0.0
 40
0.0444568211776321
 50
302.1474333812068949
 51
350.5603784255847017
  0
LINE
  5
1129E
  8
0
 10
4200.2372462679577438
 20
247.1655732964219965
 30
0.0
 11
4200.2416253832298025
 21
247.1857368095251957
 31
0.0
  0
ARC
  5
1129F
  8
0
 10
4200.191544202231853
 20
247.188252616186503
 30
0.0
 40
0.0501443314175578
 50
357.12418849741141
 51
58.5163557363762834
  0
ARC
  5
112A0
  8
0
 10
4200.1538824087592729
 20
247.1406204461985965
 30
0.0
 40
0.110670766280392
 50
54.7646885167549584
 51
93.8340058378027067
  0
ARC
  5
112A1
  8
0
 10
4200.1468054180877516
 20
247.1898661795306111
 30
0.0
 40
0.061178200499301
 50
90.3026267952156303
 51
142.0704473524509979
  0
ARC
  5
112A2
  8
0
 10
4200.1295524776323873
 20
247.2093399608108939
 30
0.0
 40
0.0359154315349884
 50
149.6784733902539131
 51
188.6836147484933974
  0
LINE
  5
112A3
  8
0
 10
4200.0940487409734487
 20
247.2039175161930871
 30
0.0
 11
4200.1000477392999528
 21
247.1701205858427102
 31
0.0
  0
ARC
  5
112A4
  8
0
 10
4200.1509435088473765
 20
247.1761298182267979
 30
0.0
 40
0.0512492949379738
 50
135.0702273456950877
 51
186.73370299689239
  0
ARC
  5
112A5
  8
0
 10
4200.168239890206678
 20
247.1546682187137947
 30
0.0
 40
0.0787080853927483
 50
40.0188362770955024
 51
132.9012516936024042
  0
ARC
  5
112A6
  8
0
 10
4200.1852659790547477
 20
247.1749592794913042
 30
0.0
 40
0.0528208965809964
 50
349.7645000984072112
 51
35.0324742228592214
  0
ARC
  5
112A7
  8
0
 10
4201.5105438426890032
 20
248.8502141743342975
 30
0.0
 40
2.495728487619588
 50
226.3591190775541122
 51
270.799626803639228
  0
ARC
  5
112A8
  8
0
 10
4201.5951363619860786
 20
248.9465994927105044
 30
0.0
 40
2.4948179637690102
 50
236.1225120011210095
 51
268.3847690463626918
  0
ARC
  5
112A9
  8
0
 10
4201.6103813485206047
 20
249.0400976383602938
 30
0.0
 40
2.6035091945888329
 50
246.3177880497318881
 51
268.5644997127619149
  0
ARC
  5
112AA
  8
0
 10
4200.9462782071423135
 20
247.1378676716722964
 30
0.0
 40
0.0163075007456071
 50
142.4003049456341898
 51
227.5678532144104906
  0
ARC
  5
112AB
  8
0
 10
4200.9534084537526724
 20
247.1454911502027869
 30
0.0
 40
0.0267453745564015
 50
227.3129593846933005
 51
322.407668510162523
  0
ARC
  5
112AC
  8
0
 10
4200.9613172625377047
 20
247.1379245271926948
 30
0.0
 40
0.0159058808922801
 50
326.629246607382413
 51
26.2229121529406406
  0
ARC
  5
112AD
  8
0
 10
4200.953412733908408
 20
247.1307708140732018
 30
0.0
 40
0.0263208626609977
 50
32.6027063427922101
 51
139.6352736375687016
  0
ARC
  5
112AE
  8
0
 10
4200.9473156245267091
 20
247.1576232005702991
 30
0.0
 40
0.0638081396133301
 50
194.1296011496332881
 51
242.9476173540066952
  0
ARC
  5
112AF
  8
0
 10
4200.9539917652009535
 20
247.1883912984793881
 30
0.0
 40
0.0945892540343133
 50
247.8283136368796988
 51
300.8081639484581729
  0
ARC
  5
112B0
  8
0
 10
4200.9787816328853296
 20
247.1447906016861111
 30
0.0
 40
0.0444568211776321
 50
302.1474333812068949
 51
350.5603784255847017
  0
LINE
  5
112B1
  8
0
 10
4201.0226364634218044
 20
247.1374993200518873
 30
0.0
 11
4201.0270155786938631
 21
247.1576628331550864
 31
0.0
  0
ARC
  5
112B2
  8
0
 10
4200.9769343976959135
 20
247.1601786398163085
 30
0.0
 40
0.0501443314175578
 50
357.12418849741141
 51
58.5163557363762834
  0
ARC
  5
112B3
  8
0
 10
4200.9392726042233335
 20
247.1125464698284873
 30
0.0
 40
0.110670766280392
 50
54.7646885167549584
 51
93.8340058378027067
  0
ARC
  5
112B4
  8
0
 10
4200.9321956135509026
 20
247.1617922031605019
 30
0.0
 40
0.061178200499301
 50
90.3026267952156303
 51
142.0704473524509979
  0
ARC
  5
112B5
  8
0
 10
4200.9149426730964478
 20
247.1812659844408984
 30
0.0
 40
0.0359154315349884
 50
149.6784733902539131
 51
188.6836147484933974
  0
LINE
  5
112B6
  8
0
 10
4200.8794389364365998
 20
247.1758435398230063
 30
0.0
 11
4200.8854379347621943
 21
247.1420466094724873
 31
0.0
  0
ARC
  5
112B7
  8
0
 10
4200.9363337043087085
 20
247.1480558418568023
 30
0.0
 40
0.0512492949379738
 50
135.0702273456950877
 51
186.73370299689239
  0
ARC
  5
112B8
  8
0
 10
4200.953630085669829
 20
247.1265942423436002
 30
0.0
 40
0.0787080853927483
 50
40.0188362770955024
 51
132.9012516936024042
  0
ARC
  5
112B9
  8
0
 10
4200.9706561745188083
 20
247.1468853031211097
 30
0.0
 40
0.0528208965809964
 50
349.7645000984072112
 51
35.0324742228592214
  0
ARC
  5
112BA
  8
0
 10
4200.8406812953453482
 20
246.9594232774832108
 30
0.0
 40
0.0163075007456071
 50
142.4003049456341898
 51
227.5678532144104906
  0
ARC
  5
112BB
  8
0
 10
4200.8478115419557071
 20
246.9670467560135023
 30
0.0
 40
0.0267453745564015
 50
227.3129593846933005
 51
322.407668510162523
  0
ARC
  5
112BC
  8
0
 10
4200.8557203507407394
 20
246.9594801330034954
 30
0.0
 40
0.0159058808922801
 50
326.629246607382413
 51
26.2229121529406406
  0
ARC
  5
112BD
  8
0
 10
4200.8478158221123522
 20
246.9523264198838888
 30
0.0
 40
0.0263208626609977
 50
32.6027063427922101
 51
139.6352736375687016
  0
ARC
  5
112BE
  8
0
 10
4200.8417187127306534
 20
246.9791788063809861
 30
0.0
 40
0.0638081396133301
 50
194.1296011496332881
 51
242.9476173540066952
  0
ARC
  5
112BF
  8
0
 10
4200.8483948534039882
 20
247.0099469042901035
 30
0.0
 40
0.0945892540343133
 50
247.8283136368796988
 51
300.8081639484581729
  0
ARC
  5
112C0
  8
0
 10
4200.8731847210883643
 20
246.9663462074969118
 30
0.0
 40
0.0444568211776321
 50
302.1474333812068949
 51
350.5603784255847017
  0
LINE
  5
112C1
  8
0
 10
4200.9170395516248391
 20
246.9590549258626027
 30
0.0
 11
4200.9214186668968978
 21
246.9792184389658019
 31
0.0
  0
ARC
  5
112C2
  8
0
 10
4200.8713374858989482
 20
246.9817342456269955
 30
0.0
 40
0.0501443314175578
 50
357.12418849741141
 51
58.5163557363762834
  0
ARC
  5
112C3
  8
0
 10
4200.8336756924263682
 20
246.9341020756392027
 30
0.0
 40
0.110670766280392
 50
54.7646885167549584
 51
93.8340058378027067
  0
ARC
  5
112C4
  8
0
 10
4200.8265987017548468
 20
246.9833478089713026
 30
0.0
 40
0.061178200499301
 50
90.3026267952156303
 51
142.0704473524509979
  0
ARC
  5
112C5
  8
0
 10
4200.8093457612985731
 20
247.002821590251699
 30
0.0
 40
0.0359154315349884
 50
149.6784733902539131
 51
188.6836147484933974
  0
LINE
  5
112C6
  8
0
 10
4200.7738420246396345
 20
246.9973991456336933
 30
0.0
 11
4200.7798410229661386
 21
246.9636022152832879
 31
0.0
  0
ARC
  5
112C7
  8
0
 10
4200.8307367925126528
 20
246.969611447667603
 30
0.0
 40
0.0512492949379738
 50
135.0702273456950877
 51
186.73370299689239
  0
ARC
  5
112C8
  8
0
 10
4200.8480331738737732
 20
246.9481498481544008
 30
0.0
 40
0.0787080853927483
 50
40.0188362770955024
 51
132.9012516936024042
  0
ARC
  5
112C9
  8
0
 10
4200.865059262721843
 20
246.9684409089317114
 30
0.0
 40
0.0528208965809964
 50
349.7645000984072112
 51
35.0324742228592214
  0
ARC
  5
112CA
  8
0
 10
4200.9220135380419379
 20
246.71798959249071
 30
0.0
 40
0.0163075007456071
 50
142.4003049456341898
 51
227.5678532144104906
  0
ARC
  5
112CB
  8
0
 10
4200.9291437846541157
 20
246.7256130710210869
 30
0.0
 40
0.0267453745564015
 50
227.3129593846933005
 51
322.407668510162523
  0
ARC
  5
112CC
  8
0
 10
4200.9370525934400575
 20
246.7180464480109947
 30
0.0
 40
0.0159058808922801
 50
326.629246607382413
 51
26.2229121529406406
  0
ARC
  5
112CD
  8
0
 10
4200.9291480648098513
 20
246.7108927348915017
 30
0.0
 40
0.0263208626609977
 50
32.6027063427922101
 51
139.6352736375687016
  0
ARC
  5
112CE
  8
0
 10
4200.923050955429062
 20
246.7377451213885138
 30
0.0
 40
0.0638081396133301
 50
194.1296011496332881
 51
242.9476173540066952
  0
ARC
  5
112CF
  8
0
 10
4200.9297270961023969
 20
246.7685132192976027
 30
0.0
 40
0.0945892540343133
 50
247.8283136368796988
 51
300.8081639484581729
  0
ARC
  5
112D0
  8
0
 10
4200.954516963784954
 20
246.7249125225044111
 30
0.0
 40
0.0444568211776321
 50
302.1474333812068949
 51
350.5603784255847017
  0
LINE
  5
112D1
  8
0
 10
4200.9983717943223382
 20
246.7176212408701872
 30
0.0
 11
4201.0027509095953064
 21
246.7377847539733011
 31
0.0
  0
ARC
  5
112D2
  8
0
 10
4200.9526697285973569
 20
246.7403005606346085
 30
0.0
 40
0.0501443314175578
 50
357.12418849741141
 51
58.5163557363762834
  0
ARC
  5
112D3
  8
0
 10
4200.9150079351229579
 20
246.6926683906467872
 30
0.0
 40
0.110670766280392
 50
54.7646885167549584
 51
93.8340058378027067
  0
ARC
  5
112D4
  8
0
 10
4200.907930944452346
 20
246.7419141239788019
 30
0.0
 40
0.061178200499301
 50
90.3026267952156303
 51
142.0704473524509979
  0
ARC
  5
112D5
  8
0
 10
4200.8906780039969817
 20
246.7613879052591983
 30
0.0
 40
0.0359154315349884
 50
149.6784733902539131
 51
188.6836147484933974
  0
LINE
  5
112D6
  8
0
 10
4200.8551742673380431
 20
246.7559654606413915
 30
0.0
 11
4200.8611732656627282
 21
246.7221685302907872
 31
0.0
  0
ARC
  5
112D7
  8
0
 10
4200.9120690352110614
 20
246.7281777626751023
 30
0.0
 40
0.0512492949379738
 50
135.0702273456950877
 51
186.73370299689239
  0
ARC
  5
112D8
  8
0
 10
4200.9293654165721819
 20
246.7067161631617864
 30
0.0
 40
0.0787080853927483
 50
40.0188362770955024
 51
132.9012516936024042
  0
ARC
  5
112D9
  8
0
 10
4200.9463915054193421
 20
246.7270072239394096
 30
0.0
 40
0.0528208965809964
 50
349.7645000984072112
 51
35.0324742228592214
  0
ARC
  5
112DA
  8
0
 10
4200.5012957291619387
 20
246.9053393432824919
 30
0.0
 40
0.0163075007456071
 50
142.4003049456341898
 51
227.5678532144104906
  0
ARC
  5
112DB
  8
0
 10
4200.5084259757722975
 20
246.9129628218128971
 30
0.0
 40
0.0267453745564015
 50
227.3129593846933005
 51
322.407668510162523
  0
ARC
  5
112DC
  8
0
 10
4200.5163347845582393
 20
246.905396198802805
 30
0.0
 40
0.0159058808922801
 50
326.629246607382413
 51
26.2229121529406406
  0
ARC
  5
112DD
  8
0
 10
4200.5084302559280331
 20
246.898242485683312
 30
0.0
 40
0.0263208626609977
 50
32.6027063427922101
 51
139.6352736375687016
  0
ARC
  5
112DE
  8
0
 10
4200.5023331465472438
 20
246.9250948721804093
 30
0.0
 40
0.0638081396133301
 50
194.1296011496332881
 51
242.9476173540066952
  0
ARC
  5
112DF
  8
0
 10
4200.5090092872205787
 20
246.9558629700894983
 30
0.0
 40
0.0945892540343133
 50
247.8283136368796988
 51
300.8081639484581729
  0
ARC
  5
112E0
  8
0
 10
4200.5337991549040453
 20
246.9122622732963066
 30
0.0
 40
0.0444568211776321
 50
302.1474333812068949
 51
350.5603784255847017
  0
LINE
  5
112E1
  8
0
 10
4200.5776539854396106
 20
246.9049709916621111
 30
0.0
 11
4200.5820331007125787
 21
246.9251345047651967
 31
0.0
  0
ARC
  5
112E2
  8
0
 10
4200.5319519197164482
 20
246.927650311426504
 30
0.0
 40
0.0501443314175578
 50
357.12418849741141
 51
58.5163557363762834
  0
ARC
  5
112E3
  8
0
 10
4200.4942901262420492
 20
246.8800181414385975
 30
0.0
 40
0.110670766280392
 50
54.7646885167549584
 51
93.8340058378027067
  0
ARC
  5
112E4
  8
0
 10
4200.4872131355696183
 20
246.9292638747706974
 30
0.0
 40
0.061178200499301
 50
90.3026267952156303
 51
142.0704473524509979
  0
ARC
  5
112E5
  8
0
 10
4200.4699601951151635
 20
246.9487376560510086
 30
0.0
 40
0.0359154315349884
 50
149.6784733902539131
 51
188.6836147484933974
  0
LINE
  5
112E6
  8
0
 10
4200.4344564584562249
 20
246.9433152114330881
 30
0.0
 11
4200.4404554567818195
 21
246.9095182810825975
 31
0.0
  0
ARC
  5
112E7
  8
0
 10
4200.4913512263292432
 20
246.9155275134669125
 30
0.0
 40
0.0512492949379738
 50
135.0702273456950877
 51
186.73370299689239
  0
ARC
  5
112E8
  8
0
 10
4200.5086476076903637
 20
246.8940659139537104
 30
0.0
 40
0.0787080853927483
 50
40.0188362770955024
 51
132.9012516936024042
  0
ARC
  5
112E9
  8
0
 10
4200.5256736965384334
 20
246.9143569747311915
 30
0.0
 40
0.0528208965809964
 50
349.7645000984072112
 51
35.0324742228592214
  0
ARC
  5
112EA
  8
0
 10
4200.5202253524621483
 20
247.1509908893171996
 30
0.0
 40
0.0163075007456071
 50
142.4003049456341898
 51
227.5678532144104906
  0
ARC
  5
112EB
  8
0
 10
4200.5273555990743262
 20
247.1586143678476049
 30
0.0
 40
0.0267453745564015
 50
227.3129593846933005
 51
322.407668510162523
  0
ARC
  5
112EC
  8
0
 10
4200.5352644078593585
 20
247.151047744837598
 30
0.0
 40
0.0159058808922801
 50
326.629246607382413
 51
26.2229121529406406
  0
ARC
  5
112ED
  8
0
 10
4200.5273598792300618
 20
247.143894031718105
 30
0.0
 40
0.0263208626609977
 50
32.6027063427922101
 51
139.6352736375687016
  0
ARC
  5
112EE
  8
0
 10
4200.521262769848363
 20
247.1707464182152023
 30
0.0
 40
0.0638081396133301
 50
194.1296011496332881
 51
242.9476173540066952
  0
ARC
  5
112EF
  8
0
 10
4200.5279389105207883
 20
247.2015145161242913
 30
0.0
 40
0.0945892540343133
 50
247.8283136368796988
 51
300.8081639484581729
  0
ARC
  5
112F0
  8
0
 10
4200.5527287782042549
 20
247.1579138193309859
 30
0.0
 40
0.0444568211776321
 50
302.1474333812068949
 51
350.5603784255847017
  0
LINE
  5
112F1
  8
0
 10
4200.5965836087407297
 20
247.1506225376967905
 30
0.0
 11
4200.6009627240136979
 21
247.1707860507999044
 31
0.0
  0
ARC
  5
112F2
  8
0
 10
4200.5508815430166578
 20
247.1733018574610981
 30
0.0
 40
0.0501443314175578
 50
357.12418849741141
 51
58.5163557363762834
  0
ARC
  5
112F3
  8
0
 10
4200.5132197495431683
 20
247.1256696874733905
 30
0.0
 40
0.110670766280392
 50
54.7646885167549584
 51
93.8340058378027067
  0
ARC
  5
112F4
  8
0
 10
4200.5061427588707375
 20
247.1749154208054904
 30
0.0
 40
0.061178200499301
 50
90.3026267952156303
 51
142.0704473524509979
  0
ARC
  5
112F5
  8
0
 10
4200.4888898184153732
 20
247.1943892020858016
 30
0.0
 40
0.0359154315349884
 50
149.6784733902539131
 51
188.6836147484933974
  0
LINE
  5
112F6
  8
0
 10
4200.4533860817573441
 20
247.1889667574679095
 30
0.0
 11
4200.4593850800829387
 21
247.1551698271173905
 31
0.0
  0
ARC
  5
112F7
  8
0
 10
4200.5102808496303624
 20
247.1611790595015918
 30
0.0
 40
0.0512492949379738
 50
135.0702273456950877
 51
186.73370299689239
  0
ARC
  5
112F8
  8
0
 10
4200.5275772309923923
 20
247.1397174599885034
 30
0.0
 40
0.0787080853927483
 50
40.0188362770955024
 51
132.9012516936024042
  0
ARC
  5
112F9
  8
0
 10
4200.5446033198395526
 20
247.1600085207660129
 30
0.0
 40
0.0528208965809964
 50
349.7645000984072112
 51
35.0324742228592214
  0
ARC
  5
112FA
  8
0
 10
4200.6709589544243499
 20
247.3088519002712928
 30
0.0
 40
0.0163075007456071
 50
142.4003049456341898
 51
227.5678532144104906
  0
ARC
  5
112FB
  8
0
 10
4200.6780892010347088
 20
247.3164753788016981
 30
0.0
 40
0.0267453745564015
 50
227.3129593846933005
 51
322.407668510162523
  0
ARC
  5
112FC
  8
0
 10
4200.6859980098215601
 20
247.3089087557916912
 30
0.0
 40
0.0159058808922801
 50
326.629246607382413
 51
26.2229121529406406
  0
ARC
  5
112FD
  8
0
 10
4200.6780934811913539
 20
247.3017550426721129
 30
0.0
 40
0.0263208626609977
 50
32.6027063427922101
 51
139.6352736375687016
  0
ARC
  5
112FE
  8
0
 10
4200.6719963718096551
 20
247.3286074291692103
 30
0.0
 40
0.0638081396133301
 50
194.1296011496332881
 51
242.9476173540066952
  0
ARC
  5
112FF
  8
0
 10
4200.67867251248299
 20
247.3593755270784129
 30
0.0
 40
0.0945892540343133
 50
247.8283136368796988
 51
300.8081639484581729
  0
ARC
  5
11300
  8
0
 10
4200.7034623801673661
 20
247.3157748302851076
 30
0.0
 40
0.0444568211776321
 50
302.1474333812068949
 51
350.5603784255847017
  0
LINE
  5
11301
  8
0
 10
4200.7473172107038408
 20
247.3084835486507984
 30
0.0
 11
4200.7516963259758995
 21
247.3286470617539976
 31
0.0
  0
ARC
  5
11302
  8
0
 10
4200.70161514497795
 20
247.3311628684151913
 30
0.0
 40
0.0501443314175578
 50
357.12418849741141
 51
58.5163557363762834
  0
ARC
  5
11303
  8
0
 10
4200.6639533515053699
 20
247.2835306984275121
 30
0.0
 40
0.110670766280392
 50
54.7646885167549584
 51
93.8340058378027067
  0
ARC
  5
11304
  8
0
 10
4200.6568763608338486
 20
247.3327764317594131
 30
0.0
 40
0.061178200499301
 50
90.3026267952156303
 51
142.0704473524509979
  0
ARC
  5
11305
  8
0
 10
4200.6396234203775748
 20
247.3522502130398948
 30
0.0
 40
0.0359154315349884
 50
149.6784733902539131
 51
188.6836147484933974
  0
LINE
  5
11306
  8
0
 10
4200.6041196837195457
 20
247.3468277684220027
 30
0.0
 11
4200.6101186820451403
 21
247.3130308380715121
 31
0.0
  0
ARC
  5
11307
  8
0
 10
4200.661014451592564
 20
247.3190400704559124
 30
0.0
 40
0.0512492949379738
 50
135.0702273456950877
 51
186.73370299689239
  0
ARC
  5
11308
  8
0
 10
4200.6783108329527749
 20
247.2975784709425966
 30
0.0
 40
0.0787080853927483
 50
40.0188362770955024
 51
132.9012516936024042
  0
ARC
  5
11309
  8
0
 10
4200.6953369218017542
 20
247.3178695317201061
 30
0.0
 40
0.0528208965809964
 50
349.7645000984072112
 51
35.0324742228592214
  0
ARC
  5
1130A
  8
0
 10
4200.4592285137850922
 20
247.5330759200587067
 30
0.0
 40
0.0163075007456071
 50
142.4003049456341898
 51
227.5678532144104906
  0
ARC
  5
1130B
  8
0
 10
4200.4663587603963606
 20
247.540699398589112
 30
0.0
 40
0.0267453745564015
 50
227.3129593846933005
 51
322.407668510162523
  0
ARC
  5
1130C
  8
0
 10
4200.4742675691813929
 20
247.5331327755791051
 30
0.0
 40
0.0159058808922801
 50
326.629246607382413
 51
26.2229121529406406
  0
ARC
  5
1130D
  8
0
 10
4200.4663630405502772
 20
247.5259790624594984
 30
0.0
 40
0.0263208626609977
 50
32.6027063427922101
 51
139.6352736375687016
  0
ARC
  5
1130E
  8
0
 10
4200.4602659311703974
 20
247.5528314489565105
 30
0.0
 40
0.0638081396133301
 50
194.1296011496332881
 51
242.9476173540066952
  0
ARC
  5
1130F
  8
0
 10
4200.4669420718428228
 20
247.5835995468657131
 30
0.0
 40
0.0945892540343133
 50
247.8283136368796988
 51
300.8081639484581729
  0
ARC
  5
11310
  8
0
 10
4200.4917319395281083
 20
247.5399988500724078
 30
0.0
 40
0.0444568211776321
 50
302.1474333812068949
 51
350.5603784255847017
  0
LINE
  5
11311
  8
0
 10
4200.5355867700627641
 20
247.5327075684382123
 30
0.0
 11
4200.5399658853366418
 21
247.5528710815412126
 31
0.0
  0
ARC
  5
11312
  8
0
 10
4200.4898847043377828
 20
247.5553868882026052
 30
0.0
 40
0.0501443314175578
 50
357.12418849741141
 51
58.5163557363762834
  0
ARC
  5
11313
  8
0
 10
4200.4522229108652027
 20
247.5077547182146986
 30
0.0
 40
0.110670766280392
 50
54.7646885167549584
 51
93.8340058378027067
  0
ARC
  5
11314
  8
0
 10
4200.4451459201936814
 20
247.5570004515467986
 30
0.0
 40
0.061178200499301
 50
90.3026267952156303
 51
142.0704473524509979
  0
ARC
  5
11315
  8
0
 10
4200.4278929797374076
 20
247.576474232827195
 30
0.0
 40
0.0359154315349884
 50
149.6784733902539131
 51
188.6836147484933974
  0
LINE
  5
11316
  8
0
 10
4200.392389243080288
 20
247.5710517882091892
 30
0.0
 11
4200.3983882414049731
 21
247.5372548578588123
 31
0.0
  0
ARC
  5
11317
  8
0
 10
4200.4492840109505778
 20
247.543264090243099
 30
0.0
 40
0.0512492949379738
 50
135.0702273456950877
 51
186.73370299689239
  0
ARC
  5
11318
  8
0
 10
4200.4665803923107887
 20
247.5218024907300105
 30
0.0
 40
0.0787080853927483
 50
40.0188362770955024
 51
132.9012516936024042
  0
ARC
  5
11319
  8
0
 10
4200.483606481161587
 20
247.5420935515074063
 30
0.0
 40
0.0528208965809964
 50
349.7645000984072112
 51
35.0324742228592214
  0
ARC
  5
1131A
  8
0
 10
4200.253218227439902
 20
247.4055089473683893
 30
0.0
 40
0.0163075007456071
 50
142.4003049456341898
 51
227.5678532144104906
  0
ARC
  5
1131B
  8
0
 10
4200.2603484740502608
 20
247.4131324258987945
 30
0.0
 40
0.0267453745564015
 50
227.3129593846933005
 51
322.407668510162523
  0
ARC
  5
1131C
  8
0
 10
4200.2682572828362026
 20
247.4055658028887876
 30
0.0
 40
0.0159058808922801
 50
326.629246607382413
 51
26.2229121529406406
  0
ARC
  5
1131D
  8
0
 10
4200.2603527542059965
 20
247.3984120897692094
 30
0.0
 40
0.0263208626609977
 50
32.6027063427922101
 51
139.6352736375687016
  0
ARC
  5
1131E
  8
0
 10
4200.2542556448252071
 20
247.4252644762663067
 30
0.0
 40
0.0638081396133301
 50
194.1296011496332881
 51
242.9476173540066952
  0
ARC
  5
1131F
  8
0
 10
4200.2609317854976325
 20
247.4560325741753957
 30
0.0
 40
0.0945892540343133
 50
247.8283136368796988
 51
300.8081639484581729
  0
ARC
  5
11320
  8
0
 10
4200.2857216531820086
 20
247.412431877382204
 30
0.0
 40
0.0444568211776321
 50
302.1474333812068949
 51
350.5603784255847017
  0
LINE
  5
11321
  8
0
 10
4200.3295764837175739
 20
247.4051405957480085
 30
0.0
 11
4200.3339555989914516
 21
247.425304108851094
 31
0.0
  0
ARC
  5
11322
  8
0
 10
4200.2838744179925925
 20
247.4278199155122877
 30
0.0
 40
0.0501443314175578
 50
357.12418849741141
 51
58.5163557363762834
  0
ARC
  5
11323
  8
0
 10
4200.246212624520922
 20
247.3801877455246085
 30
0.0
 40
0.110670766280392
 50
54.7646885167549584
 51
93.8340058378027067
  0
ARC
  5
11324
  8
0
 10
4200.2391356338494006
 20
247.4294334788565095
 30
0.0
 40
0.061178200499301
 50
90.3026267952156303
 51
142.0704473524509979
  0
ARC
  5
11325
  8
0
 10
4200.2218826933931268
 20
247.4489072601369912
 30
0.0
 40
0.0359154315349884
 50
149.6784733902539131
 51
188.6836147484933974
  0
LINE
  5
11326
  8
0
 10
4200.1863789567350977
 20
247.4434848155190139
 30
0.0
 11
4200.1923779550606923
 21
247.4096878851686085
 31
0.0
  0
ARC
  5
11327
  8
0
 10
4200.2432737246072065
 20
247.4156971175528099
 30
0.0
 40
0.0512492949379738
 50
135.0702273456950877
 51
186.73370299689239
  0
ARC
  5
11328
  8
0
 10
4200.2605701059655985
 20
247.394235518039693
 30
0.0
 40
0.0787080853927483
 50
40.0188362770955024
 51
132.9012516936024042
  0
ARC
  5
11329
  8
0
 10
4200.2775961948163967
 20
247.4145265788172026
 30
0.0
 40
0.0528208965809964
 50
349.7645000984072112
 51
35.0324742228592214
  0
ARC
  5
1132A
  8
0
 10
4199.9067843694147086
 20
247.4902517969821076
 30
0.0
 40
0.0163075007456071
 50
142.4003049456341898
 51
227.5678532144104906
  0
ARC
  5
1132B
  8
0
 10
4199.913914616025977
 20
247.4978752755125981
 30
0.0
 40
0.0267453745564015
 50
227.3129593846933005
 51
322.407668510162523
  0
ARC
  5
1132C
  8
0
 10
4199.9218234248110093
 20
247.490308652502506
 30
0.0
 40
0.0159058808922801
 50
326.629246607382413
 51
26.2229121529406406
  0
ARC
  5
1132D
  8
0
 10
4199.9139188961808031
 20
247.483154939383013
 30
0.0
 40
0.0263208626609977
 50
32.6027063427922101
 51
139.6352736375687016
  0
ARC
  5
1132E
  8
0
 10
4199.9078217868000138
 20
247.5100073258801103
 30
0.0
 40
0.0638081396133301
 50
194.1296011496332881
 51
242.9476173540066952
  0
ARC
  5
1132F
  8
0
 10
4199.9144979274733487
 20
247.5407754237891993
 30
0.0
 40
0.0945892540343133
 50
247.8283136368796988
 51
300.8081639484581729
  0
ARC
  5
11330
  8
0
 10
4199.9392877951568153
 20
247.4971747269960076
 30
0.0
 40
0.0444568211776321
 50
302.1474333812068949
 51
350.5603784255847017
  0
LINE
  5
11331
  8
0
 10
4199.98314262569329
 20
247.4898834453616985
 30
0.0
 11
4199.9875217409671677
 21
247.5100469584648124
 31
0.0
  0
ARC
  5
11332
  8
0
 10
4199.9374405599701277
 20
247.5125627651260913
 30
0.0
 40
0.0501443314175578
 50
357.12418849741141
 51
58.5163557363762834
  0
ARC
  5
11333
  8
0
 10
4199.8997787664948191
 20
247.4649305951382132
 30
0.0
 40
0.110670766280392
 50
54.7646885167549584
 51
93.8340058378027067
  0
ARC
  5
11334
  8
0
 10
4199.8927017758242073
 20
247.5141763284701995
 30
0.0
 40
0.061178200499301
 50
90.3026267952156303
 51
142.0704473524509979
  0
ARC
  5
11335
  8
0
 10
4199.875448835368843
 20
247.5336501097507949
 30
0.0
 40
0.0359154315349884
 50
149.6784733902539131
 51
188.6836147484933974
  0
LINE
  5
11336
  8
0
 10
4199.8399450987089949
 20
247.5282276651327891
 30
0.0
 11
4199.8459440970345895
 21
247.4944307347824122
 31
0.0
  0
ARC
  5
11337
  8
0
 10
4199.8968398665829227
 20
247.5004399671664999
 30
0.0
 40
0.0512492949379738
 50
135.0702273456950877
 51
186.73370299689239
  0
ARC
  5
11338
  8
0
 10
4199.9141362479431336
 20
247.4789783676534967
 30
0.0
 40
0.0787080853927483
 50
40.0188362770955024
 51
132.9012516936024042
  0
ARC
  5
11339
  8
0
 10
4199.9311623367912034
 20
247.4992694284308925
 30
0.0
 40
0.0528208965809964
 50
349.7645000984072112
 51
35.0324742228592214
  0
ARC
  5
1133A
  8
0
 10
4200.0825195280167463
 20
247.7016581718883117
 30
0.0
 40
0.0163075007456071
 50
142.4003049456341898
 51
227.5678532144104906
  0
ARC
  5
1133B
  8
0
 10
4200.0896497746280147
 20
247.7092816504186032
 30
0.0
 40
0.0267453745564015
 50
227.3129593846933005
 51
322.407668510162523
  0
ARC
  5
1133C
  8
0
 10
4200.097558583413047
 20
247.7017150274085964
 30
0.0
 40
0.0159058808922801
 50
326.629246607382413
 51
26.2229121529406406
  0
ARC
  5
1133D
  8
0
 10
4200.0896540547819313
 20
247.6945613142891887
 30
0.0
 40
0.0263208626609977
 50
32.6027063427922101
 51
139.6352736375687016
  0
ARC
  5
1133E
  8
0
 10
4200.0835569454020515
 20
247.7214137007862007
 30
0.0
 40
0.0638081396133301
 50
194.1296011496332881
 51
242.9476173540066952
  0
ARC
  5
1133F
  8
0
 10
4200.0902330860753864
 20
247.7521817986952897
 30
0.0
 40
0.0945892540343133
 50
247.8283136368796988
 51
300.8081639484581729
  0
ARC
  5
11340
  8
0
 10
4200.115022953758853
 20
247.708581101902098
 30
0.0
 40
0.0444568211776321
 50
302.1474333812068949
 51
350.5603784255847017
  0
LINE
  5
11341
  8
0
 10
4200.1588777842953277
 20
247.7012898202679025
 30
0.0
 11
4200.1632568995682959
 21
247.721453333370988
 31
0.0
  0
ARC
  5
11342
  8
0
 10
4200.1131757185694369
 20
247.7239691400322101
 30
0.0
 40
0.0501443314175578
 50
357.12418849741141
 51
58.5163557363762834
  0
ARC
  5
11343
  8
0
 10
4200.0755139250968568
 20
247.6763369700445026
 30
0.0
 40
0.110670766280392
 50
54.7646885167549584
 51
93.8340058378027067
  0
ARC
  5
11344
  8
0
 10
4200.0684369344253355
 20
247.7255827033764888
 30
0.0
 40
0.061178200499301
 50
90.3026267952156303
 51
142.0704473524509979
  0
ARC
  5
11345
  8
0
 10
4200.0511839939690617
 20
247.7450564846568
 30
0.0
 40
0.0359154315349884
 50
149.6784733902539131
 51
188.6836147484933974
  0
LINE
  5
11346
  8
0
 10
4200.0156802573110326
 20
247.7396340400389931
 30
0.0
 11
4200.0216792556366272
 21
247.7058371096885026
 31
0.0
  0
ARC
  5
11347
  8
0
 10
4200.0725750251831414
 20
247.7118463420727039
 30
0.0
 40
0.0512492949379738
 50
135.0702273456950877
 51
186.73370299689239
  0
ARC
  5
11348
  8
0
 10
4200.0898714065451713
 20
247.6903847425595018
 30
0.0
 40
0.0787080853927483
 50
40.0188362770955024
 51
132.9012516936024042
  0
ARC
  5
11349
  8
0
 10
4200.1068974953932411
 20
247.7106758033370966
 30
0.0
 40
0.0528208965809964
 50
349.7645000984072112
 51
35.0324742228592214
  0
ARC
  5
1134A
  8
0
 10
4200.3267865526895548
 20
247.7942092170625017
 30
0.0
 40
0.0163075007456071
 50
142.4003049456341898
 51
227.5678532144104906
  0
ARC
  5
1134B
  8
0
 10
4200.3339167993008232
 20
247.8018326955929069
 30
0.0
 40
0.0267453745564015
 50
227.3129593846933005
 51
322.407668510162523
  0
ARC
  5
1134C
  8
0
 10
4200.341825608086765
 20
247.7942660725827864
 30
0.0
 40
0.0159058808922801
 50
326.629246607382413
 51
26.2229121529406406
  0
ARC
  5
1134D
  8
0
 10
4200.3339210794556493
 20
247.7871123594634071
 30
0.0
 40
0.0263208626609977
 50
32.6027063427922101
 51
139.6352736375687016
  0
ARC
  5
1134E
  8
0
 10
4200.32782397007486
 20
247.8139647459603907
 30
0.0
 40
0.0638081396133301
 50
194.1296011496332881
 51
242.9476173540066952
  0
ARC
  5
1134F
  8
0
 10
4200.3345001107491044
 20
247.8447328438695081
 30
0.0
 40
0.0945892540343133
 50
247.8283136368796988
 51
300.8081639484581729
  0
ARC
  5
11350
  8
0
 10
4200.3592899784325709
 20
247.801132147076288
 30
0.0
 40
0.0444568211776321
 50
302.1474333812068949
 51
350.5603784255847017
  0
LINE
  5
11351
  8
0
 10
4200.4031448089681362
 20
247.7938408654420073
 30
0.0
 11
4200.4075239242411044
 21
247.8140043785452065
 31
0.0
  0
ARC
  5
11352
  8
0
 10
4200.3574427432440643
 20
247.8165201852065138
 30
0.0
 40
0.0501443314175578
 50
357.12418849741141
 51
58.5163557363762834
  0
ARC
  5
11353
  8
0
 10
4200.3197809497696653
 20
247.7688880152186925
 30
0.0
 40
0.110670766280392
 50
54.7646885167549584
 51
93.8340058378027067
  0
ARC
  5
11354
  8
0
 10
4200.312703959099963
 20
247.8181337485507072
 30
0.0
 40
0.061178200499301
 50
90.3026267952156303
 51
142.0704473524509979
  0
ARC
  5
11355
  8
0
 10
4200.2954510186427797
 20
247.8376075298311036
 30
0.0
 40
0.0359154315349884
 50
149.6784733902539131
 51
188.6836147484933974
  0
LINE
  5
11356
  8
0
 10
4200.2599472819838411
 20
247.8321850852132116
 30
0.0
 11
4200.2659462803103452
 21
247.7983881548626925
 31
0.0
  0
ARC
  5
11357
  8
0
 10
4200.3168420498568594
 20
247.8043973872470076
 30
0.0
 40
0.0512492949379738
 50
135.0702273456950877
 51
186.73370299689239
  0
ARC
  5
11358
  8
0
 10
4200.3341384312188893
 20
247.7829357877338055
 30
0.0
 40
0.0787080853927483
 50
40.0188362770955024
 51
132.9012516936024042
  0
ARC
  5
11359
  8
0
 10
4200.3511645200669591
 20
247.8032268485112866
 30
0.0
 40
0.0528208965809964
 50
349.7645000984072112
 51
35.0324742228592214
  0
ARC
  5
1135A
  8
0
 10
4199.7691312680526607
 20
247.854213178592488
 30
0.0
 40
0.0163075007456071
 50
142.4003049456341898
 51
227.5678532144104906
  0
ARC
  5
1135B
  8
0
 10
4199.7762615146630196
 20
247.8618366571230069
 30
0.0
 40
0.0267453745564015
 50
227.3129593846933005
 51
322.407668510162523
  0
ARC
  5
1135C
  8
0
 10
4199.7841703234489614
 20
247.8542700341130001
 30
0.0
 40
0.0159058808922801
 50
326.629246607382413
 51
26.2229121529406406
  0
ARC
  5
1135D
  8
0
 10
4199.7762657948187552
 20
247.8471163209933934
 30
0.0
 40
0.0263208626609977
 50
32.6027063427922101
 51
139.6352736375687016
  0
ARC
  5
1135E
  8
0
 10
4199.7701686854379659
 20
247.8739687074904054
 30
0.0
 40
0.0638081396133301
 50
194.1296011496332881
 51
242.9476173540066952
  0
ARC
  5
1135F
  8
0
 10
4199.7768448261113008
 20
247.9047368053996934
 30
0.0
 40
0.0945892540343133
 50
247.8283136368796988
 51
300.8081639484581729
  0
ARC
  5
11360
  8
0
 10
4199.8016346937947674
 20
247.8611361086063027
 30
0.0
 40
0.0444568211776321
 50
302.1474333812068949
 51
350.5603784255847017
  0
LINE
  5
11361
  8
0
 10
4199.8454895243312421
 20
247.8538448269721073
 30
0.0
 11
4199.8498686396042103
 21
247.8740083400753065
 31
0.0
  0
ARC
  5
11362
  8
0
 10
4199.7997874586062608
 20
247.8765241467365001
 30
0.0
 40
0.0501443314175578
 50
357.12418849741141
 51
58.5163557363762834
  0
ARC
  5
11363
  8
0
 10
4199.7621256651327712
 20
247.8288919767487073
 30
0.0
 40
0.110670766280392
 50
54.7646885167549584
 51
93.8340058378027067
  0
ARC
  5
11364
  8
0
 10
4199.7550486744612499
 20
247.8781377100806935
 30
0.0
 40
0.061178200499301
 50
90.3026267952156303
 51
142.0704473524509979
  0
ARC
  5
11365
  8
0
 10
4199.7377957340040666
 20
247.89761149136109
 30
0.0
 40
0.0359154315349884
 50
149.6784733902539131
 51
188.6836147484933974
  0
LINE
  5
11366
  8
0
 10
4199.7022919973460375
 20
247.8921890467431979
 30
0.0
 11
4199.7082909956734511
 21
247.8583921163927073
 31
0.0
  0
ARC
  5
11367
  8
0
 10
4199.7591867652190558
 20
247.8644013487771076
 30
0.0
 40
0.0512492949379738
 50
135.0702273456950877
 51
186.73370299689239
  0
ARC
  5
11368
  8
0
 10
4199.7764831465810857
 20
247.8429397492639055
 30
0.0
 40
0.0787080853927483
 50
40.0188362770955024
 51
132.9012516936024042
  0
ARC
  5
11369
  8
0
 10
4199.7935092354291555
 20
247.8632308100413013
 30
0.0
 40
0.0528208965809964
 50
349.7645000984072112
 51
35.0324742228592214
  0
ARC
  5
1136A
  8
0
 10
4200.0146613163469738
 20
248.0225275428906002
 30
0.0
 40
0.0163075007456071
 50
142.4003049456341898
 51
227.5678532144104906
  0
ARC
  5
1136B
  8
0
 10
4200.0217915629582421
 20
248.0301510214210907
 30
0.0
 40
0.0267453745564015
 50
227.3129593846933005
 51
322.407668510162523
  0
ARC
  5
1136C
  8
0
 10
4200.0297003717432744
 20
248.0225843984109986
 30
0.0
 40
0.0159058808922801
 50
326.629246607382413
 51
26.2229121529406406
  0
ARC
  5
1136D
  8
0
 10
4200.0217958431121588
 20
248.0154306852915056
 30
0.0
 40
0.0263208626609977
 50
32.6027063427922101
 51
139.6352736375687016
  0
ARC
  5
1136E
  8
0
 10
4200.0156987337322789
 20
248.0422830717884892
 30
0.0
 40
0.0638081396133301
 50
194.1296011496332881
 51
242.9476173540066952
  0
ARC
  5
1136F
  8
0
 10
4200.0223748744047043
 20
248.0730511696976066
 30
0.0
 40
0.0945892540343133
 50
247.8283136368796988
 51
300.8081639484581729
  0
ARC
  5
11370
  8
0
 10
4200.0471647420899899
 20
248.0294504729045002
 30
0.0
 40
0.0444568211776321
 50
302.1474333812068949
 51
350.5603784255847017
  0
LINE
  5
11371
  8
0
 10
4200.0910195726246457
 20
248.0221591912701058
 30
0.0
 11
4200.0953986878976139
 21
248.042322704373305
 31
0.0
  0
ARC
  5
11372
  8
0
 10
4200.0453175069005738
 20
248.0448385110346123
 30
0.0
 40
0.0501443314175578
 50
357.12418849741141
 51
58.5163557363762834
  0
ARC
  5
11373
  8
0
 10
4200.0076557134261748
 20
247.9972063410467058
 30
0.0
 40
0.110670766280392
 50
54.7646885167549584
 51
93.8340058378027067
  0
ARC
  5
11374
  8
0
 10
4200.0005787227573819
 20
248.046452074378692
 30
0.0
 40
0.061178200499301
 50
90.3026267952156303
 51
142.0704473524509979
  0
ARC
  5
11375
  8
0
 10
4199.9833257823011081
 20
248.0659258556590885
 30
0.0
 40
0.0359154315349884
 50
149.6784733902539131
 51
188.6836147484933974
  0
LINE
  5
11376
  8
0
 10
4199.94782204564126
 20
248.0605034110413101
 30
0.0
 11
4199.9538210439659451
 21
248.0267064806909048
 31
0.0
  0
ARC
  5
11377
  8
0
 10
4200.0047168135151878
 20
248.0327157130751061
 30
0.0
 40
0.0512492949379738
 50
135.0702273456950877
 51
186.73370299689239
  0
ARC
  5
11378
  8
0
 10
4200.0220131948735798
 20
248.011254113561904
 30
0.0
 40
0.0787080853927483
 50
40.0188362770955024
 51
132.9012516936024042
  0
ARC
  5
11379
  8
0
 10
4200.039039283722559
 20
248.0315451743392998
 30
0.0
 40
0.0528208965809964
 50
349.7645000984072112
 51
35.0324742228592214
  0
ARC
  5
1137A
  8
0
 10
4200.2791519181937474
 20
248.0759834662887044
 30
0.0
 40
0.0163075007456071
 50
142.4003049456341898
 51
227.5678532144104906
  0
ARC
  5
1137B
  8
0
 10
4200.2862821648059253
 20
248.083606944819195
 30
0.0
 40
0.0267453745564015
 50
227.3129593846933005
 51
322.407668510162523
  0
ARC
  5
1137C
  8
0
 10
4200.2941909735918671
 20
248.0760403218091028
 30
0.0
 40
0.0159058808922801
 50
326.629246607382413
 51
26.2229121529406406
  0
ARC
  5
1137D
  8
0
 10
4200.2862864449616609
 20
248.0688866086894961
 30
0.0
 40
0.0263208626609977
 50
32.6027063427922101
 51
139.6352736375687016
  0
ARC
  5
1137E
  8
0
 10
4200.2801893355808716
 20
248.0957389951865082
 30
0.0
 40
0.0638081396133301
 50
194.1296011496332881
 51
242.9476173540066952
  0
ARC
  5
1137F
  8
0
 10
4200.2868654762542064
 20
248.1265070930957961
 30
0.0
 40
0.0945892540343133
 50
247.8283136368796988
 51
300.8081639484581729
  0
ARC
  5
11380
  8
0
 10
4200.3116553439367635
 20
248.0829063963024907
 30
0.0
 40
0.0444568211776321
 50
302.1474333812068949
 51
350.5603784255847017
  0
LINE
  5
11381
  8
0
 10
4200.3555101744741478
 20
248.07561511466821
 30
0.0
 11
4200.359889289747116
 21
248.0957786277714092
 31
0.0
  0
ARC
  5
11382
  8
0
 10
4200.3098081087491664
 20
248.0982944344324892
 30
0.0
 40
0.0501443314175578
 50
357.12418849741141
 51
58.5163557363762834
  0
ARC
  5
11383
  8
0
 10
4200.2721463152765864
 20
248.05066226444481
 30
0.0
 40
0.110670766280392
 50
54.7646885167549584
 51
93.8340058378027067
  0
ARC
  5
11384
  8
0
 10
4200.265069324605065
 20
248.0999079977767963
 30
0.0
 40
0.061178200499301
 50
90.3026267952156303
 51
142.0704473524509979
  0
ARC
  5
11385
  8
0
 10
4200.2478163841478818
 20
248.1193817790573064
 30
0.0
 40
0.0359154315349884
 50
149.6784733902539131
 51
188.6836147484933974
  0
LINE
  5
11386
  8
0
 10
4200.2123126474889432
 20
248.1139593344391869
 30
0.0
 11
4200.2183116458154473
 21
248.0801624040888953
 31
0.0
  0
ARC
  5
11387
  8
0
 10
4200.2692074153619615
 20
248.0861716364730967
 30
0.0
 40
0.0512492949379738
 50
135.0702273456950877
 51
186.73370299689239
  0
ARC
  5
11388
  8
0
 10
4200.2865037967230819
 20
248.0647100369600082
 30
0.0
 40
0.0787080853927483
 50
40.0188362770955024
 51
132.9012516936024042
  0
ARC
  5
11389
  8
0
 10
4200.3035298855711517
 20
248.0850010977372904
 30
0.0
 40
0.0528208965809964
 50
349.7645000984072112
 51
35.0324742228592214
  0
ARC
  5
1138A
  8
0
 10
4199.7276437168684424
 20
248.239968196414992
 30
0.0
 40
0.0163075007456071
 50
142.4003049456341898
 51
227.5678532144104906
  0
ARC
  5
1138B
  8
0
 10
4199.7347739634788013
 20
248.2475916749453972
 30
0.0
 40
0.0267453745564015
 50
227.3129593846933005
 51
322.407668510162523
  0
ARC
  5
1138C
  8
0
 10
4199.7426827722647431
 20
248.2400250519353051
 30
0.0
 40
0.0159058808922801
 50
326.629246607382413
 51
26.2229121529406406
  0
ARC
  5
1138D
  8
0
 10
4199.7347782436336274
 20
248.2328713388158974
 30
0.0
 40
0.0263208626609977
 50
32.6027063427922101
 51
139.6352736375687016
  0
ARC
  5
1138E
  8
0
 10
4199.7286811342537476
 20
248.2597237253129094
 30
0.0
 40
0.0638081396133301
 50
194.1296011496332881
 51
242.9476173540066952
  0
ARC
  5
1138F
  8
0
 10
4199.735357274926173
 20
248.2904918232219984
 30
0.0
 40
0.0945892540343133
 50
247.8283136368796988
 51
300.8081639484581729
  0
ARC
  5
11390
  8
0
 10
4199.7601471426105491
 20
248.2468911264288067
 30
0.0
 40
0.0444568211776321
 50
302.1474333812068949
 51
350.5603784255847017
  0
LINE
  5
11391
  8
0
 10
4199.8040019731470238
 20
248.2395998447944976
 30
0.0
 11
4199.808381088419992
 21
248.2597633578976115
 31
0.0
  0
ARC
  5
11392
  8
0
 10
4199.758299907421133
 20
248.2622791645590041
 30
0.0
 40
0.0501443314175578
 50
357.12418849741141
 51
58.5163557363762834
  0
ARC
  5
11393
  8
0
 10
4199.7206381139476434
 20
248.2146469945710123
 30
0.0
 40
0.110670766280392
 50
54.7646885167549584
 51
93.8340058378027067
  0
ARC
  5
11394
  8
0
 10
4199.7135611232770316
 20
248.2638927279031122
 30
0.0
 40
0.061178200499301
 50
90.3026267952156303
 51
142.0704473524509979
  0
ARC
  5
11395
  8
0
 10
4199.6963081828198483
 20
248.2833665091835087
 30
0.0
 40
0.0359154315349884
 50
149.6784733902539131
 51
188.6836147484933974
  0
LINE
  5
11396
  8
0
 10
4199.6608044461627287
 20
248.2779440645657019
 30
0.0
 11
4199.6668034444892328
 21
248.2441471342152113
 31
0.0
  0
ARC
  5
11397
  8
0
 10
4199.717699214035747
 20
248.2501563665994979
 30
0.0
 40
0.0512492949379738
 50
135.0702273456950877
 51
186.73370299689239
  0
ARC
  5
11398
  8
0
 10
4199.7349955953968674
 20
248.2286947670862105
 30
0.0
 40
0.0787080853927483
 50
40.0188362770955024
 51
132.9012516936024042
  0
ARC
  5
11399
  8
0
 10
4199.7520216842449372
 20
248.2489858278636916
 30
0.0
 40
0.0528208965809964
 50
349.7645000984072112
 51
35.0324742228592214
  0
ARC
  5
1139A
  8
0
 10
4200.0307444624568234
 20
248.3515471764659992
 30
0.0
 40
0.0163075007456071
 50
142.4003049456341898
 51
227.5678532144104906
  0
ARC
  5
1139B
  8
0
 10
4200.0378747090690013
 20
248.3591706549964897
 30
0.0
 40
0.0267453745564015
 50
227.3129593846933005
 51
322.407668510162523
  0
ARC
  5
1139C
  8
0
 10
4200.0457835178540336
 20
248.3516040319863976
 30
0.0
 40
0.0159058808922801
 50
326.629246607382413
 51
26.2229121529406406
  0
ARC
  5
1139D
  8
0
 10
4200.0378789892229179
 20
248.3444503188669046
 30
0.0
 40
0.0263208626609977
 50
32.6027063427922101
 51
139.6352736375687016
  0
ARC
  5
1139E
  8
0
 10
4200.0317818798421285
 20
248.3713027053638029
 30
0.0
 40
0.0638081396133301
 50
194.1296011496332881
 51
242.9476173540066952
  0
ARC
  5
1139F
  8
0
 10
4200.0384580205163729
 20
248.4020708032730056
 30
0.0
 40
0.0945892540343133
 50
247.8283136368796988
 51
300.8081639484581729
  0
ARC
  5
113A0
  8
0
 10
4200.063247888200749
 20
248.3584701064797002
 30
0.0
 40
0.0444568211776321
 50
302.1474333812068949
 51
350.5603784255847017
  0
LINE
  5
113A1
  8
0
 10
4200.1071027187372238
 20
248.3511788248455048
 30
0.0
 11
4200.1114818340092825
 21
248.3713423379485903
 31
0.0
  0
ARC
  5
113A2
  8
0
 10
4200.0614006530113329
 20
248.3738581446100113
 30
0.0
 40
0.0501443314175578
 50
357.12418849741141
 51
58.5163557363762834
  0
ARC
  5
113A3
  8
0
 10
4200.0237388595378434
 20
248.3262259746221048
 30
0.0
 40
0.110670766280392
 50
54.7646885167549584
 51
93.8340058378027067
  0
ARC
  5
113A4
  8
0
 10
4200.0166618688672315
 20
248.375471707954091
 30
0.0
 40
0.061178200499301
 50
90.3026267952156303
 51
142.0704473524509979
  0
ARC
  5
113A5
  8
0
 10
4199.9994089284109577
 20
248.3949454892344875
 30
0.0
 40
0.0359154315349884
 50
149.6784733902539131
 51
188.6836147484933974
  0
LINE
  5
113A6
  8
0
 10
4199.9639051917529287
 20
248.3895230446165954
 30
0.0
 11
4199.9699041900767043
 21
248.3557261142661048
 31
0.0
  0
ARC
  5
113A7
  8
0
 10
4200.0207999596250374
 20
248.3617353466503914
 30
0.0
 40
0.0512492949379738
 50
135.0702273456950877
 51
186.73370299689239
  0
ARC
  5
113A8
  8
0
 10
4200.0380963409852484
 20
248.3402737471371893
 30
0.0
 40
0.0787080853927483
 50
40.0188362770955024
 51
132.9012516936024042
  0
ARC
  5
113A9
  8
0
 10
4200.0551224298342277
 20
248.3605648079146988
 30
0.0
 40
0.0528208965809964
 50
349.7645000984072112
 51
35.0324742228592214
  0
ARC
  5
113AA
  8
0
 10
4200.3263423449279799
 20
248.355591476506703
 30
0.0
 40
0.0163075007456071
 50
142.4003049456341898
 51
227.5678532144104906
  0
ARC
  5
113AB
  8
0
 10
4200.3334725915392482
 20
248.3632149550369945
 30
0.0
 40
0.0267453745564015
 50
227.3129593846933005
 51
322.407668510162523
  0
ARC
  5
113AC
  8
0
 10
4200.3413814003233711
 20
248.3556483320269876
 30
0.0
 40
0.0159058808922801
 50
326.629246607382413
 51
26.2229121529406406
  0
ARC
  5
113AD
  8
0
 10
4200.3334768716931649
 20
248.3484946189074094
 30
0.0
 40
0.0263208626609977
 50
32.6027063427922101
 51
139.6352736375687016
  0
ARC
  5
113AE
  8
0
 10
4200.3273797623123755
 20
248.375347005404592
 30
0.0
 40
0.0638081396133301
 50
194.1296011496332881
 51
242.9476173540066952
  0
ARC
  5
113AF
  8
0
 10
4200.3340559029857104
 20
248.4061151033137094
 30
0.0
 40
0.0945892540343133
 50
247.8283136368796988
 51
300.8081639484581729
  0
ARC
  5
113B0
  8
0
 10
4200.3588457706700865
 20
248.362514406520404
 30
0.0
 40
0.0444568211776321
 50
302.1474333812068949
 51
350.5603784255847017
  0
LINE
  5
113B1
  8
0
 10
4200.4027006012047423
 20
248.3552231248860949
 30
0.0
 11
4200.40707971647862
 21
248.3753866379892941
 31
0.0
  0
ARC
  5
113B2
  8
0
 10
4200.3569985354815799
 20
248.3779024446504877
 30
0.0
 40
0.0501443314175578
 50
357.12418849741141
 51
58.5163557363762834
  0
ARC
  5
113B3
  8
0
 10
4200.3193367420071809
 20
248.3302702746626949
 30
0.0
 40
0.110670766280392
 50
54.7646885167549584
 51
93.8340058378027067
  0
ARC
  5
113B4
  8
0
 10
4200.312259751338388
 20
248.3795160079947948
 30
0.0
 40
0.061178200499301
 50
90.3026267952156303
 51
142.0704473524509979
  0
ARC
  5
113B5
  8
0
 10
4200.2950068108812047
 20
248.398989789275106
 30
0.0
 40
0.0359154315349884
 50
149.6784733902539131
 51
188.6836147484933974
  0
LINE
  5
113B6
  8
0
 10
4200.2595030742222662
 20
248.3935673446572139
 30
0.0
 11
4200.2655020725469512
 21
248.3597704143066949
 31
0.0
  0
ARC
  5
113B7
  8
0
 10
4200.3163978420952844
 20
248.3657796466910099
 30
0.0
 40
0.0512492949379738
 50
135.0702273456950877
 51
186.73370299689239
  0
ARC
  5
113B8
  8
0
 10
4200.3336942234545859
 20
248.344318047177893
 30
0.0
 40
0.0787080853927483
 50
40.0188362770955024
 51
132.9012516936024042
  0
ARC
  5
113B9
  8
0
 10
4200.3507203123026557
 20
248.3646091079552889
 30
0.0
 40
0.0528208965809964
 50
349.7645000984072112
 51
35.0324742228592214
  0
ARC
  5
113BA
  8
0
 10
4199.8187550497495977
 20
248.6163604851390971
 30
0.0
 40
0.0163075007456071
 50
142.4003049456341898
 51
227.5678532144104906
  0
ARC
  5
113BB
  8
0
 10
4199.8258852963608661
 20
248.6239839636695024
 30
0.0
 40
0.0267453745564015
 50
227.3129593846933005
 51
322.407668510162523
  0
ARC
  5
113BC
  8
0
 10
4199.8337941051458984
 20
248.6164173406592965
 30
0.0
 40
0.0159058808922801
 50
326.629246607382413
 51
26.2229121529406406
  0
ARC
  5
113BD
  8
0
 10
4199.8258895765147827
 20
248.6092636275398888
 30
0.0
 40
0.0263208626609977
 50
32.6027063427922101
 51
139.6352736375687016
  0
ARC
  5
113BE
  8
0
 10
4199.8197924671358123
 20
248.6361160140369009
 30
0.0
 40
0.0638081396133301
 50
194.1296011496332881
 51
242.9476173540066952
  0
ARC
  5
113BF
  8
0
 10
4199.8264686078082377
 20
248.6668841119459898
 30
0.0
 40
0.0945892540343133
 50
247.8283136368796988
 51
300.8081639484581729
  0
ARC
  5
113C0
  8
0
 10
4199.8512584754926138
 20
248.6232834151527129
 30
0.0
 40
0.0444568211776321
 50
302.1474333812068949
 51
350.5603784255847017
  0
LINE
  5
113C1
  8
0
 10
4199.8951133060299981
 20
248.6159921335186027
 30
0.0
 11
4199.8994924213020568
 21
248.636155646621603
 31
0.0
  0
ARC
  5
113C2
  8
0
 10
4199.8494112403031977
 20
248.6386714532827966
 30
0.0
 40
0.0501443314175578
 50
357.12418849741141
 51
58.5163557363762834
  0
ARC
  5
113C3
  8
0
 10
4199.8117494468306177
 20
248.591039283295089
 30
0.0
 40
0.110670766280392
 50
54.7646885167549584
 51
93.8340058378027067
  0
ARC
  5
113C4
  8
0
 10
4199.8046724561590963
 20
248.640285016627189
 30
0.0
 40
0.061178200499301
 50
90.3026267952156303
 51
142.0704473524509979
  0
ARC
  5
113C5
  8
0
 10
4199.7874195157028225
 20
248.6597587979076138
 30
0.0
 40
0.0359154315349884
 50
149.6784733902539131
 51
188.6836147484933974
  0
LINE
  5
113C6
  8
0
 10
4199.7519157790447935
 20
248.654336353289608
 30
0.0
 11
4199.757914777370388
 21
248.620539422939089
 31
0.0
  0
ARC
  5
113C7
  8
0
 10
4199.8088105469169022
 20
248.6265486553234041
 30
0.0
 40
0.0512492949379738
 50
135.0702273456950877
 51
186.73370299689239
  0
ARC
  5
113C8
  8
0
 10
4199.8261069282762037
 20
248.6050870558102872
 30
0.0
 40
0.0787080853927483
 50
40.0188362770955024
 51
132.9012516936024042
  0
ARC
  5
113C9
  8
0
 10
4199.8431330171260925
 20
248.6253781165877115
 30
0.0
 40
0.0528208965809964
 50
349.7645000984072112
 51
35.0324742228592214
  0
ARC
  5
113CA
  8
0
 10
4200.1623477576586083
 20
248.6619052205086007
 30
0.0
 40
0.0163075007456071
 50
142.4003049456341898
 51
227.5678532144104906
  0
ARC
  5
113CB
  8
0
 10
4200.1694780042689672
 20
248.6695286990388922
 30
0.0
 40
0.0267453745564015
 50
227.3129593846933005
 51
322.407668510162523
  0
ARC
  5
113CC
  8
0
 10
4200.177386813054909
 20
248.6619620760289138
 30
0.0
 40
0.0159058808922801
 50
326.629246607382413
 51
26.2229121529406406
  0
ARC
  5
113CD
  8
0
 10
4200.1694822844247028
 20
248.6548083629093924
 30
0.0
 40
0.0263208626609977
 50
32.6027063427922101
 51
139.6352736375687016
  0
ARC
  5
113CE
  8
0
 10
4200.1633851750439135
 20
248.6816607494064044
 30
0.0
 40
0.0638081396133301
 50
194.1296011496332881
 51
242.9476173540066952
  0
ARC
  5
113CF
  8
0
 10
4200.1700613157181579
 20
248.7124288473154934
 30
0.0
 40
0.0945892540343133
 50
247.8283136368796988
 51
300.8081639484581729
  0
ARC
  5
113D0
  8
0
 10
4200.1948511834007149
 20
248.668828150522188
 30
0.0
 40
0.0444568211776321
 50
302.1474333812068949
 51
350.5603784255847017
  0
LINE
  5
113D1
  8
0
 10
4200.2387060139380992
 20
248.6615368688879926
 30
0.0
 11
4200.2430851292110674
 21
248.6817003819911065
 31
0.0
  0
ARC
  5
113D2
  8
0
 10
4200.1930039482131178
 20
248.6842161886523002
 30
0.0
 40
0.0501443314175578
 50
357.12418849741141
 51
58.5163557363762834
  0
ARC
  5
113D3
  8
0
 10
4200.1553421547387188
 20
248.6365840186645926
 30
0.0
 40
0.110670766280392
 50
54.7646885167549584
 51
93.8340058378027067
  0
ARC
  5
113D4
  8
0
 10
4200.1482651640690165
 20
248.6858297519966925
 30
0.0
 40
0.061178200499301
 50
90.3026267952156303
 51
142.0704473524509979
  0
ARC
  5
113D5
  8
0
 10
4200.1310122236118332
 20
248.7053035332770889
 30
0.0
 40
0.0359154315349884
 50
149.6784733902539131
 51
188.6836147484933974
  0
LINE
  5
113D6
  8
0
 10
4200.0955084869538041
 20
248.6998810886591116
 30
0.0
 11
4200.1015074852793987
 21
248.6660841583087063
 31
0.0
  0
ARC
  5
113D7
  8
0
 10
4200.1524032548259129
 20
248.6720933906929929
 30
0.0
 40
0.0512492949379738
 50
135.0702273456950877
 51
186.73370299689239
  0
ARC
  5
113D8
  8
0
 10
4200.1696996361870333
 20
248.6506317911797055
 30
0.0
 40
0.0787080853927483
 50
40.0188362770955024
 51
132.9012516936024042
  0
ARC
  5
113D9
  8
0
 10
4200.1867257250360126
 20
248.6709228519571866
 30
0.0
 40
0.0528208965809964
 50
349.7645000984072112
 51
35.0324742228592214
  0
ARC
  5
113DA
  8
0
 10
4200.4619712238500142
 20
248.616632022318214
 30
0.0
 40
0.0163075007456071
 50
142.4003049456341898
 51
227.5678532144104906
  0
ARC
  5
113DB
  8
0
 10
4200.4691014704612826
 20
248.6242555008485908
 30
0.0
 40
0.0267453745564015
 50
227.3129593846933005
 51
322.407668510162523
  0
ARC
  5
113DC
  8
0
 10
4200.4770102792472244
 20
248.6166888778386124
 30
0.0
 40
0.0159058808922801
 50
326.629246607382413
 51
26.2229121529406406
  0
ARC
  5
113DD
  8
0
 10
4200.4691057506161087
 20
248.6095351647190057
 30
0.0
 40
0.0263208626609977
 50
32.6027063427922101
 51
139.6352736375687016
  0
ARC
  5
113DE
  8
0
 10
4200.4630086412353194
 20
248.6363875512161883
 30
0.0
 40
0.0638081396133301
 50
194.1296011496332881
 51
242.9476173540066952
  0
ARC
  5
113DF
  8
0
 10
4200.4696847819086543
 20
248.667155649125192
 30
0.0
 40
0.0945892540343133
 50
247.8283136368796988
 51
300.8081639484581729
  0
ARC
  5
113E0
  8
0
 10
4200.4944746495930303
 20
248.6235549523320003
 30
0.0
 40
0.0444568211776321
 50
302.1474333812068949
 51
350.5603784255847017
  0
LINE
  5
113E1
  8
0
 10
4200.5383294801304146
 20
248.6162636706976912
 30
0.0
 11
4200.5427085954015638
 21
248.6364271838008904
 31
0.0
  0
ARC
  5
113E2
  8
0
 10
4200.4926274144036142
 20
248.6389429904621124
 30
0.0
 40
0.0501443314175578
 50
357.12418849741141
 51
58.5163557363762834
  0
ARC
  5
113E3
  8
0
 10
4200.4549656209310342
 20
248.5913108204742912
 30
0.0
 40
0.110670766280392
 50
54.7646885167549584
 51
93.8340058378027067
  0
ARC
  5
113E4
  8
0
 10
4200.4478886302586034
 20
248.6405565538063058
 30
0.0
 40
0.061178200499301
 50
90.3026267952156303
 51
142.0704473524509979
  0
ARC
  5
113E5
  8
0
 10
4200.4306356898032391
 20
248.6600303350867023
 30
0.0
 40
0.0359154315349884
 50
149.6784733902539131
 51
188.6836147484933974
  0
LINE
  5
113E6
  8
0
 10
4200.39513195314521
 20
248.6546078904688954
 30
0.0
 11
4200.4011309514708046
 21
248.6208109601184049
 31
0.0
  0
ARC
  5
113E7
  8
0
 10
4200.4520267210173188
 20
248.6268201925026062
 30
0.0
 40
0.0512492949379738
 50
135.0702273456950877
 51
186.73370299689239
  0
ARC
  5
113E8
  8
0
 10
4200.4693231023784392
 20
248.6053585929894041
 30
0.0
 40
0.0787080853927483
 50
40.0188362770955024
 51
132.9012516936024042
  0
ARC
  5
113E9
  8
0
 10
4200.4863491912255995
 20
248.6256496537669989
 30
0.0
 40
0.0528208965809964
 50
349.7645000984072112
 51
35.0324742228592214
  0
ARC
  5
113EA
  8
0
 10
4200.3735536589756521
 20
248.9400661647096058
 30
0.0
 40
0.0163075007456071
 50
142.4003049456341898
 51
227.5678532144104906
  0
ARC
  5
113EB
  8
0
 10
4200.3806839055869204
 20
248.947689643240011
 30
0.0
 40
0.0267453745564015
 50
227.3129593846933005
 51
322.407668510162523
  0
ARC
  5
113EC
  8
0
 10
4200.3885927143710433
 20
248.9401230202298905
 30
0.0
 40
0.0159058808922801
 50
326.629246607382413
 51
26.2229121529406406
  0
ARC
  5
113ED
  8
0
 10
4200.3806881857408371
 20
248.9329693071105112
 30
0.0
 40
0.0263208626609977
 50
32.6027063427922101
 51
139.6352736375687016
  0
ARC
  5
113EE
  8
0
 10
4200.3745910763609572
 20
248.9598216936072959
 30
0.0
 40
0.0638081396133301
 50
194.1296011496332881
 51
242.9476173540066952
  0
ARC
  5
113EF
  8
0
 10
4200.3812672170333826
 20
248.9905897915166122
 30
0.0
 40
0.0945892540343133
 50
247.8283136368796988
 51
300.8081639484581729
  0
ARC
  5
113F0
  8
0
 10
4200.4060570847177587
 20
248.9469890947233068
 30
0.0
 40
0.0444568211776321
 50
302.1474333812068949
 51
350.5603784255847017
  0
LINE
  5
113F1
  8
0
 10
4200.449911915253324
 20
248.9396978130889977
 30
0.0
 11
4200.4542910305272017
 21
248.9598613261921969
 31
0.0
  0
ARC
  5
113F2
  8
0
 10
4200.4042098495283426
 20
248.9623771328533905
 30
0.0
 40
0.0501443314175578
 50
357.12418849741141
 51
58.5163557363762834
  0
ARC
  5
113F3
  8
0
 10
4200.3665480560548531
 20
248.9147449628655977
 30
0.0
 40
0.110670766280392
 50
54.7646885167549584
 51
93.8340058378027067
  0
ARC
  5
113F4
  8
0
 10
4200.3594710653842412
 20
248.9639906961976976
 30
0.0
 40
0.061178200499301
 50
90.3026267952156303
 51
142.0704473524509979
  0
ARC
  5
113F5
  8
0
 10
4200.3422181249270579
 20
248.9834644774780941
 30
0.0
 40
0.0359154315349884
 50
149.6784733902539131
 51
188.6836147484933974
  0
LINE
  5
113F6
  8
0
 10
4200.3067143882699384
 20
248.978042032860202
 30
0.0
 11
4200.3127133865964424
 21
248.9442451025097114
 31
0.0
  0
ARC
  5
113F7
  8
0
 10
4200.3636091561411376
 20
248.950254334893998
 30
0.0
 40
0.0512492949379738
 50
135.0702273456950877
 51
186.73370299689239
  0
ARC
  5
113F8
  8
0
 10
4200.3809055375022581
 20
248.9287927353807959
 30
0.0
 40
0.0787080853927483
 50
40.0188362770955024
 51
132.9012516936024042
  0
ARC
  5
113F9
  8
0
 10
4200.3979316263503279
 20
248.9490837961583054
 30
0.0
 40
0.0528208965809964
 50
349.7645000984072112
 51
35.0324742228592214
  0
ARC
  5
113FA
  8
0
 10
4200.0251553718380819
 20
248.9627584832697096
 30
0.0
 40
0.0163075007456071
 50
142.4003049456341898
 51
227.5678532144104906
  0
ARC
  5
113FB
  8
0
 10
4200.0322856184493503
 20
248.9703819618002001
 30
0.0
 40
0.0267453745564015
 50
227.3129593846933005
 51
322.407668510162523
  0
ARC
  5
113FC
  8
0
 10
4200.0401944272352921
 20
248.9628153387901079
 30
0.0
 40
0.0159058808922801
 50
326.629246607382413
 51
26.2229121529406406
  0
ARC
  5
113FD
  8
0
 10
4200.0322898986041764
 20
248.9556616256705865
 30
0.0
 40
0.0263208626609977
 50
32.6027063427922101
 51
139.6352736375687016
  0
ARC
  5
113FE
  8
0
 10
4200.0261927892233871
 20
248.9825140121677123
 30
0.0
 40
0.0638081396133301
 50
194.1296011496332881
 51
242.9476173540066952
  0
ARC
  5
113FF
  8
0
 10
4200.032868929896722
 20
249.0132821100768012
 30
0.0
 40
0.0945892540343133
 50
247.8283136368796988
 51
300.8081639484581729
  0
ARC
  5
11400
  8
0
 10
4200.057658797581098
 20
248.9696814132834959
 30
0.0
 40
0.0444568211776321
 50
302.1474333812068949
 51
350.5603784255847017
  0
LINE
  5
11401
  8
0
 10
4200.1015136281166633
 20
248.9623901316491867
 30
0.0
 11
4200.1058927433896315
 21
248.9825536447523859
 31
0.0
  0
ARC
  5
11402
  8
0
 10
4200.0558115623916819
 20
248.985069451413608
 30
0.0
 40
0.0501443314175578
 50
357.12418849741141
 51
58.5163557363762834
  0
ARC
  5
11403
  8
0
 10
4200.0181497689191019
 20
248.9374372814257868
 30
0.0
 40
0.110670766280392
 50
54.7646885167549584
 51
93.8340058378027067
  0
ARC
  5
11404
  8
0
 10
4200.0110727782475806
 20
248.9866830147580004
 30
0.0
 40
0.061178200499301
 50
90.3026267952156303
 51
142.0704473524509979
  0
ARC
  5
11405
  8
0
 10
4199.9938198377913068
 20
249.0061567960383115
 30
0.0
 40
0.0359154315349884
 50
149.6784733902539131
 51
188.6836147484933974
  0
LINE
  5
11406
  8
0
 10
4199.9583161011341872
 20
249.000734351420391
 30
0.0
 11
4199.9643150994588723
 21
248.9669374210699004
 31
0.0
  0
ARC
  5
11407
  8
0
 10
4200.0152108690072055
 20
248.9729466534541018
 30
0.0
 40
0.0512492949379738
 50
135.0702273456950877
 51
186.73370299689239
  0
ARC
  5
11408
  8
0
 10
4200.0325072503655974
 20
248.9514850539410133
 30
0.0
 40
0.0787080853927483
 50
40.0188362770955024
 51
132.9012516936024042
  0
ARC
  5
11409
  8
0
 10
4200.0495333392136672
 20
248.9717761147184092
 30
0.0
 40
0.0528208965809964
 50
349.7645000984072112
 51
35.0324742228592214
  0
ARC
  5
1140A
  8
0
 10
4200.3249004170684202
 20
249.2592381465817084
 30
0.0
 40
0.0163075007456071
 50
142.4003049456341898
 51
227.5678532144104906
  0
ARC
  5
1140B
  8
0
 10
4200.3320306636787791
 20
249.2668616251121989
 30
0.0
 40
0.0267453745564015
 50
227.3129593846933005
 51
322.407668510162523
  0
ARC
  5
1140C
  8
0
 10
4200.3399394724638114
 20
249.259295002102192
 30
0.0
 40
0.0159058808922801
 50
326.629246607382413
 51
26.2229121529406406
  0
ARC
  5
1140D
  8
0
 10
4200.3320349438354242
 20
249.2521412889826138
 30
0.0
 40
0.0263208626609977
 50
32.6027063427922101
 51
139.6352736375687016
  0
ARC
  5
1140E
  8
0
 10
4200.3259378344528159
 20
249.2789936754797111
 30
0.0
 40
0.0638081396133301
 50
194.1296011496332881
 51
242.9476173540066952
  0
ARC
  5
1140F
  8
0
 10
4200.3326139751270603
 20
249.3097617733886864
 30
0.0
 40
0.0945892540343133
 50
247.8283136368796988
 51
300.8081639484581729
  0
ARC
  5
11410
  8
0
 10
4200.3574038428114363
 20
249.2661610765956084
 30
0.0
 40
0.0444568211776321
 50
302.1474333812068949
 51
350.5603784255847017
  0
LINE
  5
11411
  8
0
 10
4200.4012586733470016
 20
249.2588697949612992
 30
0.0
 11
4200.4056377886199698
 21
249.2790333080644984
 31
0.0
  0
ARC
  5
11412
  8
0
 10
4200.3555566076229297
 20
249.2815491147258058
 30
0.0
 40
0.0501443314175578
 50
357.12418849741141
 51
58.5163557363762834
  0
ARC
  5
11413
  8
0
 10
4200.3178948141494402
 20
249.233916944737814
 30
0.0
 40
0.110670766280392
 50
54.7646885167549584
 51
93.8340058378027067
  0
ARC
  5
11414
  8
0
 10
4200.3108178234779189
 20
249.2831626780699139
 30
0.0
 40
0.061178200499301
 50
90.3026267952156303
 51
142.0704473524509979
  0
ARC
  5
11415
  8
0
 10
4200.2935648830207356
 20
249.3026364593503956
 30
0.0
 40
0.0359154315349884
 50
149.6784733902539131
 51
188.6836147484933974
  0
LINE
  5
11416
  8
0
 10
4200.2580611463627065
 20
249.2972140147323898
 30
0.0
 11
4200.2640601446892106
 21
249.2634170843820129
 31
0.0
  0
ARC
  5
11417
  8
0
 10
4200.3149559142357248
 20
249.2694263167661859
 30
0.0
 40
0.0512492949379738
 50
135.0702273456950877
 51
186.73370299689239
  0
ARC
  5
11418
  8
0
 10
4200.3322522955968452
 20
249.2479647172530974
 30
0.0
 40
0.0787080853927483
 50
40.0188362770955024
 51
132.9012516936024042
  0
ARC
  5
11419
  8
0
 10
4200.349278384444915
 20
249.268255778030408
 30
0.0
 40
0.0528208965809964
 50
349.7645000984072112
 51
35.0324742228592214
  0
ARC
  5
1141A
  8
0
 10
4200.6693195884517991
 20
249.1643554375150984
 30
0.0
 40
0.0163075007456071
 50
142.4003049456341898
 51
227.5678532144104906
  0
ARC
  5
1141B
  8
0
 10
4200.6764498350630674
 20
249.17197891604539
 30
0.0
 40
0.0267453745564015
 50
227.3129593846933005
 51
322.407668510162523
  0
ARC
  5
1141C
  8
0
 10
4200.6843586438490092
 20
249.1644122930354968
 30
0.0
 40
0.0159058808922801
 50
326.629246607382413
 51
26.2229121529406406
  0
ARC
  5
1141D
  8
0
 10
4200.6764541152178936
 20
249.1572585799158901
 30
0.0
 40
0.0263208626609977
 50
32.6027063427922101
 51
139.6352736375687016
  0
ARC
  5
1141E
  8
0
 10
4200.6703570058371042
 20
249.1841109664129021
 30
0.0
 40
0.0638081396133301
 50
194.1296011496332881
 51
242.9476173540066952
  0
ARC
  5
1141F
  8
0
 10
4200.6770331465113486
 20
249.2148790643219911
 30
0.0
 40
0.0945892540343133
 50
247.8283136368796988
 51
300.8081639484581729
  0
ARC
  5
11420
  8
0
 10
4200.7018230141948152
 20
249.1712783675287994
 30
0.0
 40
0.0444568211776321
 50
302.1474333812068949
 51
350.5603784255847017
  0
LINE
  5
11421
  8
0
 10
4200.74567784473129
 20
249.163987085894604
 30
0.0
 11
4200.7500569600042581
 21
249.1841505989976895
 31
0.0
  0
ARC
  5
11422
  8
0
 10
4200.6999757790063086
 20
249.1866664056589968
 30
0.0
 40
0.0501443314175578
 50
357.12418849741141
 51
58.5163557363762834
  0
ARC
  5
11423
  8
0
 10
4200.6623139855328191
 20
249.139034235671204
 30
0.0
 40
0.110670766280392
 50
54.7646885167549584
 51
93.8340058378027067
  0
ARC
  5
11424
  8
0
 10
4200.6552369948612977
 20
249.1882799690031902
 30
0.0
 40
0.061178200499301
 50
90.3026267952156303
 51
142.0704473524509979
  0
ARC
  5
11425
  8
0
 10
4200.6379840544050239
 20
249.2077537502837004
 30
0.0
 40
0.0359154315349884
 50
149.6784733902539131
 51
188.6836147484933974
  0
LINE
  5
11426
  8
0
 10
4200.6024803177469948
 20
249.2023313056656946
 30
0.0
 11
4200.6084793160716799
 21
249.168534375315204
 31
0.0
  0
ARC
  5
11427
  8
0
 10
4200.6593750856200131
 20
249.1745436076994906
 30
0.0
 40
0.0512492949379738
 50
135.0702273456950877
 51
186.73370299689239
  0
ARC
  5
11428
  8
0
 10
4200.6766714669802241
 20
249.1530820081862032
 30
0.0
 40
0.0787080853927483
 50
40.0188362770955024
 51
132.9012516936024042
  0
ARC
  5
11429
  8
0
 10
4200.6936975558282938
 20
249.173373068963798
 30
0.0
 40
0.0528208965809964
 50
349.7645000984072112
 51
35.0324742228592214
  0
ARC
  5
1142A
  8
0
 10
4200.7059623195464155
 20
249.4858031818193069
 30
0.0
 40
0.0163075007456071
 50
142.4003049456341898
 51
227.5678532144104906
  0
ARC
  5
1142B
  8
0
 10
4200.7130925661567744
 20
249.4934266603497974
 30
0.0
 40
0.0267453745564015
 50
227.3129593846933005
 51
322.407668510162523
  0
ARC
  5
1142C
  8
0
 10
4200.7210013749427162
 20
249.4858600373397053
 30
0.0
 40
0.0159058808922801
 50
326.629246607382413
 51
26.2229121529406406
  0
ARC
  5
1142D
  8
0
 10
4200.7130968463116005
 20
249.4787063242202976
 30
0.0
 40
0.0263208626609977
 50
32.6027063427922101
 51
139.6352736375687016
  0
ARC
  5
1142E
  8
0
 10
4200.7069997369317207
 20
249.5055587107171959
 30
0.0
 40
0.0638081396133301
 50
194.1296011496332881
 51
242.9476173540066952
  0
ARC
  5
1142F
  8
0
 10
4200.7136758776041461
 20
249.5363268086263986
 30
0.0
 40
0.0945892540343133
 50
247.8283136368796988
 51
300.8081639484581729
  0
ARC
  5
11430
  8
0
 10
4200.7384657452876127
 20
249.4927261118332069
 30
0.0
 40
0.0444568211776321
 50
302.1474333812068949
 51
350.5603784255847017
  0
LINE
  5
11431
  8
0
 10
4200.7823205758240874
 20
249.4854348301988125
 30
0.0
 11
4200.7866996910979651
 21
249.5055983433020117
 31
0.0
  0
ARC
  5
11432
  8
0
 10
4200.7366185101000156
 20
249.5081141499632906
 30
0.0
 40
0.0501443314175578
 50
357.12418849741141
 51
58.5163557363762834
  0
ARC
  5
11433
  8
0
 10
4200.6989567166256165
 20
249.4604819799754978
 30
0.0
 40
0.110670766280392
 50
54.7646885167549584
 51
93.8340058378027067
  0
ARC
  5
11434
  8
0
 10
4200.6918797259559142
 20
249.5097277133075124
 30
0.0
 40
0.061178200499301
 50
90.3026267952156303
 51
142.0704473524509979
  0
ARC
  5
11435
  8
0
 10
4200.6746267854978214
 20
249.5292014945879089
 30
0.0
 40
0.0359154315349884
 50
149.6784733902539131
 51
188.6836147484933974
  0
LINE
  5
11436
  8
0
 10
4200.6391230488407018
 20
249.5237790499701021
 30
0.0
 11
4200.6451220471653869
 21
249.4899821196194978
 31
0.0
  0
ARC
  5
11437
  8
0
 10
4200.6960178167137201
 20
249.4959913520038128
 30
0.0
 40
0.0512492949379738
 50
135.0702273456950877
 51
186.73370299689239
  0
ARC
  5
11438
  8
0
 10
4200.7133141980748405
 20
249.4745297524906107
 30
0.0
 40
0.0787080853927483
 50
40.0188362770955024
 51
132.9012516936024042
  0
ARC
  5
11439
  8
0
 10
4200.7303402869229103
 20
249.4948208132680918
 30
0.0
 40
0.0528208965809964
 50
349.7645000984072112
 51
35.0324742228592214
  0
ARC
  5
1143A
  8
0
 10
4201.0220665607057526
 20
249.3230629138550967
 30
0.0
 40
0.0163075007456071
 50
142.4003049456341898
 51
227.5678532144104906
  0
ARC
  5
1143B
  8
0
 10
4201.0291968073161115
 20
249.3306863923855872
 30
0.0
 40
0.0267453745564015
 50
227.3129593846933005
 51
322.407668510162523
  0
ARC
  5
1143C
  8
0
 10
4201.0371056161011438
 20
249.3231197693756087
 30
0.0
 40
0.0159058808922801
 50
326.629246607382413
 51
26.2229121529406406
  0
ARC
  5
1143D
  8
0
 10
4201.0292010874718471
 20
249.315966056256002
 30
0.0
 40
0.0263208626609977
 50
32.6027063427922101
 51
139.6352736375687016
  0
ARC
  5
1143E
  8
0
 10
4201.0231039780910578
 20
249.3428184427530994
 30
0.0
 40
0.0638081396133301
 50
194.1296011496332881
 51
242.9476173540066952
  0
ARC
  5
1143F
  8
0
 10
4201.0297801187625737
 20
249.373586540662302
 30
0.0
 40
0.0945892540343133
 50
247.8283136368796988
 51
300.8081639484581729
  0
ARC
  5
11440
  8
0
 10
4201.0545699864478593
 20
249.3299858438689967
 30
0.0
 40
0.0444568211776321
 50
302.1474333812068949
 51
350.5603784255847017
  0
LINE
  5
11441
  8
0
 10
4201.0984248169834245
 20
249.3226945622346022
 30
0.0
 11
4201.1028039322573022
 21
249.3428580753378014
 31
0.0
  0
ARC
  5
11442
  8
0
 10
4201.0527227512584432
 20
249.3453738819991088
 30
0.0
 40
0.0501443314175578
 50
357.12418849741141
 51
58.5163557363762834
  0
ARC
  5
11443
  8
0
 10
4201.0150609577849536
 20
249.2977417120112023
 30
0.0
 40
0.110670766280392
 50
54.7646885167549584
 51
93.8340058378027067
  0
ARC
  5
11444
  8
0
 10
4201.0079839671143418
 20
249.3469874453433874
 30
0.0
 40
0.061178200499301
 50
90.3026267952156303
 51
142.0704473524509979
  0
ARC
  5
11445
  8
0
 10
4200.990731026658068
 20
249.3664612266238123
 30
0.0
 40
0.0359154315349884
 50
149.6784733902539131
 51
188.6836147484933974
  0
LINE
  5
11446
  8
0
 10
4200.9552272900000389
 20
249.3610387820058065
 30
0.0
 11
4200.9612262883256335
 21
249.3272418516552875
 31
0.0
  0
ARC
  5
11447
  8
0
 10
4201.0121220578721477
 20
249.3332510840396878
 30
0.0
 40
0.0512492949379738
 50
135.0702273456950877
 51
186.73370299689239
  0
ARC
  5
11448
  8
0
 10
4201.0294184392323587
 20
249.3117894845265141
 30
0.0
 40
0.0787080853927483
 50
40.0188362770955024
 51
132.9012516936024042
  0
ARC
  5
11449
  8
0
 10
4201.0464445280813379
 20
249.33208054530391
 30
0.0
 40
0.0528208965809964
 50
349.7645000984072112
 51
35.0324742228592214
  0
ARC
  5
1144A
  8
0
 10
4200.9486218634338002
 20
249.0149271589876037
 30
0.0
 40
0.0163075007456071
 50
142.4003049456341898
 51
227.5678532144104906
  0
ARC
  5
1144B
  8
0
 10
4200.955752110045978
 20
249.0225506375180089
 30
0.0
 40
0.0267453745564015
 50
227.3129593846933005
 51
322.407668510162523
  0
ARC
  5
1144C
  8
0
 10
4200.9636609188319198
 20
249.014984014508002
 30
0.0
 40
0.0159058808922801
 50
326.629246607382413
 51
26.2229121529406406
  0
ARC
  5
1144D
  8
0
 10
4200.9557563901998947
 20
249.0078303013883954
 30
0.0
 40
0.0263208626609977
 50
32.6027063427922101
 51
139.6352736375687016
  0
ARC
  5
1144E
  8
0
 10
4200.9496592808191053
 20
249.0346826878854074
 30
0.0
 40
0.0638081396133301
 50
194.1296011496332881
 51
242.9476173540066952
  0
ARC
  5
1144F
  8
0
 10
4200.9563354214933497
 20
249.0654507857946101
 30
0.0
 40
0.0945892540343133
 50
247.8283136368796988
 51
300.8081639484581729
  0
ARC
  5
11450
  8
0
 10
4200.9811252891768163
 20
249.0218500890013047
 30
0.0
 40
0.0444568211776321
 50
302.1474333812068949
 51
350.5603784255847017
  0
LINE
  5
11451
  8
0
 10
4201.0249801197132911
 20
249.0145588073671092
 30
0.0
 11
4201.0293592349853498
 21
249.0347223204703084
 31
0.0
  0
ARC
  5
11452
  8
0
 10
4200.9792780539883097
 20
249.0372381271315021
 30
0.0
 40
0.0501443314175578
 50
357.12418849741141
 51
58.5163557363762834
  0
ARC
  5
11453
  8
0
 10
4200.9416162605148202
 20
248.9896059571437092
 30
0.0
 40
0.110670766280392
 50
54.7646885167549584
 51
93.8340058378027067
  0
ARC
  5
11454
  8
0
 10
4200.9345392698442083
 20
249.0388516904756955
 30
0.0
 40
0.061178200499301
 50
90.3026267952156303
 51
142.0704473524509979
  0
ARC
  5
11455
  8
0
 10
4200.9172863293879345
 20
249.0583254717562056
 30
0.0
 40
0.0359154315349884
 50
149.6784733902539131
 51
188.6836147484933974
  0
LINE
  5
11456
  8
0
 10
4200.881782592728996
 20
249.0529030271383135
 30
0.0
 11
4200.887781591053681
 21
249.0191060967877945
 31
0.0
  0
ARC
  5
11457
  8
0
 10
4200.9386773606020142
 20
249.0251153291719959
 30
0.0
 40
0.0512492949379738
 50
135.0702273456950877
 51
186.73370299689239
  0
ARC
  5
11458
  8
0
 10
4200.9559737419622252
 20
249.0036537296589074
 30
0.0
 40
0.0787080853927483
 50
40.0188362770955024
 51
132.9012516936024042
  0
ARC
  5
11459
  8
0
 10
4200.9729998308112044
 20
249.0239447904363885
 30
0.0
 40
0.0528208965809964
 50
349.7645000984072112
 51
35.0324742228592214
  0
ARC
  5
1145A
  8
0
 10
4201.1461855610778002
 20
249.6274471641143862
 30
0.0
 40
0.0163075007456071
 50
142.4003049456341898
 51
227.5678532144104906
  0
ARC
  5
1145B
  8
0
 10
4201.1533158076890686
 20
249.6350706426447061
 30
0.0
 40
0.0267453745564015
 50
227.3129593846933005
 51
322.407668510162523
  0
ARC
  5
1145C
  8
0
 10
4201.1612246164750104
 20
249.6275040196346993
 30
0.0
 40
0.0159058808922801
 50
326.629246607382413
 51
26.2229121529406406
  0
ARC
  5
1145D
  8
0
 10
4201.1533200878438947
 20
249.6203503065152915
 30
0.0
 40
0.0263208626609977
 50
32.6027063427922101
 51
139.6352736375687016
  0
ARC
  5
1145E
  8
0
 10
4201.1472229784640149
 20
249.6472026930121046
 30
0.0
 40
0.0638081396133301
 50
194.1296011496332881
 51
242.9476173540066952
  0
ARC
  5
1145F
  8
0
 10
4201.1538991191373498
 20
249.6779707909213073
 30
0.0
 40
0.0945892540343133
 50
247.8283136368796988
 51
300.8081639484581729
  0
ARC
  5
11460
  8
0
 10
4201.1786889868208164
 20
249.6343700941280872
 30
0.0
 40
0.0444568211776321
 50
302.1474333812068949
 51
350.5603784255847017
  0
LINE
  5
11461
  8
0
 10
4201.2225438173563816
 20
249.6270788124938065
 30
0.0
 11
4201.2269229326302593
 21
249.647242325596892
 31
0.0
  0
ARC
  5
11462
  8
0
 10
4201.1609647587483778
 20
249.6560784796116081
 30
0.0
 40
0.066547414071292
 50
352.3697425275736919
 51
45.3749252587216532
  0
ARC
  5
11463
  8
0
 10
4201.1527835033075462
 20
249.6512709163127113
 30
0.0
 40
0.0757555749781028
 50
43.5249300938979715
 51
107.7463210184107965
  0
ARC
  5
11464
  8
0
 10
4201.1526782848259245
 20
249.6450959333135131
 30
0.0
 40
0.0816287273691169
 50
106.3547475781821987
 51
147.4813251316572007
  0
ARC
  5
11465
  8
0
 10
4201.1148500270310251
 20
249.6708454768829029
 30
0.0
 40
0.0359154315349884
 50
149.6784733902539131
 51
188.6836147484933974
  0
LINE
  5
11466
  8
0
 10
4201.079346290372996
 20
249.6654230322650108
 30
0.0
 11
4201.0853452886976811
 21
249.6316261019144918
 31
0.0
  0
ARC
  5
11467
  8
0
 10
4201.1362410582451048
 20
249.6376353342986931
 30
0.0
 40
0.0512492949379738
 50
135.0702273456950877
 51
186.73370299689239
  0
ARC
  5
11468
  8
0
 10
4201.1535374396053157
 20
249.6161737347856047
 30
0.0
 40
0.0787080853927483
 50
40.0188362770955024
 51
132.9012516936024042
  0
ARC
  5
11469
  8
0
 10
4201.1705635284552045
 20
249.6364647955630005
 30
0.0
 40
0.0528208965809964
 50
349.7645000984072112
 51
35.0324742228592214
  0
ARC
  5
1146A
  8
0
 10
4201.4168910647013035
 20
249.4040737969679071
 30
0.0
 40
0.0163075007456071
 50
142.4003049456341898
 51
227.5678532144104906
  0
ARC
  5
1146B
  8
0
 10
4201.4240213113098434
 20
249.4116972754983976
 30
0.0
 40
0.0267453745564015
 50
227.3129593846933005
 51
322.407668510162523
  0
ARC
  5
1146C
  8
0
 10
4201.4319301200957852
 20
249.4041306524883908
 30
0.0
 40
0.0159058808922801
 50
326.629246607382413
 51
26.2229121529406406
  0
ARC
  5
1146D
  8
0
 10
4201.4240255914655791
 20
249.3969769393688125
 30
0.0
 40
0.0263208626609977
 50
32.6027063427922101
 51
139.6352736375687016
  0
ARC
  5
1146E
  8
0
 10
4201.4179284820856992
 20
249.4238293258657961
 30
0.0
 40
0.0638081396133301
 50
194.1296011496332881
 51
242.9476173540066952
  0
ARC
  5
1146F
  8
0
 10
4201.4246046227590341
 20
249.4545974237749988
 30
0.0
 40
0.0945892540343133
 50
247.8283136368796988
 51
300.8081639484581729
  0
ARC
  5
11470
  8
0
 10
4201.4493944904415912
 20
249.4109967269816934
 30
0.0
 40
0.0444568211776321
 50
302.1474333812068949
 51
350.5603784255847017
  0
LINE
  5
11471
  8
0
 10
4201.4932493209789754
 20
249.403705445347498
 30
0.0
 11
4201.4976284362519436
 21
249.4238689584506972
 31
0.0
  0
ARC
  5
11472
  8
0
 10
4201.4316702623700621
 20
249.4327051124651859
 30
0.0
 40
0.066547414071292
 50
352.3697425275736919
 51
45.3749252587216532
  0
ARC
  5
11473
  8
0
 10
4201.42348900693014
 20
249.4278975491662891
 30
0.0
 40
0.0757555749781028
 50
43.5249300938979715
 51
107.7463210184107965
  0
ARC
  5
11474
  8
0
 10
4201.4233837884476088
 20
249.4217225661670909
 30
0.0
 40
0.0816287273691169
 50
106.3547475781821987
 51
147.4813251316572007
  0
ARC
  5
11475
  8
0
 10
4201.3855555306527094
 20
249.4474721097365943
 30
0.0
 40
0.0359154315349884
 50
149.6784733902539131
 51
188.6836147484933974
  0
LINE
  5
11476
  8
0
 10
4201.3500517939937708
 20
249.4420496651187023
 30
0.0
 11
4201.3560507923211844
 21
249.4082527347682117
 31
0.0
  0
ARC
  5
11477
  8
0
 10
4201.4069465618667891
 20
249.414261967152413
 30
0.0
 40
0.0512492949379738
 50
135.0702273456950877
 51
186.73370299689239
  0
ARC
  5
11478
  8
0
 10
4201.4242429432279096
 20
249.3928003676392962
 30
0.0
 40
0.0787080853927483
 50
40.0188362770955024
 51
132.9012516936024042
  0
ARC
  5
11479
  8
0
 10
4201.4412690320759793
 20
249.4130914284166067
 30
0.0
 40
0.0528208965809964
 50
349.7645000984072112
 51
35.0324742228592214
  0
ARC
  5
1147A
  8
0
 10
4201.2782908799226789
 20
249.1232474284256
 30
0.0
 40
0.0163075007456071
 50
142.4003049456341898
 51
227.5678532144104906
  0
ARC
  5
1147B
  8
0
 10
4201.2854211265330378
 20
249.1308709069560052
 30
0.0
 40
0.0267453745564015
 50
227.3129593846933005
 51
322.407668510162523
  0
ARC
  5
1147C
  8
0
 10
4201.2933299353171606
 20
249.1233042839459983
 30
0.0
 40
0.0159058808922801
 50
326.629246607382413
 51
26.2229121529406406
  0
ARC
  5
1147D
  8
0
 10
4201.2854254066878639
 20
249.1161505708263917
 30
0.0
 40
0.0263208626609977
 50
32.6027063427922101
 51
139.6352736375687016
  0
ARC
  5
1147E
  8
0
 10
4201.2793282973070745
 20
249.1430029573234037
 30
0.0
 40
0.0638081396133301
 50
194.1296011496332881
 51
242.9476173540066952
  0
ARC
  5
1147F
  8
0
 10
4201.2860044379813189
 20
249.1737710552326064
 30
0.0
 40
0.0945892540343133
 50
247.8283136368796988
 51
300.8081639484581729
  0
ARC
  5
11480
  8
0
 10
4201.3107943056647855
 20
249.130170358439301
 30
0.0
 40
0.0444568211776321
 50
302.1474333812068949
 51
350.5603784255847017
  0
LINE
  5
11481
  8
0
 10
4201.3546491362012603
 20
249.1228790768051056
 30
0.0
 11
4201.3590282514742285
 21
249.1430425899081911
 31
0.0
  0
ARC
  5
11482
  8
0
 10
4201.2930700775923469
 20
249.1518787439227083
 30
0.0
 40
0.066547414071292
 50
352.3697425275736919
 51
45.3749252587216532
  0
ARC
  5
11483
  8
0
 10
4201.2848888221524248
 20
249.1470711806238967
 30
0.0
 40
0.0757555749781028
 50
43.5249300938979715
 51
107.7463210184107965
  0
ARC
  5
11484
  8
0
 10
4201.2847836036698936
 20
249.1408961976246985
 30
0.0
 40
0.0816287273691169
 50
106.3547475781821987
 51
147.4813251316572007
  0
ARC
  5
11485
  8
0
 10
4201.2469553458749942
 20
249.1666457411942019
 30
0.0
 40
0.0359154315349884
 50
149.6784733902539131
 51
188.6836147484933974
  0
LINE
  5
11486
  8
0
 10
4201.2114516092169652
 20
249.1612232965761109
 30
0.0
 11
4201.2174506075425597
 21
249.1274263662255919
 31
0.0
  0
ARC
  5
11487
  8
0
 10
4201.2683463770899834
 20
249.1334355986099922
 30
0.0
 40
0.0512492949379738
 50
135.0702273456950877
 51
186.73370299689239
  0
ARC
  5
11488
  8
0
 10
4201.2856427584501944
 20
249.1119739990967901
 30
0.0
 40
0.0787080853927483
 50
40.0188362770955024
 51
132.9012516936024042
  0
ARC
  5
11489
  8
0
 10
4201.3026688472982642
 20
249.1322650598742996
 30
0.0
 40
0.0528208965809964
 50
349.7645000984072112
 51
35.0324742228592214
  0
ARC
  5
1148A
  8
0
 10
4201.2726360533979459
 20
247.0279454266110974
 30
0.0
 40
0.0163075007456071
 50
142.4003049456341898
 51
227.5678532144104906
  0
ARC
  5
1148B
  8
0
 10
4201.2797663000083048
 20
247.0355689051415027
 30
0.0
 40
0.0267453745564015
 50
227.3129593846933005
 51
322.407668510162523
  0
ARC
  5
1148C
  8
0
 10
4201.2876751087942466
 20
247.0280022821312969
 30
0.0
 40
0.0159058808922801
 50
326.629246607382413
 51
26.2229121529406406
  0
ARC
  5
1148D
  8
0
 10
4201.2797705801631309
 20
247.0208485690118039
 30
0.0
 40
0.0263208626609977
 50
32.6027063427922101
 51
139.6352736375687016
  0
ARC
  5
1148E
  8
0
 10
4201.2736734707841606
 20
247.0477009555089012
 30
0.0
 40
0.0638081396133301
 50
194.1296011496332881
 51
242.9476173540066952
  0
ARC
  5
1148F
  8
0
 10
4201.2803496114556765
 20
247.0784690534179902
 30
0.0
 40
0.0945892540343133
 50
247.8283136368796988
 51
300.8081639484581729
  0
ARC
  5
11490
  8
0
 10
4201.3051394791400526
 20
247.0348683566247985
 30
0.0
 40
0.0444568211776321
 50
302.1474333812068949
 51
350.5603784255847017
  0
LINE
  5
11491
  8
0
 10
4201.3489943096756178
 20
247.0275770749904893
 30
0.0
 11
4201.353373424948586
 21
247.0477405880936033
 31
0.0
  0
ARC
  5
11492
  8
0
 10
4201.3032922439506365
 20
247.0502563947547969
 30
0.0
 40
0.0501443314175578
 50
357.12418849741141
 51
58.5163557363762834
  0
ARC
  5
11493
  8
0
 10
4201.265630450477147
 20
247.0026242247670893
 30
0.0
 40
0.110670766280392
 50
54.7646885167549584
 51
93.8340058378027067
  0
ARC
  5
11494
  8
0
 10
4201.2585534598074446
 20
247.0518699580991893
 30
0.0
 40
0.061178200499301
 50
90.3026267952156303
 51
142.0704473524509979
  0
ARC
  5
11495
  8
0
 10
4201.2413005193520803
 20
247.0713437393796994
 30
0.0
 40
0.0359154315349884
 50
149.6784733902539131
 51
188.6836147484933974
  0
LINE
  5
11496
  8
0
 10
4201.2057967826931417
 20
247.0659212947616084
 30
0.0
 11
4201.2117957810187363
 21
247.032124364411203
 31
0.0
  0
ARC
  5
11497
  8
0
 10
4201.2626915505652505
 20
247.0381335967954897
 30
0.0
 40
0.0512492949379738
 50
135.0702273456950877
 51
186.73370299689239
  0
ARC
  5
11498
  8
0
 10
4201.279987931924552
 20
247.0166719972822023
 30
0.0
 40
0.0787080853927483
 50
40.0188362770955024
 51
132.9012516936024042
  0
ARC
  5
11499
  8
0
 10
4201.2970140207726217
 20
247.0369630580597118
 30
0.0
 40
0.0528208965809964
 50
349.7645000984072112
 51
35.0324742228592214
  0
ARC
  5
1149A
  8
0
 10
4201.2177509147777528
 20
246.8388621620752872
 30
0.0
 40
0.0163075007456071
 50
142.4003049456341898
 51
227.5678532144104906
  0
ARC
  5
1149B
  8
0
 10
4201.2248811613890211
 20
246.8464856406056072
 30
0.0
 40
0.0267453745564015
 50
227.3129593846933005
 51
322.407668510162523
  0
ARC
  5
1149C
  8
0
 10
4201.2327899701722345
 20
246.8389190175956003
 30
0.0
 40
0.0159058808922801
 50
326.629246607382413
 51
26.2229121529406406
  0
ARC
  5
1149D
  8
0
 10
4201.2248854415429378
 20
246.8317653044759084
 30
0.0
 40
0.0263208626609977
 50
32.6027063427922101
 51
139.6352736375687016
  0
ARC
  5
1149E
  8
0
 10
4201.2187883321630579
 20
246.8586176909730909
 30
0.0
 40
0.0638081396133301
 50
194.1296011496332881
 51
242.9476173540066952
  0
ARC
  5
1149F
  8
0
 10
4201.2254644728373023
 20
246.8893857888822083
 30
0.0
 40
0.0945892540343133
 50
247.8283136368796988
 51
300.8081639484581729
  0
ARC
  5
114A0
  8
0
 10
4201.2502543405207689
 20
246.8457850920889882
 30
0.0
 40
0.0444568211776321
 50
302.1474333812068949
 51
350.5603784255847017
  0
LINE
  5
114A1
  8
0
 10
4201.2941091710563342
 20
246.8384938104547075
 30
0.0
 11
4201.2984882863302118
 21
246.8586573235579067
 31
0.0
  0
ARC
  5
114A2
  8
0
 10
4201.2484071053313528
 20
246.8611731302191004
 30
0.0
 40
0.0501443314175578
 50
357.12418849741141
 51
58.5163557363762834
  0
ARC
  5
114A3
  8
0
 10
4201.2107453118587728
 20
246.8135409602313075
 30
0.0
 40
0.110670766280392
 50
54.7646885167549584
 51
93.8340058378027067
  0
ARC
  5
114A4
  8
0
 10
4201.2036683211872514
 20
246.8627866935634074
 30
0.0
 40
0.061178200499301
 50
90.3026267952156303
 51
142.0704473524509979
  0
ARC
  5
114A5
  8
0
 10
4201.1864153807309776
 20
246.8822604748438039
 30
0.0
 40
0.0359154315349884
 50
149.6784733902539131
 51
188.6836147484933974
  0
LINE
  5
114A6
  8
0
 10
4201.1509116440720391
 20
246.8768380302257128
 30
0.0
 11
4201.1569106423976336
 21
246.8430410998753075
 31
0.0
  0
ARC
  5
114A7
  8
0
 10
4201.2078064119450573
 20
246.8490503322597078
 30
0.0
 40
0.0512492949379738
 50
135.0702273456950877
 51
186.73370299689239
  0
ARC
  5
114A8
  8
0
 10
4201.2251027933052683
 20
246.827588732746392
 30
0.0
 40
0.0787080853927483
 50
40.0188362770955024
 51
132.9012516936024042
  0
ARC
  5
114A9
  8
0
 10
4201.2421288821533381
 20
246.8478797935239868
 30
0.0
 40
0.0528208965809964
 50
349.7645000984072112
 51
35.0324742228592214
  0
ARC
  5
114AA
  8
0
 10
4201.378575455218197
 20
246.622648946334607
 30
0.0
 40
0.0163075007456071
 50
142.4003049456341898
 51
227.5678532144104906
  0
ARC
  5
114AB
  8
0
 10
4201.3857057018276464
 20
246.6302724248650975
 30
0.0
 40
0.0267453745564015
 50
227.3129593846933005
 51
322.407668510162523
  0
ARC
  5
114AC
  8
0
 10
4201.3936145106135882
 20
246.6227058018550053
 30
0.0
 40
0.0159058808922801
 50
326.629246607382413
 51
26.2229121529406406
  0
ARC
  5
114AD
  8
0
 10
4201.3857099819842915
 20
246.6155520887355124
 30
0.0
 40
0.0263208626609977
 50
32.6027063427922101
 51
139.6352736375687016
  0
ARC
  5
114AE
  8
0
 10
4201.3796128726025927
 20
246.6424044752326097
 30
0.0
 40
0.0638081396133301
 50
194.1296011496332881
 51
242.9476173540066952
  0
ARC
  5
114AF
  8
0
 10
4201.3862890132759276
 20
246.6731725731416986
 30
0.0
 40
0.0945892540343133
 50
247.8283136368796988
 51
300.8081639484581729
  0
ARC
  5
114B0
  8
0
 10
4201.4110788809603036
 20
246.629571876348507
 30
0.0
 40
0.0444568211776321
 50
302.1474333812068949
 51
350.5603784255847017
  0
LINE
  5
114B1
  8
0
 10
4201.4549337114967784
 20
246.6222805947141978
 30
0.0
 11
4201.4593128267688371
 21
246.6424441078173118
 31
0.0
  0
ARC
  5
114B2
  8
0
 10
4201.4092316457708876
 20
246.6449599144787044
 30
0.0
 40
0.0501443314175578
 50
357.12418849741141
 51
58.5163557363762834
  0
ARC
  5
114B3
  8
0
 10
4201.3715698522983075
 20
246.5973277444907978
 30
0.0
 40
0.110670766280392
 50
54.7646885167549584
 51
93.8340058378027067
  0
ARC
  5
114B4
  8
0
 10
4201.3644928616258767
 20
246.6465734778228978
 30
0.0
 40
0.061178200499301
 50
90.3026267952156303
 51
142.0704473524509979
  0
ARC
  5
114B5
  8
0
 10
4201.3472399211714219
 20
246.6660472591032089
 30
0.0
 40
0.0359154315349884
 50
149.6784733902539131
 51
188.6836147484933974
  0
LINE
  5
114B6
  8
0
 10
4201.3117361845115738
 20
246.6606248144852884
 30
0.0
 11
4201.3177351828389874
 21
246.6268278841347978
 31
0.0
  0
ARC
  5
114B7
  8
0
 10
4201.3686309523845921
 20
246.6328371165189992
 30
0.0
 40
0.0512492949379738
 50
135.0702273456950877
 51
186.73370299689239
  0
ARC
  5
114B8
  8
0
 10
4201.385927333744803
 20
246.6113755170059108
 30
0.0
 40
0.0787080853927483
 50
40.0188362770955024
 51
132.9012516936024042
  0
ARC
  5
114B9
  8
0
 10
4201.4029534225937823
 20
246.6316665777833919
 30
0.0
 40
0.0528208965809964
 50
349.7645000984072112
 51
35.0324742228592214
  0
ARC
  5
114BA
  8
0
 10
4201.553372402901914
 20
247.9895999127396067
 30
0.0
 40
0.1930069620747613
 50
119.9109298242331931
 51
220.4093686186133993
  0
ARC
  5
114BB
  8
0
 10
4216.6558599767558917
 20
244.6133103156739992
 30
0.0
 40
15.6521638429437999
 50
173.4906567662667953
 51
179.7390058377256139
  0
ARC
  5
114BC
  8
0
 10
4218.0827176477632747
 20
244.9206644447438919
 30
0.0
 40
17.0804903669826196
 50
180.7918634322213052
 51
187.7536014399759949
  0
ARC
  5
114BD
  8
0
 10
4199.5154780403672703
 20
242.3545461334921924
 30
0.0
 40
1.663627042657345
 50
356.8716941970239986
 51
9.0518154642373183
  0
ARC
  5
114BE
  8
0
 10
4201.2508397344654441
 20
242.1178626113598966
 30
0.0
 40
0.2135672812542478
 50
109.7354476750796977
 51
184.1349976407761915
  0
ARC
  5
114BF
  8
0
 10
4201.311609329221028
 20
242.2083072134369957
 30
0.0
 40
0.2935285453353566
 50
201.1365963466039091
 51
255.6565581181660889
  0
ARC
  5
114C0
  8
0
 10
4201.589520609299143
 20
246.679060619603689
 30
0.0
 40
0.0444683327080971
 50
96.5869502489478151
 51
188.7261225396574105
  0
ARC
  5
114C1
  8
0
 10
4238.2609780369939472
 20
246.4911390508090108
 30
0.0
 40
36.7158580407358528
 50
179.7172715636529858
 51
180.7603779011571987
  0
ARC
  5
114C2
  8
0
 10
4201.5885147122116905
 20
246.0038829322380991
 30
0.0
 40
0.0401615289099366
 50
179.9847728326826086
 51
269.5756276110475937
  0
ARC
  5
114C3
  8
0
 10
4201.5208515087088017
 20
246.4239416698704019
 30
0.0
 40
0.0291021835634396
 50
33.3703876273999711
 51
82.1743831276470047
  0
LINE
  5
114C4
  8
0
 10
4201.6632926647171189
 20
245.9637225049366123
 30
0.0
 11
4201.5882172507208452
 21
245.9637225049366123
 31
0.0
  0
LINE
  5
114C5
  8
0
 10
4201.5844196070202088
 20
246.7232354132034118
 30
0.0
 11
4201.6670903084168458
 21
246.7232354132034118
 31
0.0
  0
ARC
  5
114C6
  8
0
 10
4200.6722393077943707
 20
248.8418200989353863
 30
0.0
 40
0.0163075007456071
 50
142.4003049456341898
 51
227.5678532144104906
  0
ARC
  5
114C7
  8
0
 10
4200.6793695544047296
 20
248.8494435774657916
 30
0.0
 40
0.0267453745564015
 50
227.3129593846933005
 51
322.407668510162523
  0
ARC
  5
114C8
  8
0
 10
4200.6872783631915809
 20
248.8418769544558131
 30
0.0
 40
0.0159058808922801
 50
326.629246607382413
 51
26.2229121529406406
  0
ARC
  5
114C9
  8
0
 10
4200.6793738345613747
 20
248.8347232413362065
 30
0.0
 40
0.0263208626609977
 50
32.6027063427922101
 51
139.6352736375687016
  0
ARC
  5
114CA
  8
0
 10
4200.6732767251796759
 20
248.8615756278333038
 30
0.0
 40
0.0638081396133301
 50
194.1296011496332881
 51
242.9476173540066952
  0
ARC
  5
114CB
  8
0
 10
4200.6799528658530107
 20
248.8923437257425064
 30
0.0
 40
0.0945892540343133
 50
247.8283136368796988
 51
300.8081639484581729
  0
ARC
  5
114CC
  8
0
 10
4200.7047427335373868
 20
248.8487430289492863
 30
0.0
 40
0.0444568211776321
 50
302.1474333812068949
 51
350.5603784255847017
  0
LINE
  5
114CD
  8
0
 10
4200.7485975640738616
 20
248.8414517473148919
 30
0.0
 11
4200.7529766793459203
 21
248.8616152604180911
 31
0.0
  0
ARC
  5
114CE
  8
0
 10
4200.7028954983479707
 20
248.8641310670793985
 30
0.0
 40
0.0501443314175578
 50
357.12418849741141
 51
58.5163557363762834
  0
ARC
  5
114CF
  8
0
 10
4200.6652337048753907
 20
248.8164988970916056
 30
0.0
 40
0.110670766280392
 50
54.7646885167549584
 51
93.8340058378027067
  0
ARC
  5
114D0
  8
0
 10
4200.6581567142038693
 20
248.8657446304235066
 30
0.0
 40
0.061178200499301
 50
90.3026267952156303
 51
142.0704473524509979
  0
ARC
  5
114D1
  8
0
 10
4200.6409037737475956
 20
248.8852184117039883
 30
0.0
 40
0.0359154315349884
 50
149.6784733902539131
 51
188.6836147484933974
  0
LINE
  5
114D2
  8
0
 10
4200.6054000370895665
 20
248.8797959670860962
 30
0.0
 11
4200.6113990354151611
 21
248.8459990367356056
 31
0.0
  0
ARC
  5
114D3
  8
0
 10
4200.6622948049625847
 20
248.8520082691198922
 30
0.0
 40
0.0512492949379738
 50
135.0702273456950877
 51
186.73370299689239
  0
ARC
  5
114D4
  8
0
 10
4200.6795911863227957
 20
248.8305466696066901
 30
0.0
 40
0.0787080853927483
 50
40.0188362770955024
 51
132.9012516936024042
  0
ARC
  5
114D5
  8
0
 10
4200.6966172751708655
 20
248.8508377303841996
 30
0.0
 40
0.0528208965809964
 50
349.7645000984072112
 51
35.0324742228592214
  0
ARC
  5
114D6
  8
0
 10
4201.6257549577176178
 20
247.9468685737070928
 30
0.0
 40
2.6443347588232631
 50
77.5404369112540763
 51
102.4595630887458952
  0
ARC
  5
114D7
  8
0
 10
4201.6257549577176178
 20
247.3076432392699928
 30
0.0
 40
2.7097114418918471
 50
76.599227868724526
 51
103.4007721312754029
  0
ARC
  5
114D8
  8
0
 10
4201.6257549577176178
 20
247.3135509179388123
 30
0.0
 40
2.688283042438913
 50
77.713177008286479
 51
102.2868229917135068
  0
ARC
  5
114D9
  8
0
 10
4201.6257549577176178
 20
247.630316169485809
 30
0.0
 40
1.3066373636488089
 50
59.0936738247795788
 51
120.9063261752203999
  0
ARC
  5
114DA
  8
0
 10
4201.6257549577203463
 20
247.890963605097113
 30
0.0
 40
0.3148907887136501
 50
57.6217301543951095
 51
122.3782698543050032
  0
ARC
  5
114DB
  8
0
 10
4201.6257549577176178
 20
248.0857906633177947
 30
0.0
 40
0.3115902080116337
 50
225.2551265324148915
 51
314.7448734675184028
  0
ARC
  5
114DC
  8
0
 10
4201.6257549577176178
 20
248.4610006928604093
 30
0.0
 40
1.3026126310709381
 50
237.7548252350979965
 51
302.2451747649009803
  0
ARC
  5
114DD
  8
0
 10
4201.6257549577176178
 20
243.7905661810237063
 30
0.0
 40
1.9063050365894341
 50
258.2911574798322931
 51
281.7088425201675932
  0
ARC
  5
114DE
  8
0
 10
4201.6334685157762578
 20
249.159459833901991
 30
0.0
 40
0.0163075007456071
 50
312.4321467855895094
 51
37.5996950543657888
  0
ARC
  5
114DF
  8
0
 10
4201.626338269165899
 20
249.1670833124321973
 30
0.0
 40
0.0267453745564015
 50
217.5923314898375054
 51
312.6870406153066142
  0
ARC
  5
114E0
  8
0
 10
4201.6184294603799572
 20
249.1595166894223894
 30
0.0
 40
0.0159058808922801
 50
153.7770878470593914
 51
213.370753392617587
  0
ARC
  5
114E1
  8
0
 10
4201.6263339890101634
 20
249.1523629763026975
 30
0.0
 40
0.0263208626609977
 50
40.3647263624312416
 51
147.397293657207797
  0
ARC
  5
114E2
  8
0
 10
4201.6324310983909527
 20
249.1792153627997948
 30
0.0
 40
0.0638081396133301
 50
297.0523826459931911
 51
345.8703988503667119
  0
ARC
  5
114E3
  8
0
 10
4201.6257549577176178
 20
249.2099834607089122
 30
0.0
 40
0.0945892540343133
 50
239.1918360515417135
 51
292.1716863631202727
  0
ARC
  5
114E4
  8
0
 10
4201.6009650900341512
 20
249.1663827639156921
 30
0.0
 40
0.0444568211776321
 50
189.4396215744135077
 51
237.8525666187931904
  0
LINE
  5
114E5
  8
0
 10
4201.5571102594985859
 20
249.1590914822814113
 30
0.0
 11
4201.5527311442237988
 21
249.1792549953846105
 31
0.0
  0
ARC
  5
114E6
  8
0
 10
4201.6186893181056803
 20
249.1880911493990993
 30
0.0
 40
0.066547414071292
 50
134.6250747412782971
 51
187.6302574724263081
  0
ARC
  5
114E7
  8
0
 10
4201.6268705735483309
 20
249.1832835861002025
 30
0.0
 40
0.0757555749781028
 50
72.2536789815891325
 51
136.475069906100714
  0
ARC
  5
114E8
  8
0
 10
4201.6269757920290431
 20
249.1771086031010896
 30
0.0
 40
0.0816287273691169
 50
32.5186748683427425
 51
73.6452524218178155
  0
ARC
  5
114E9
  8
0
 10
4201.6648040498239425
 20
249.2028581466705077
 30
0.0
 40
0.0359154315349884
 50
351.3163852515049825
 51
30.3215266097460194
  0
LINE
  5
114EA
  8
0
 10
4201.7003077864819716
 20
249.1974357020525872
 30
0.0
 11
4201.694308788156377
 21
249.1636387717020114
 31
0.0
  0
ARC
  5
114EB
  8
0
 10
4201.6434130186098628
 20
249.1696480040864117
 30
0.0
 40
0.0512492949379738
 50
353.2662970031043983
 51
44.9297726543049407
  0
ARC
  5
114EC
  8
0
 10
4201.6261166372487423
 20
249.1481864045730958
 30
0.0
 40
0.0787080853927483
 50
47.0987483063975674
 51
139.9811637229045118
  0
ARC
  5
114ED
  8
0
 10
4201.6090905484006726
 20
249.1684774653506906
 30
0.0
 40
0.0528208965809964
 50
144.9675257771407928
 51
190.2354999015927888
  0
ARC
  5
114EE
  8
0
 10
4201.6334685157762578
 20
249.675030646157694
 30
0.0
 40
0.0163075007456071
 50
312.4321467855895094
 51
37.5996950543657888
  0
ARC
  5
114EF
  8
0
 10
4201.626338269165899
 20
249.682654124688213
 30
0.0
 40
0.0267453745564015
 50
217.5923314898375054
 51
312.6870406153066142
  0
ARC
  5
114F0
  8
0
 10
4201.6184294603799572
 20
249.6750875016782061
 30
0.0
 40
0.0159058808922801
 50
153.7770878470593914
 51
213.370753392617587
  0
ARC
  5
114F1
  8
0
 10
4201.6263339890101634
 20
249.6679337885585994
 30
0.0
 40
0.0263208626609977
 50
40.3647263624312416
 51
147.397293657207797
  0
ARC
  5
114F2
  8
0
 10
4201.6324310983909527
 20
249.6947861750556115
 30
0.0
 40
0.0638081396133301
 50
297.0523826459931911
 51
345.8703988503667119
  0
ARC
  5
114F3
  8
0
 10
4201.6257549577176178
 20
249.7255542729647004
 30
0.0
 40
0.0945892540343133
 50
239.1918360515417135
 51
292.1716863631202727
  0
ARC
  5
114F4
  8
0
 10
4201.6009650900341512
 20
249.681953576171594
 30
0.0
 40
0.0444568211776321
 50
189.4396215744135077
 51
237.8525666187931904
  0
LINE
  5
114F5
  8
0
 10
4201.5571102594985859
 20
249.6746622945373133
 30
0.0
 11
4201.5527311442237988
 21
249.6948258076403988
 31
0.0
  0
ARC
  5
114F6
  8
0
 10
4201.6186893181056803
 20
249.7036619616550013
 30
0.0
 40
0.066547414071292
 50
134.6250747412782971
 51
187.6302574724263081
  0
ARC
  5
114F7
  8
0
 10
4201.6268705735483309
 20
249.6988543983561044
 30
0.0
 40
0.0757555749781028
 50
72.2536789815891325
 51
136.475069906100714
  0
ARC
  5
114F8
  8
0
 10
4201.6269757920290431
 20
249.6926794153569915
 30
0.0
 40
0.0816287273691169
 50
32.5186748683427425
 51
73.6452524218178155
  0
ARC
  5
114F9
  8
0
 10
4201.6648040498239425
 20
249.718428958926296
 30
0.0
 40
0.0359154315349884
 50
351.3163852515049825
 51
30.3215266097460194
  0
LINE
  5
114FA
  8
0
 10
4201.7003077864819716
 20
249.7130065143084039
 30
0.0
 11
4201.694308788156377
 21
249.6792095839579986
 31
0.0
  0
ARC
  5
114FB
  8
0
 10
4201.6434130186098628
 20
249.6852188163421999
 30
0.0
 40
0.0512492949379738
 50
353.2662970031043983
 51
44.9297726543049407
  0
ARC
  5
114FC
  8
0
 10
4201.6261166372487423
 20
249.6637572168291115
 30
0.0
 40
0.0787080853927483
 50
47.0987483063975674
 51
139.9811637229045118
  0
ARC
  5
114FD
  8
0
 10
4201.6090905484006726
 20
249.6840482776065073
 30
0.0
 40
0.0528208965809964
 50
144.9675257771407928
 51
190.2354999015927888
  0
LINE
  5
114FE
  8
0
 10
4201.9203782801150737
 20
240.7431778217163867
 30
0.0
 11
4201.9203782801150737
 21
200.9579901893910119
 31
0.0
  0
ARC
  5
114FF
  8
0
 10
4201.6257549576675956
 20
241.8023239157377873
 30
0.0
 40
1.1456692913000071
 50
115.6392067512109065
 51
255.0982312770640021
  0
ARC
  5
11500
  8
0
 10
4201.6257549576675956
 20
241.8023239157377873
 30
0.0
 40
1.1456692913000071
 50
284.9017687229360263
 51
64.3607932435291872
  0
ARC
  5
11501
  8
0
 10
4201.6257549576675956
 20
241.8023239157377873
 30
0.0
 40
0.9177147696099536
 50
120.3705720831805053
 51
243.4717789868718114
  0
ARC
  5
11502
  8
0
 10
4201.6257549576675956
 20
241.8023239157377873
 30
0.0
 40
0.9177147696099536
 50
296.5282210131281886
 51
59.629427910175572
  0
ARC
  5
11503
  8
0
 10
4201.6257549576675956
 20
241.8023239157377873
 30
0.0
 40
0.9040578347193653
 50
120.7268185017769042
 51
242.8772756493729901
  0
ARC
  5
11504
  8
0
 10
4201.6257549576675956
 20
241.8023239157377873
 30
0.0
 40
0.9040578347193653
 50
297.1227243506269815
 51
59.2731814913746007
  0
ARC
  5
11505
  8
0
 10
4201.6257549576675956
 20
241.8023239157377873
 30
0.0
 40
0.7580687383468698
 50
126.1995313691728029
 51
213.8030086312226956
  0
ARC
  5
11506
  8
0
 10
4201.6274927111526267
 20
242.5887791949853067
 30
0.0
 40
1.443429053283896
 50
257.3257965795193059
 51
282.6742034204805805
  0
ARC
  5
11507
  8
0
 10
4201.6257549576675956
 20
241.8023239157377873
 30
0.0
 40
0.7580687383468698
 50
326.6721026273078223
 51
53.800468621721123
  0
LINE
  5
11508
  8
0
 10
4202.0392940058300155
 20
241.0296931689049131
 30
0.0
 11
4202.037474626700714
 21
240.9875206249733139
 31
0.0
  0
ARC
  5
11509
  8
0
 10
4201.9790071799134239
 20
241.0011475326604113
 30
0.0
 40
0.0600344480035197
 50
294.2952840365347811
 51
346.8803804517792173
  0
LINE
  5
1150A
  8
0
 10
4202.0037077136021253
 20
240.9464299067751938
 30
0.0
 11
4202.0037065723026899
 21
240.776194352182614
 31
0.0
  0
LINE
  5
1150B
  8
0
 10
4201.2121617980774317
 20
241.0309474520823017
 30
0.0
 11
4201.2140352886372057
 21
240.9875206249733139
 31
0.0
  0
ARC
  5
1150C
  8
0
 10
4201.2725027354263148
 20
241.0011475326604113
 30
0.0
 40
0.0600344480035197
 50
193.1196195482208111
 51
245.7047159634651052
  0
LINE
  5
1150D
  8
0
 10
4201.2478022017339754
 20
240.9464299067751938
 30
0.0
 11
4201.2478033430361393
 21
240.776194352182614
 31
0.0
  0
ARC
  5
1150E
  8
0
 10
4201.6257549576675956
 20
241.608420343444692
 30
0.0
 40
0.9140281853073856
 50
245.5750441052771862
 51
294.4249558947228138
  0
ARC
  5
1150F
  8
0
 10
4200.544503399790301
 20
160.3890399777521907
 30
0.0
 40
54.5652588630025122
 50
86.1056604321831145
 51
88.5551213087664308
  0
ARC
  5
11510
  8
0
 10
4204.5785108630389004
 20
214.2432687988402904
 30
0.0
 40
0.670767222774646
 50
11.1970913166460608
 51
348.8029086833523138
  0
ARC
  5
11511
  8
0
 10
4204.5785108630389004
 20
214.2432687988402904
 30
0.0
 40
0.7467135563725587
 50
232.6268989082327039
 51
350.05966061800018
  0
ARC
  5
11512
  8
0
 10
4204.5785108630389004
 20
214.2432687988402904
 30
0.0
 40
0.7467135563725587
 50
9.9403393819982071
 51
127.3731010917671966
  0
ARC
  5
11513
  8
0
 10
4204.5785108630389004
 20
214.2432687988402904
 30
0.0
 40
0.8564441087168905
 50
224.7885248615970113
 51
351.4754373378261789
  0
ARC
  5
11514
  8
0
 10
4204.5785108630389004
 20
214.2432687988402904
 30
0.0
 40
0.8564441087168905
 50
8.5245626621737642
 51
135.2114751384029887
  0
ARC
  5
11515
  8
0
 10
4204.5785108630389004
 20
214.2432687988402904
 30
0.0
 40
0.8858267716113484
 50
223.1446828907459974
 51
351.7941635181741162
  0
ARC
  5
11516
  8
0
 10
4204.5785108630389004
 20
214.2432687988402904
 30
0.0
 40
0.8858267716113484
 50
8.2058364818258465
 51
136.8553171092540026
  0
ARC
  5
11517
  8
0
 10
4204.5785108630389004
 20
214.2432687988402904
 30
0.0
 40
1.1023617217018991
 50
214.3215567195966003
 51
353.6138144591330956
  0
ARC
  5
11518
  8
0
 10
4204.5785108630389004
 20
214.2432687988402904
 30
0.0
 40
1.1023617217018991
 50
6.3861855408669301
 51
145.6784432804033997
  0
CIRCLE
  5
11519
  8
0
 10
4204.5785108630389004
 20
214.2432687988402904
 30
0.0
 40
0.2872387181224774
  0
ARC
  5
1151A
  8
0
 10
4204.5785108630389004
 20
214.2432687988402904
 30
0.0
 40
0.3543307086345368
 50
32.2868943770852184
 51
327.7131056187957938
  0
LINE
  5
1151B
  8
0
 10
4207.3209174849689589
 20
214.3371345987362986
 30
0.0
 11
4204.9748671866709628
 21
214.3780888467344994
 31
0.0
  0
ARC
  5
1151C
  8
0
 10
4204.9769082007678662
 20
214.4950076415736078
 30
0.0
 40
0.1169366081481039
 50
212.291048482088911
 51
268.9999074384045912
  0
ARC
  5
1151D
  8
0
 10
4200.544503399790301
 20
268.0974976199286175
 30
0.0
 40
54.5652588630025122
 50
271.6730192739091763
 51
273.8943395678168145
  0
LINE
  5
1151E
  8
0
 10
4207.3209174849689589
 20
214.1494029989445096
 30
0.0
 11
4204.9748671866709628
 21
214.1084487509463088
 31
0.0
  0
ARC
  5
1151F
  8
0
 10
4204.9769082007678662
 20
213.9915299561070867
 30
0.0
 40
0.1169366081481039
 50
91.0000925615954088
 51
147.708951517911089
  0
ARC
  5
11520
  8
0
 10
4207.3192763874476441
 20
214.2432687988402904
 30
0.0
 40
0.0938801448186816
 50
271.0016255456956742
 51
88.9983744543042548
  0
LINE
  5
11521
  8
0
 10
4201.3311316352219364
 20
240.7431778217163867
 30
0.0
 11
4201.3311316352219364
 21
200.9579901893910119
 31
0.0
  0
ARC
  5
11522
  8
0
 10
4202.7070065155467091
 20
160.3890399777521907
 30
0.0
 40
54.5652588630025122
 50
91.4448786912335692
 51
93.8943395678168571
  0
ARC
  5
11523
  8
0
 10
4198.6729990522972003
 20
214.2432687988402904
 30
0.0
 40
0.670767222774646
 50
191.1970913166460093
 51
168.8029086833539054
  0
ARC
  5
11524
  8
0
 10
4198.6729990522972003
 20
214.2432687988402904
 30
0.0
 40
0.7467135563725587
 50
189.9403393819982
 51
307.3731010917679214
  0
ARC
  5
11525
  8
0
 10
4198.6729990522972003
 20
214.2432687988402904
 30
0.0
 40
0.7467135563725587
 50
52.6268989082327394
 51
170.0596606180018
  0
ARC
  5
11526
  8
0
 10
4198.6729990522972003
 20
214.2432687988402904
 30
0.0
 40
0.8564441087168905
 50
188.5245626621737074
 51
315.2114751384028182
  0
ARC
  5
11527
  8
0
 10
4198.6729990522972003
 20
214.2432687988402904
 30
0.0
 40
0.8564441087168905
 50
44.7885248615970113
 51
171.475437337827799
  0
ARC
  5
11528
  8
0
 10
4198.6729990522972003
 20
214.2432687988402904
 30
0.0
 40
0.8858267716113484
 50
188.2058364818257985
 51
316.8553171092539742
  0
ARC
  5
11529
  8
0
 10
4198.6729990522972003
 20
214.2432687988402904
 30
0.0
 40
0.8858267716113484
 50
43.1446828907459903
 51
171.7941635181742015
  0
ARC
  5
1152A
  8
0
 10
4198.6729990522972003
 20
214.2432687988402904
 30
0.0
 40
1.1023617217018991
 50
186.3861855408669044
 51
325.6784432804034282
  0
ARC
  5
1152B
  8
0
 10
4198.6729990522972003
 20
214.2432687988402904
 30
0.0
 40
1.1023617217018991
 50
34.3215567195965789
 51
173.6138144591330104
  0
CIRCLE
  5
1152C
  8
0
 10
4198.6729990522972003
 20
214.2432687988402904
 30
0.0
 40
0.2872387181224774
  0
ARC
  5
1152D
  8
0
 10
4198.6729990522972003
 20
214.2432687988402904
 30
0.0
 40
0.3543307086345368
 50
212.2868943812042062
 51
147.7131056229148101
  0
LINE
  5
1152E
  8
0
 10
4195.9305924303671418
 20
214.3371345987362986
 30
0.0
 11
4198.2766427286633188
 21
214.3780888467344994
 31
0.0
  0
ARC
  5
1152F
  8
0
 10
4198.2746017145682345
 20
214.4950076415736078
 30
0.0
 40
0.1169366081481039
 50
271.0000925615954088
 51
327.708951517911089
  0
ARC
  5
11530
  8
0
 10
4202.7070065155467091
 20
268.0974976199286175
 30
0.0
 40
54.5652588630025122
 50
266.1056604321831855
 51
268.326980642105525
  0
LINE
  5
11531
  8
0
 10
4195.9305924303671418
 20
214.1494029989445096
 30
0.0
 11
4198.2766427286633188
 21
214.1084487509463088
 31
0.0
  0
ARC
  5
11532
  8
0
 10
4198.2746017145682345
 20
213.9915299561070867
 30
0.0
 40
0.1169366081481039
 50
32.2910484820889323
 51
88.9999074384046054
  0
ARC
  5
11533
  8
0
 10
4195.9322335278893661
 20
214.2432687988402904
 30
0.0
 40
0.0938801448186816
 50
91.0016255456957452
 51
268.9983744543043258
  0
ARC
  5
11534
  8
0
 10
4201.6257549576675956
 20
201.0397121224058878
 30
0.0
 40
0.3057472427760156
 50
195.5028268864271013
 51
344.4971731135710229
  0
ARC
  5
11535
  8
0
 10
4201.2042209292676489
 20
242.1780073508575981
 30
0.0
 40
0.0900818414153092
 50
107.8383044560331996
 51
158.5933111152652089
  0
ARC
  5
11536
  8
0
 10
4201.1815766211320806
 20
242.2115795220724976
 30
0.0
 40
0.0612270053216901
 50
180.6490865981731986
 51
243.9239842453864071
  0
ARC
  5
11537
  8
0
 10
4201.5665689096276765
 20
243.1314181211591858
 30
0.0
 40
1.058284582093538
 50
247.0940314921761001
 51
271.7375537836193189
  0
ARC
  5
11538
  8
0
 10
4201.6680285446145717
 20
243.2156996095812076
 30
0.0
 40
1.1441843618967571
 50
266.5240711359763282
 51
291.6080862969971008
  0
ARC
  5
11539
  8
0
 10
4202.051728250205997
 20
242.2298600538647122
 30
0.0
 40
0.0865555442332976
 50
295.7861221659755984
 51
333.6728057598976989
  0
ARC
  5
1153A
  8
0
 10
4202.0885037040052339
 20
242.2047433889144088
 30
0.0
 40
0.0429059936422641
 50
341.9835054768831242
 51
56.7072721527074108
  0
ARC
  5
1153B
  8
0
 10
4202.0092513709760169
 20
242.121946825139986
 30
0.0
 40
0.1570001745977092
 50
49.0953026243875996
 51
65.3072100920287966
  0
ARC
  5
1153C
  8
0
 10
4201.6242997427989394
 20
243.3369246767298932
 30
0.0
 40
1.506088027452307
 50
257.9855273783167036
 51
282.2629676261369127
  0
LINE
  5
1153D
  8
0
 10
4201.3107943276418155
 20
241.0530700790895935
 30
0.0
 11
4201.3107943276418155
 21
241.8887096858277914
 31
0.0
  0
LINE
  5
1153E
  8
0
 10
4200.9958337545558607
 20
241.1837418765686039
 30
0.0
 11
4200.9958337545558607
 21
241.9285195304427134
 31
0.0
  0
ARC
  5
1153F
  8
0
 10
4201.0970050192263443
 20
241.203858268083593
 30
0.0
 40
0.1031518007715639
 50
191.2457375180032955
 51
220.7587414316647028
  0
ARC
  5
11540
  8
0
 10
4201.1522224789086977
 20
241.2551773165052964
 30
0.0
 40
0.178504368169629
 50
221.6646677829293139
 51
239.8621635988872924
  0
ARC
  5
11541
  8
0
 10
4201.5102659166195735
 20
241.8642346112144139
 30
0.0
 40
0.8850048333580915
 50
239.6131398353844872
 51
253.5913624742051127
  0
ARC
  5
11542
  8
0
 10
4201.2713943276412465
 20
241.0530700790895935
 30
0.0
 40
0.0394
 50
253.5913624742051127
 51
359.9999999999902229
  0
ARC
  5
11543
  8
0
 10
4201.084085531441815
 20
241.9301831374758933
 30
0.0
 40
0.0882674555643724
 50
141.2744498894720095
 51
181.0799371662403985
  0
ARC
  5
11544
  8
0
 10
4201.1392280989075516
 20
241.8859652232949884
 30
0.0
 40
0.1589493251015701
 50
113.1192945047025944
 51
141.2744498894720095
  0
ARC
  5
11545
  8
0
 10
4201.2729495273315479
 20
241.8002849715331024
 30
0.0
 40
0.0403166032072173
 50
20.1672567703810515
 51
109.3166914454097025
  0
ARC
  5
11546
  8
0
 10
4201.3845066175808824
 20
242.5538228437914086
 30
0.0
 40
0.7263095744165571
 50
244.6706207921878047
 51
260.0984272003801152
  0
ARC
  5
11547
  8
0
 10
4201.1390513956357609
 20
242.0257645796233135
 30
0.0
 40
0.1440632235787895
 50
215.5598676328690999
 51
243.0570247741607943
  0
ARC
  5
11548
  8
0
 10
4201.0590789820516875
 20
241.964594520854007
 30
0.0
 40
0.0435530901534048
 50
152.8143641805013999
 51
211.2749402847375961
  0
ARC
  5
11549
  8
0
 10
4201.1070224191007583
 20
241.9363781423639068
 30
0.0
 40
0.0991431175424781
 50
124.237529492221995
 51
150.9675144551036112
  0
ARC
  5
1154A
  8
0
 10
4201.270297062523241
 20
241.8916789218457097
 30
0.0
 40
0.0406059705538911
 50
355.8066100844960147
 51
28.8870261249160301
  0
LINE
  5
1154B
  8
0
 10
4201.944191094665257
 20
241.0530700790895935
 30
0.0
 11
4201.944191094665257
 21
241.8887096858277914
 31
0.0
  0
LINE
  5
1154C
  8
0
 10
4202.2591516677503023
 20
241.1837418765686039
 30
0.0
 11
4202.2591516677503023
 21
241.9285195304427134
 31
0.0
  0
ARC
  5
1154D
  8
0
 10
4202.1579804030807281
 20
241.203858268083593
 30
0.0
 40
0.1031518007715639
 50
319.2412585683352972
 51
348.7542624819965909
  0
ARC
  5
1154E
  8
0
 10
4202.0522669508309264
 20
241.3170108684913089
 30
0.0
 40
0.2576418741501416
 50
302.9464508813754833
 51
315.5267177367948079
  0
ARC
  5
1154F
  8
0
 10
4201.7447195056847704
 20
241.8642346112144139
 30
0.0
 40
0.8850048333580915
 50
286.4086375257949157
 51
300.3868601646154843
  0
ARC
  5
11550
  8
0
 10
4201.9835910946649165
 20
241.0530700790895935
 30
0.0
 40
0.0394
 50
180.0000000000098055
 51
286.4086375257949157
  0
ARC
  5
11551
  8
0
 10
4202.1708998908652575
 20
241.9301831374758933
 30
0.0
 40
0.0882674555643724
 50
358.9200628337595731
 51
38.725550110527962
  0
ARC
  5
11552
  8
0
 10
4202.1157573233977018
 20
241.8859652232949884
 30
0.0
 40
0.1589493251015701
 50
38.725550110527962
 51
67.9159740359941253
  0
ARC
  5
11553
  8
0
 10
4201.9820358949737056
 20
241.8002849715331024
 30
0.0
 40
0.0403166032072173
 50
70.6833085545902549
 51
159.8327432296188988
  0
ARC
  5
11554
  8
0
 10
4201.87047880472619
 20
242.5538228437914086
 30
0.0
 40
0.7263095744165571
 50
279.9015727996198848
 51
295.3293792078122237
  0
ARC
  5
11555
  8
0
 10
4202.1159340266713116
 20
242.0257645796233135
 30
0.0
 40
0.1440632235787895
 50
296.9429752258392909
 51
324.4401323671309001
  0
ARC
  5
11556
  8
0
 10
4202.195906440253566
 20
241.964594520854007
 30
0.0
 40
0.0435530901534048
 50
328.7250597152623754
 51
27.1856358194986001
  0
ARC
  5
11557
  8
0
 10
4202.1479630032054047
 20
241.9363781423639068
 30
0.0
 40
0.0991431175424781
 50
29.0324855448963888
 51
55.762470507777941
  0
ARC
  5
11558
  8
0
 10
4201.9846883597820124
 20
241.8916789218457097
 30
0.0
 40
0.0406059705538911
 50
150.045521533709092
 51
184.1933899155023084
  0
ARC
  5
1155A
  8
0
 10
4201.4445926154221524
 20
212.015476113840009
 30
0.0
 40
0.447850625544371
 50
104.6755755797185969
 51
143.1310691540915059
  0
ARC
  5
1155B
  8
0
 10
4201.2559265663339829
 20
212.1768128622913139
 30
0.0
 40
0.200744608246181
 50
147.666487793061691
 51
224.433674602399492
  0
ARC
  5
1155C
  8
0
 10
4201.4618174653433016
 20
212.376530435255205
 30
0.0
 40
0.4875846460336628
 50
224.2538674429293906
 51
254.4531068901428057
  0
ARC
  5
1155D
  8
0
 10
4201.4610052685029586
 20
212.3319506891909896
 30
0.0
 40
0.4340644147906577
 50
229.3418879110431021
 51
252.5902245292776058
  0
ARC
  5
1155E
  8
0
 10
4201.3115857849461463
 20
212.1579774048786078
 30
0.0
 40
0.2047330263563936
 50
205.305846824678099
 51
229.3418879110431021
  0
ARC
  5
1155F
  8
0
 10
4201.2455355351758044
 20
212.1267473482137973
 30
0.0
 40
0.1316717374677222
 50
155.797644829523108
 51
205.3058468246765926
  0
ARC
  5
11560
  8
0
 10
4201.3237940304734366
 20
212.0915727192374902
 30
0.0
 40
0.2174717759873297
 50
118.7811920283012057
 51
155.797644829523108
  0
ARC
  5
11561
  8
0
 10
4201.4939504850999583
 20
211.85235568304509
 30
0.0
 40
0.5101932070816023
 50
108.6104248035100994
 51
122.5979370194939975
  0
ARC
  5
11562
  8
0
 10
4201.4257697990842644
 20
212.1841604447133136
 30
0.0
 40
0.2086808590744072
 50
211.8090873376546881
 51
243.0311074250155059
  0
ARC
  5
11563
  8
0
 10
4201.3323237363683802
 20
212.1262009105157063
 30
0.0
 40
0.098719619349898
 50
156.9125891734555012
 51
211.8090873376546881
  0
ARC
  5
11564
  8
0
 10
4201.4166668058905998
 20
212.0807746385025041
 30
0.0
 40
0.1943161783914714
 50
116.1157195070233001
 51
154.3422985937042995
  0
ARC
  5
11565
  8
0
 10
4201.4261695074037561
 20
212.1679998581016093
 30
0.0
 40
0.1746079925444546
 50
212.0333323084944084
 51
237.0236510856184964
  0
ARC
  5
11566
  8
0
 10
4201.3610529638153821
 20
212.1272578329341911
 30
0.0
 40
0.0977960347280339
 50
180.0430556530961894
 51
212.0333323084944084
  0
ARC
  5
11567
  8
0
 10
4201.3634681856183306
 20
212.1272596478841876
 30
0.0
 40
0.1002112572118527
 50
135.6218435349560139
 51
180.0430556530961894
  0
ARC
  5
11568
  8
0
 10
4201.609815436372628
 20
211.88620251048971
 30
0.0
 40
0.4448785046315216
 50
128.7869847818843141
 51
135.6218435349560139
  0
ARC
  5
11569
  8
0
 10
4201.390609442695677
 20
212.1305191485350861
 30
0.0
 40
0.1385273194008781
 50
125.4164723439047009
 51
168.9410487924943141
  0
ARC
  5
1156A
  8
0
 10
4201.3408621889775532
 20
212.141623860680312
 30
0.0
 40
0.0875842598762027
 50
169.8281762724471946
 51
217.4306384382082911
  0
LINE
  5
1156B
  8
0
 10
4201.2632569284050987
 20
212.1272596478841876
 30
0.0
 11
4201.2632569284050987
 21
212.1850274536280949
 31
0.0
  0
LINE
  5
1156C
  8
0
 10
4201.1139439338649026
 20
212.3175384123559866
 30
0.0
 11
4201.1139439338649026
 21
214.2423535020010945
 31
0.0
  0
ARC
  5
1156D
  8
0
 10
4201.4132803908387359
 20
212.1358565073041973
 30
0.0
 40
0.108879962396146
 50
193.8776058257730028
 51
221.0192428941855098
  0
ARC
  5
1156E
  8
0
 10
4201.3114847357219332
 20
212.1107068491994028
 30
0.0
 40
0.0040235810761856
 50
124.8057580042734998
 51
193.8776058257512886
  0
ARC
  5
1156F
  8
0
 10
4201.3261369399033356
 20
212.0828427992248066
 30
0.0
 40
0.0354780770557416
 50
81.9068665431848473
 51
118.5370779992336026
  0
ARC
  5
11570
  8
0
 10
4201.3313581728380086
 20
212.555636554552791
 30
0.0
 40
0.4201114193419003
 50
268.7903741644281013
 51
269.9691042677525274
  0
ARC
  5
11571
  8
0
 10
4201.3216676626789194
 20
212.1589121115229091
 30
0.0
 40
0.0233078469917791
 50
244.6346643653768069
 51
272.0205734791304053
  0
ARC
  5
11572
  8
0
 10
4201.3149137766404237
 20
212.144280207586803
 30
0.0
 40
0.0071951502805212
 50
178.1364526646131026
 51
243.3177315643908116
  0
ARC
  5
11573
  8
0
 10
4201.3994980320867398
 20
212.123399924653711
 30
0.0
 40
0.0941731010286865
 50
145.0753811134202067
 51
167.0437513568697909
  0
ARC
  5
11574
  8
0
 10
4201.3959338427694092
 20
212.1317208864097097
 30
0.0
 40
0.0866191614953604
 50
138.4284661750457985
 51
148.2400718406750002
  0
LINE
  5
11575
  8
0
 10
4201.3224894589211544
 20
212.1356187566265135
 30
0.0
 11
4201.3222849452649825
 21
212.1773138577405007
 31
0.0
  0
ARC
  5
11576
  8
0
 10
4201.6257586590272695
 20
214.2432659186054877
 30
0.0
 40
0.5118155384467356
 50
125.1452208171131986
 51
180.1021415807948927
  0
ARC
  5
11577
  8
0
 10
4201.6257549574656878
 20
214.2432687988404894
 30
0.0
 40
0.6272839645999996
 50
118.0135876656684957
 51
215.3219651155584984
  0
ARC
  5
11578
  8
0
 10
4201.6257549574656878
 20
214.2432687988404894
 30
0.0
 40
0.5568636837999995
 50
121.9430586717846978
 51
203.2057628903156967
  0
ARC
  5
11579
  8
0
 10
4201.6257549574656878
 20
214.2432687988404894
 30
0.0
 40
0.5398159395999985
 50
123.0783088760772017
 51
198.5364934965733141
  0
ARC
  5
1157A
  8
0
 10
4201.8069172771965896
 20
212.015476120571293
 30
0.0
 40
0.4478506255443708
 50
36.8689329748138732
 51
75.3244265491825331
  0
ARC
  5
1157B
  8
0
 10
4201.9955833202920985
 20
212.1768128760326988
 30
0.0
 40
0.200744608246181
 50
315.5663275264951722
 51
32.3335143358482426
  0
ARC
  5
1157C
  8
0
 10
4201.7896924138631221
 20
212.3765304413464889
 30
0.0
 40
0.4875846460336627
 50
285.5468952387554964
 51
315.746134685954587
  0
ARC
  5
1157D
  8
0
 10
4201.7905046123578359
 20
212.3319506953125142
 30
0.0
 40
0.4340644147906576
 50
287.409777599610095
 51
310.6581142178497998
  0
ARC
  5
1157E
  8
0
 10
4201.939924102380246
 20
212.157977416551887
 30
0.0
 40
0.2047330263563936
 50
310.6581142178497998
 51
334.6941553042203736
  0
ARC
  5
1157F
  8
0
 10
4202.0059743533111032
 20
212.1267473623412911
 30
0.0
 40
0.1316717374677222
 50
334.6941553042203736
 51
24.2023572993839693
  0
ARC
  5
11580
  8
0
 10
4201.9277158593204149
 20
212.0915727304571874
 30
0.0
 40
0.2174717759873296
 50
24.2023572993839693
 51
61.2188101005555083
  0
ARC
  5
11581
  8
0
 10
4201.7575594135805659
 20
211.8523556879424063
 30
0.0
 40
0.5101932070816022
 50
57.4020651093962471
 51
71.3895773253611878
  0
ARC
  5
11582
  8
0
 10
4201.8257400872689686
 20
212.184160452143999
 30
0.0
 40
0.2086808590744072
 50
296.9688947038807214
 51
328.1909147912232925
  0
ARC
  5
11583
  8
0
 10
4201.9191861521394458
 20
212.1262009214185014
 30
0.0
 40
0.098719619349898
 50
328.1909147912232925
 51
23.08741295543539
  0
ARC
  5
11584
  8
0
 10
4201.8348430843034294
 20
212.0807746462714931
 30
0.0
 40
0.1943161783914713
 50
25.6577035351818807
 51
63.8842826218802387
  0
ARC
  5
11585
  8
0
 10
4201.8253403795497434
 20
212.167999865517487
 30
0.0
 40
0.1746079925444545
 50
302.976351043277873
 51
327.9666698203924966
  0
ARC
  5
11586
  8
0
 10
4201.8904569246524261
 20
212.1272578427696089
 30
0.0
 40
0.0977960347280339
 50
327.9666698203910187
 51
359.9569464757985884
  0
ARC
  5
11587
  8
0
 10
4201.8880417028503871
 20
212.1272596576297929
 30
0.0
 40
0.1002112572118527
 50
359.9569464757985884
 51
44.3781585939492729
  0
ARC
  5
11588
  8
0
 10
4201.6416944610509745
 20
211.88620251108199
 30
0.0
 40
0.4448785046315215
 50
44.3781585939492729
 51
51.2130173470248806
  0
ARC
  5
11589
  8
0
 10
4201.8609004456502589
 20
212.1305191572722038
 30
0.0
 40
0.1385273194008781
 50
11.0589533364071695
 51
54.5835297849823604
  0
ARC
  5
1158A
  8
0
 10
4201.9106476989563816
 20
212.1416238712658071
 30
0.0
 40
0.0875842598762027
 50
322.5693636906906931
 51
10.1718258564482404
  0
LINE
  5
1158B
  8
0
 10
4201.9882529600618
 20
212.1272596613532926
 30
0.0
 11
4201.988252957916302
 21
212.1850274670970862
 31
0.0
  0
LINE
  5
1158C
  8
0
 10
4202.1375659475306747
 20
212.3175384313730092
 30
0.0
 11
4202.1375658760125589
 21
214.2423535210180887
 31
0.0
  0
ARC
  5
1158D
  8
0
 10
4201.8382294973080207
 20
212.1358565151988955
 30
0.0
 40
0.1088799623961459
 50
318.9807592347164018
 51
346.122396303125015
  0
ARC
  5
1158E
  8
0
 10
4201.9400251533606934
 20
212.1107068608764052
 30
0.0
 40
0.0040235810761856
 50
346.1223963031360995
 51
55.1942441245935669
  0
ARC
  5
1158F
  8
0
 10
4201.9253729502152055
 20
212.082842810357505
 30
0.0
 40
0.0354780770557416
 50
61.4629241296466589
 51
98.0931355857194944
  0
ARC
  5
11590
  8
0
 10
4201.9201516997118233
 20
212.5556365654915112
 30
0.0
 40
0.4201114193419002
 50
270.0308978611582233
 51
271.2096279644878223
  0
ARC
  5
11591
  8
0
 10
4201.9298422246129121
 20
212.1589121228215902
 30
0.0
 40
0.0233078469917791
 50
267.9794286497489111
 51
295.3653377635569086
  0
ARC
  5
11592
  8
0
 10
4201.9365961111961951
 20
212.1442802191365047
 30
0.0
 40
0.0071951502805212
 50
296.6822705645412839
 51
1.863549464282503
  0
ARC
  5
11593
  8
0
 10
4201.852011856523859
 20
212.1233999330605116
 30
0.0
 40
0.0941731010286864
 50
12.9562507720286
 51
34.9246210154838579
  0
ARC
  5
11594
  8
0
 10
4201.8555760455328709
 20
212.1317208949490123
 30
0.0
 40
0.0866191614953604
 50
31.759930288225199
 51
41.5715359538605469
  0
LINE
  5
11595
  8
0
 10
4201.9290204292356066
 20
212.1356187678946981
 30
0.0
 11
4201.92922494134109
 21
212.1773138690163023
 31
0.0
  0
ARC
  5
11596
  8
0
 10
4201.6257511508183597
 20
214.2432659186054025
 30
0.0
 40
0.5118155384467356
 50
359.897860548099402
 51
54.8547813117873488
  0
ARC
  5
11597
  8
0
 10
4201.6257548523781225
 20
214.2432687988404894
 30
0.0
 40
0.6272839645999995
 50
324.6780370133541282
 51
61.9864144632198091
  0
ARC
  5
11598
  8
0
 10
4201.6257548523781225
 20
214.2432687988404894
 30
0.0
 40
0.5568636837999993
 50
336.7942392385826906
 51
58.0569434570928777
  0
ARC
  5
11599
  8
0
 10
4201.6257548523781225
 20
214.2432687988404894
 30
0.0
 40
0.5398159395999983
 50
341.463508632310095
 51
56.9216932528451878
  0
LINE
  5
1159A
  8
0
 10
4202.0860246589336384
 20
215.8238355542650027
 30
0.0
 11
4201.9824689983952339
 21
215.0869987422530869
 31
0.0
  0
LINE
  5
1159B
  8
0
 10
4201.9629607174401826
 20
215.0700404523404927
 30
0.0
 11
4201.9203782801150737
 21
215.0700404523404927
 31
0.0
  0
LINE
  5
1159C
  8
0
 10
4201.3311316352219364
 20
215.0700404523404927
 30
0.0
 11
4201.2885491975357581
 21
215.0700404523404927
 31
0.0
  0
LINE
  5
1159D
  8
0
 10
4201.1654852560413929
 20
215.8238355542650027
 30
0.0
 11
4201.2690409165816163
 21
215.0869987422530869
 31
0.0
  0
LINE
  5
1159E
  8
0
 10
4201.3016515257959327
 20
215.9309035855584966
 30
0.0
 11
4201.1848018179662176
 21
215.8634403753576976
 31
0.0
  0
LINE
  5
1159F
  8
0
 10
4201.9498583891790986
 20
215.9309035855584966
 30
0.0
 11
4202.0667080970097231
 21
215.8634403753576976
 31
0.0
  0
LINE
  5
115A0
  8
0
 10
4201.9301583891947303
 20
215.9361821846405007
 30
0.0
 11
4201.9203782801150737
 21
215.9361821846405007
 31
0.0
  0
LINE
  5
115A1
  8
0
 10
4201.3311316352219364
 20
215.9361821846405007
 30
0.0
 11
4201.32135152578212
 21
215.9361821846405007
 31
0.0
  0
ARC
  5
115A2
  8
0
 10
4201.9301583891947303
 20
215.8967821846405002
 30
0.0
 40
0.0394
 50
60.0000000258747335
 51
90.0
  0
ARC
  5
115A3
  8
0
 10
4201.32135152578212
 20
215.8967821846405002
 30
0.0
 40
0.0394
 50
90.0
 51
119.9999999741252026
  0
ARC
  5
115A4
  8
0
 10
4201.2045018179496765
 20
215.8293189744397012
 30
0.0
 40
0.0394
 50
119.9999999741223036
 51
187.9999999954328018
  0
ARC
  5
115A5
  8
0
 10
4202.0470080970253548
 20
215.8293189744397012
 30
0.0
 40
0.0394
 50
352.0000000045815227
 51
60.0000000258765382
  0
ARC
  5
115A6
  8
0
 10
4201.9629607174401826
 20
215.089740452340493
 30
0.0
 40
0.0197
 50
270.0
 51
352.0000000045702109
  0
ARC
  5
115A7
  8
0
 10
4201.2885491975357581
 20
215.089740452340493
 30
0.0
 40
0.0197
 50
187.99999999542149
 51
270.0
  0
LINE
  5
115A8
  8
0
 10
4201.1654852560413929
 20
215.8238355542650027
 30
0.0
 11
4201.3311316352219364
 21
215.8238355542650027
 31
0.0
  0
LINE
  5
115A9
  8
0
 10
4201.9203782801150737
 20
215.8238355542650027
 30
0.0
 11
4202.0860246589336384
 21
215.8238355542650027
 31
0.0
  0
LINE
  5
115AA
  8
0
 10
4202.0667080970097231
 20
215.8634403753576976
 30
0.0
 11
4201.9203782801150737
 21
215.8634403753576976
 31
0.0
  0
LINE
  5
115AB
  8
0
 10
4201.3311316352219364
 20
215.8634403753576976
 30
0.0
 11
4201.1848018179662176
 21
215.8634403753576976
 31
0.0
  0
ENDSEC
  0
EOF
