  0
SECTION
  2
HEADER
  9
$ACADVER
  1
AC1009
  9
$INSBASE
 10
4099.083583442181407
 20
143.4673319454915088
 30
0.0
  9
$EXTMIN
 10
4094.6046242674401583
 20
136.1937134747396954
 30
-0.0000000000112498
  9
$EXTMAX
 10
4113.6136366438822733
 20
143.4763351324129133
 30
0.0000000000002956
  9
$LIMMIN
 10
0.0
 20
0.0
  9
$LIMMAX
 10
11.6929133858000007
 20
8.2677165353999982
  9
$ORTHOMODE
 70
     0
  9
$REGENMODE
 70
     1
  9
$FILLMODE
 70
     1
  9
$QTEXTMODE
 70
     0
  9
$MIRRTEXT
 70
     0
  9
$DRAGMODE
 70
     2
  9
$LTSCALE
 40
0.6431102362
  9
$OSMODE
 70
  4095
  9
$ATTMODE
 70
     1
  9
$TEXTSIZE
 40
0.2
  9
$TRACEWID
 40
0.05
  9
$TEXTSTYLE
  7
STANDARD
  9
$CLAYER
  8
0
  9
$CELTYPE
  6
BYLAYER
  9
$CECOLOR
 62
   256
  9
$DIMSCALE
 40
1.0
  9
$DIMASZ
 40
0.1875
  9
$DIMEXO
 40
0.0625
  9
$DIMDLI
 40
0.4443307087
  9
$DIMRND
 40
0.0
  9
$DIMDLE
 40
0.0
  9
$DIMEXE
 40
0.125
  9
$DIMTP
 40
0.01
  9
$DIMTM
 40
0.01
  9
$DIMTXT
 40
2.0
  9
$DIMCEN
 40
0.1052362205
  9
$DIMTSZ
 40
0.0
  9
$DIMTOL
 70
     1
  9
$DIMLIM
 70
     0
  9
$DIMTIH
 70
     1
  9
$DIMTOH
 70
     1
  9
$DIMSE1
 70
     0
  9
$DIMSE2
 70
     0
  9
$DIMTAD
 70
     0
  9
$DIMZIN
 70
     0
  9
$DIMBLK
  1

  9
$DIMASO
 70
     1
  9
$DIMSHO
 70
     1
  9
$DIMPOST
  1
\X
  9
$DIMAPOST
  1

  9
$DIMALT
 70
     1
  9
$DIMALTD
 70
     2
  9
$DIMALTF
 40
25.3999999999999986
  9
$DIMLFAC
 40
1.0
  9
$DIMTOFL
 70
     0
  9
$DIMTVP
 40
0.0
  9
$DIMTIX
 70
     0
  9
$DIMSOXD
 70
     0
  9
$DIMSAH
 70
     0
  9
$DIMBLK1
  1

  9
$DIMBLK2
  1

  9
$DIMSTYLE
  2
STANDARD
  9
$DIMCLRD
 70
     0
  9
$DIMCLRE
 70
     0
  9
$DIMCLRT
 70
     0
  9
$DIMTFAC
 40
1.0
  9
$DIMGAP
 40
0.09
  9
$LUNITS
 70
     2
  9
$LUPREC
 70
     4
  9
$SKETCHINC
 40
0.1
  9
$FILLETRAD
 40
0.0
  9
$AUNITS
 70
     0
  9
$AUPREC
 70
     0
  9
$MENU
  1
.
  9
$ELEVATION
 40
0.0
  9
$PELEVATION
 40
0.0
  9
$THICKNESS
 40
0.0
  9
$LIMCHECK
 70
     0
  9
$BLIPMODE
 70
     0
  9
$CHAMFERA
 40
0.0
  9
$CHAMFERB
 40
0.0
  9
$SKPOLY
 70
     0
  9
$TDCREATE
 40
2458060.468368056230247
  9
$TDUPDATE
 40
2459330.9815856488421559
  9
$TDINDWG
 40
0.321696875
  9
$TDUSRTIMER
 40
0.321696875
  9
$USRTIMER
 70
     1
  9
$ANGBASE
 50
0.0
  9
$ANGDIR
 70
     0
  9
$PDMODE
 70
     0
  9
$PDSIZE
 40
0.3125
  9
$PLINEWID
 40
0.0
  9
$COORDS
 70
     1
  9
$SPLFRAME
 70
     0
  9
$SPLINETYPE
 70
     6
  9
$SPLINESEGS
 70
     8
  9
$ATTDIA
 70
     1
  9
$ATTREQ
 70
     1
  9
$HANDLING
 70
     1
  9
$HANDSEED
  5
998A
  9
$SURFTAB1
 70
     6
  9
$SURFTAB2
 70
     6
  9
$SURFTYPE
 70
     6
  9
$SURFU
 70
     6
  9
$SURFV
 70
     6
  9
$UCSNAME
  2

  9
$UCSORG
 10
0.0
 20
0.0
 30
0.0
  9
$UCSXDIR
 10
1.0
 20
0.0
 30
0.0
  9
$UCSYDIR
 10
0.0
 20
1.0
 30
0.0
  9
$PUCSNAME
  2

  9
$PUCSORG
 10
0.0
 20
0.0
 30
0.0
  9
$PUCSXDIR
 10
1.0
 20
0.0
 30
0.0
  9
$PUCSYDIR
 10
0.0
 20
1.0
 30
0.0
  9
$USERI1
 70
     0
  9
$USERI2
 70
     0
  9
$USERI3
 70
     0
  9
$USERI4
 70
     0
  9
$USERI5
 70
     0
  9
$USERR1
 40
0.0
  9
$USERR2
 40
0.0
  9
$USERR3
 40
0.0
  9
$USERR4
 40
0.0
  9
$USERR5
 40
0.0
  9
$WORLDVIEW
 70
     1
  9
$SHADEDGE
 70
     3
  9
$SHADEDIF
 70
    70
  9
$TILEMODE
 70
     1
  9
$MAXACTVP
 70
    64
  9
$PLIMCHECK
 70
     0
  9
$PEXTMIN
 10
1.0000000000000000E+20
 20
1.0000000000000000E+20
 30
1.0000000000000000E+20
  9
$PEXTMAX
 10
-1.0000000000000000E+20
 20
-1.0000000000000000E+20
 30
-1.0000000000000000E+20
  9
$PLIMMIN
 10
0.0
 20
0.0
  9
$PLIMMAX
 10
12.0
 20
9.0
  9
$UNITMODE
 70
     0
  9
$VISRETAIN
 70
     1
  9
$PLINEGEN
 70
     0
  9
$PSLTSCALE
 70
     1
  0
ENDSEC
  0
SECTION
  2
TABLES
  0
TABLE
  2
VPORT
 70
     1
  0
VPORT
  2
*ACTIVE
 70
     0
 10
0.0
 20
0.0
 11
1.0
 21
1.0
 12
300.5650630728487158
 22
13.8397621068263703
 13
0.0
 23
0.0
 14
1.0
 24
1.0
 15
0.0
 25
0.0
 16
0.0
 26
0.0
 36
17.1152628219792007
 17
3803.5440673828129547
 27
125.9952621967499056
 37
0.0
 40
7.3803749685144391
 41
2.8789237668161429
 42
50.0
 43
0.0
 44
0.0
 50
0.0
 51
0.0
 71
     0
 72
   100
 73
     1
 74
     1
 75
     0
 76
     0
 77
     0
 78
     0
  0
ENDTAB
  0
TABLE
  2
LTYPE
 70
     2
  0
LTYPE
  2
CONTINUOUS
 70
     0
  3
Solid line
 72
    65
 73
     0
 40
0.0
  0
LTYPE
  2
PHANTOM2
 70
     0
  3
___ _ _ ___ _ _ ___ _ _ ___ _ _
 72
    65
 73
     6
 40
1.25
 49
0.625
 49
-0.125
 49
0.125
 49
-0.125
 49
0.125
 49
-0.125
  0
ENDTAB
  0
TABLE
  2
LAYER
 70
     2
  0
LAYER
  2
0
 70
     0
 62
   255
  6
CONTINUOUS
  0
LAYER
  2
DEFPOINTS
 70
     0
 62
     7
  6
CONTINUOUS
  0
ENDTAB
  0
TABLE
  2
STYLE
 70
     1
  0
STYLE
  2
STANDARD
 70
     0
 40
0.0
 41
0.8
 50
0.0
 71
     0
 42
0.2
  3
txt
  4

  0
ENDTAB
  0
TABLE
  2
VIEW
 70
     0
  0
ENDTAB
  0
TABLE
  2
UCS
 70
     0
  0
ENDTAB
  0
TABLE
  2
APPID
 70
     9
  0
APPID
  2
ACAD
 70
     0
  0
APPID
  2
ACAD_MLEADERVER
 70
     0
  0
APPID
  2
ACAD_EXEMPT_FROM_CAD_STANDARDS
 70
     0
  0
APPID
  2
ACAD_NAV_VCDISPLAY
 70
     0
  0
APPID
  2
ACAECLAYERSTANDARD
 70
     0
  0
APPID
  2
ACCMTRANSPARENCY
 70
     0
  0
APPID
  2
ACAD_DSTYLE_DIMJAG
 70
     0
  0
APPID
  2
ACAD_DSTYLE_DIMTALN
 70
     0
  0
APPID
  2
ACDBATTR
 70
     0
  0
ENDTAB
  0
TABLE
  2
DIMSTYLE
 70
     1
  0
DIMSTYLE
  2
STANDARD
 70
     0
  3

  4

  5

  6

  7

 40
1.0
 41
0.1875
 42
0.0625
 43
0.38
 44
0.125
 45
0.0
 46
0.0
 47
0.01
 48
0.01
140
0.15625
141
0.09
142
0.0
143
25.3999999999999986
144
1.0
145
0.0
146
1.0
147
0.09
 71
     1
 72
     0
 73
     1
 74
     1
 75
     0
 76
     0
 77
     0
 78
     4
170
     0
171
     2
172
     0
173
     0
174
     0
175
     0
176
     0
177
     0
178
     0
  0
ENDTAB
  0
ENDSEC
  0
SECTION
  2
BLOCKS
  0
BLOCK
  8
0
  2
$MODEL_SPACE
 70
     0
 10
0.0
 20
0.0
 30
0.0
  3
$MODEL_SPACE
  1

  0
ENDBLK
  5
21
  8
0
  0
BLOCK
 67
     1
  8
0
  2
$PAPER_SPACE
 70
     0
 10
0.0
 20
0.0
 30
0.0
  3
$PAPER_SPACE
  1

  0
ENDBLK
  5
1D
 67
     1
  8
0
  0
ENDSEC
  0
SECTION
  2
ENTITIES
  0
ATTDEF
  5
3930
  8
DEFPOINTS
 10
4099.0784679526132095
 20
143.4641884968422971
 30
0.0
 40
0.001
  1
K-72695T-B4
  3

  2
MODELNUMBER
 70
     0
1001
ACDBATTR
1070
     0
1070
     1
  0
ATTDEF
  5
3931
  8
DEFPOINTS
 10
4099.0784679526132095
 20
143.4625218301756036
 30
0.0
 40
0.001
  1
FAIRFAX
  3

  2
TRADENAME
 70
     0
1001
ACDBATTR
1070
     0
1070
     1
  0
ATTDEF
  5
3932
  8
DEFPOINTS
 10
4099.0784679526132095
 20
143.4608551635089952
 30
0.0
 40
0.001
  1
BATH AND SHOWER FAUCET
  3

  2
PRODUCT
 70
     0
1001
ACDBATTR
1070
     0
1070
     1
  0
ARC
  5
973A
  8
0
 10
4110.9162731878350314
 20
141.6563369334984941
 30
0.0
 40
0.4133857814009401
 50
0.000122135407789
 51
179.9998777621931936
  0
ARC
  5
973B
  8
0
 10
4110.9162731561336841
 20
141.6563412467984904
 30
0.0
 40
0.589974655
 50
314.4746409324257002
 51
225.5253646604913058
  0
ARC
  5
973C
  8
0
 10
4110.9162731561336841
 20
141.6563412467984904
 30
0.0
 40
0.6226666936000014
 50
311.5904032643630899
 51
74.7420433321863982
  0
ARC
  5
973D
  8
0
 10
4110.9162731561336841
 20
141.6563412467984904
 30
0.0
 40
0.6226666936000014
 50
105.2579568523538001
 51
228.4096014998727071
  0
ARC
  5
973E
  8
0
 10
4110.5573427500212347
 20
140.4126864836233892
 30
0.0
 40
0.1374201760254574
 50
113.3415733256391036
 51
139.939891056963404
  0
ARC
  5
973F
  8
0
 10
4110.4823822299913445
 20
140.4759857430381089
 30
0.0
 40
0.039309365504166
 50
140.2363952690890869
 51
205.2301636332248052
  0
ARC
  5
9740
  8
0
 10
4110.5886823212131276
 20
140.5711358814862137
 30
0.0
 40
0.1806849507688708
 50
218.2681789694875079
 51
254.0009688352581918
  0
ARC
  5
9741
  8
0
 10
4110.8393437927279592
 20
141.3291507206185997
 30
0.0
 40
0.9789507546457361
 50
252.1261337507559972
 51
264.8046313022318259
  0
ARC
  5
9742
  8
0
 10
4110.9144564771340811
 20
141.9862243709243899
 30
0.0
 40
1.6401979790004251
 50
264.2699956905560157
 51
270.0633754480901985
  0
ARC
  5
9743
  8
0
 10
4110.9212419612103986
 20
141.9139029673985988
 30
0.0
 40
1.5678834532138901
 50
269.8183335531551847
 51
277.4143004552357183
  0
ARC
  5
9744
  8
0
 10
4111.0583063097747072
 20
141.0270728285055952
 30
0.0
 40
0.6711247065323352
 50
275.5802621676227204
 51
294.8063411922909154
  0
ARC
  5
9745
  8
0
 10
4111.2728135316301632
 20
140.4104822579105871
 30
0.0
 40
0.1403960035330841
 50
38.8301360362465005
 51
66.1833134305426825
  0
ARC
  5
9746
  8
0
 10
4111.3506518022750242
 20
140.4758144788750087
 30
0.0
 40
0.0388513382119303
 50
328.7240678143735977
 51
35.7483759500755482
  0
ARC
  5
9747
  8
0
 10
4111.291002814688909
 20
140.5192671552229058
 30
0.0
 40
0.1125601189409189
 50
295.7355138799484848
 51
325.5814970680356168
  0
ARC
  5
9748
  8
0
 10
4110.7203751811866823
 20
140.7169793338179886
 30
0.0
 40
0.3373763692649626
 50
229.8947013677345126
 51
263.659410798794795
  0
ARC
  5
9749
  8
0
 10
4110.930637259813011
 20
141.9061573025109908
 30
0.0
 40
1.5454259243749551
 50
260.7769771296293015
 51
269.4673609783994834
  0
ARC
  5
974A
  8
0
 10
4110.9339672077549039
 20
141.4646582616792045
 30
0.0
 40
1.1040019463801101
 50
269.0815435716763204
 51
284.855232545301476
  0
ARC
  5
974B
  8
0
 10
4111.17216672577797
 20
140.6135505767404936
 30
0.0
 40
0.2206004938034828
 50
281.72836214988439
 51
315.4988735814861798
  0
ARC
  5
974C
  8
0
 10
4111.3024629662168081
 20
140.474220785357403
 30
0.0
 40
0.0310692453505141
 50
330.5105864674031864
 51
29.4894135332036207
  0
ARC
  5
974D
  8
0
 10
4110.5292438415117431
 20
140.4739955780135006
 30
0.0
 40
0.0302284208306352
 50
150.0988472769730038
 51
209.9011527230290994
  0
LINE
  5
974E
  8
0
 10
4110.5030392249336728
 20
140.458926553628487
 30
0.0
 11
4110.5028874064337288
 21
141.6563378146985031
 31
0.0
  0
LINE
  5
974F
  8
0
 10
4111.3296589692354246
 20
141.6563378147988885
 30
0.0
 11
4111.3295070872736687
 21
140.4589265536689027
 31
0.0
  0
ARC
  5
9750
  8
0
 10
4110.8942596851647977
 20
134.5685315244602975
 30
0.0
 40
6.1678003003212849
 50
93.6380969070694249
 51
103.2723902408353069
  0
ARC
  5
9751
  8
0
 10
4109.8052502045629808
 20
138.9485760581038107
 30
0.0
 40
1.6556250701918649
 50
101.391256024735199
 51
128.7484200610225002
  0
ARC
  5
9752
  8
0
 10
4109.0934299240216205
 20
139.8855027093742081
 30
0.0
 40
0.480403692277007
 50
132.4810240084158863
 51
178.8612576036202029
  0
ARC
  5
9753
  8
0
 10
4108.8043994846912028
 20
139.8970300082847018
 30
0.0
 40
0.1912886220543819
 50
180.5930701165067092
 51
208.5725159091676915
  0
ARC
  5
9754
  8
0
 10
4109.5945543927882682
 20
140.7761439961682015
 30
0.0
 40
1.363859710316301
 50
225.3699781761463043
 51
258.3378510778198915
  0
ARC
  5
9755
  8
0
 10
4110.8320889130618525
 20
145.8206128748558115
 30
0.0
 40
6.5571693525748378
 50
256.6573427853421094
 51
270.7343343643648268
  0
ARC
  5
9756
  8
0
 10
4108.7729144377808552
 20
139.7825003905770984
 30
0.0
 40
0.1848273988444605
 50
149.2037926883531043
 51
181.7249911597303935
  0
ARC
  5
9757
  8
0
 10
4108.7858531400406719
 20
139.784184784354693
 30
0.0
 40
0.1978151749461357
 50
182.0998343574401019
 51
209.1308990821565885
  0
ARC
  5
9758
  8
0
 10
4109.0686092282467143
 20
139.9898283534191989
 30
0.0
 40
0.5465290169266546
 50
213.5366813444809111
 51
243.6387851494199026
  0
ARC
  5
9759
  8
0
 10
4110.0252116370129443
 20
141.9539629482536895
 30
0.0
 40
2.7312184283631482
 50
243.9535518901519993
 51
260.0568075505876777
  0
ARC
  5
975A
  8
0
 10
4110.8732279858086258
 20
146.410486310508503
 30
0.0
 40
7.2675282568453436
 50
259.5383353589364788
 51
270.3392582570655236
  0
ARC
  5
975B
  8
0
 10
4108.7742401661762415
 20
139.4457441725905085
 30
0.0
 40
0.1982468425627037
 50
178.8812683267838963
 51
211.3044150046787024
  0
ARC
  5
975C
  8
0
 10
4109.1708028909606583
 20
139.7652021231409947
 30
0.0
 40
0.7062390662557027
 50
216.7402622101290035
 51
252.7286604552932943
  0
ARC
  5
975D
  8
0
 10
4110.3298326005697163
 20
142.7204267700662115
 30
0.0
 40
3.879110915322868
 50
249.3388057019762982
 51
263.9233149250442807
  0
ARC
  5
975E
  8
0
 10
4110.9010922055076662
 20
146.7192701996378901
 30
0.0
 40
7.9172815225279409
 50
262.8758426430175064
 51
270.1098262544089721
  0
ARC
  5
975F
  8
0
 10
4108.876060177058207
 20
139.3141480283005933
 30
0.0
 40
0.3638665370782713
 50
144.7834468383991009
 51
177.0929890769820929
  0
ARC
  5
9760
  8
0
 10
4109.0833907073665614
 20
139.3609127762065896
 30
0.0
 40
0.5714305911219667
 50
182.8398493710334094
 51
196.5379724425145866
  0
ARC
  5
9761
  8
0
 10
4109.0371874980983193
 20
139.4226077494467972
 30
0.0
 40
0.5494769133737309
 50
204.0982808095183998
 51
240.4027057188638992
  0
ARC
  5
9762
  8
0
 10
4109.8739263702091193
 20
140.8935656086933079
 30
0.0
 40
2.2417678730741089
 50
240.3758068272821049
 51
258.0626067605721801
  0
ARC
  5
9763
  8
0
 10
4110.414395914657689
 20
142.9416966257863066
 30
0.0
 40
4.3586669176736432
 50
256.6803754631437755
 51
258.6106464268237914
  0
ARC
  5
9764
  8
0
 10
4110.6194765280861247
 20
143.9805335699277009
 30
0.0
 40
5.4175468515659464
 50
258.6540330325232731
 51
262.7370216751556882
  0
ARC
  5
9765
  8
0
 10
4110.8185525540257004
 20
145.4441321840922967
 30
0.0
 40
6.8945811995613093
 50
262.6335987408550068
 51
265.3075218869022933
  0
ARC
  5
9766
  8
0
 10
4110.8958856981989811
 20
146.3638480761964047
 30
0.0
 40
7.8175409877079582
 50
265.2940793679019862
 51
267.2198905739588213
  0
ARC
  5
9767
  8
0
 10
4110.9121932065609144
 20
146.7057874710486942
 30
0.0
 40
8.1598689009689025
 50
267.2219744613835815
 51
269.0841703944947767
  0
ARC
  5
9768
  8
0
 10
4110.916290017124993
 20
146.8812063291439927
 30
0.0
 40
8.3353309319613036
 50
269.0752861609411752
 51
269.9998841001494156
  0
LINE
  5
9769
  8
0
 10
4108.5760311129342881
 20
139.4496148054984985
 30
0.0
 11
4108.588170798041574
 21
139.7769366742072066
 31
0.0
  0
ARC
  5
976A
  8
0
 10
4109.5827658111993514
 20
138.6757128810218092
 30
0.0
 40
0.0300774065740199
 50
193.090134237288197
 51
234.2492072425935135
  0
ARC
  5
976B
  8
0
 10
4109.6236421023086223
 20
138.7758351761702897
 30
0.0
 40
0.1375665942714459
 50
244.8569094095039986
 51
290.1082673005802803
  0
ARC
  5
976C
  8
0
 10
4109.9660024043505473
 20
138.5991663783931074
 30
0.0
 40
0.0298381621544006
 50
190.1980027089016971
 51
238.4575245362414933
  0
ARC
  5
976D
  8
0
 10
4110.0419081539275794
 20
138.6023164960571137
 30
0.0
 40
0.0341001553903073
 50
300.9743443705719983
 51
338.6601987443801249
  0
ARC
  5
976E
  8
0
 10
4110.0056881021364461
 20
138.6998738793496955
 30
0.0
 40
0.1377247713334361
 50
246.3287174316706967
 51
292.9803350184926103
  0
ARC
  5
976F
  8
0
 10
4109.9485536444526588
 20
138.6709663640880876
 30
0.0
 40
0.0710267749667088
 50
240.0812533302650991
 51
259.3600846451544157
  0
ARC
  5
9770
  8
0
 10
4138.3495198454611455
 20
143.2679329418313046
 30
0.0
 40
28.7947690967233108
 50
189.316398853203907
 51
189.3417494207496929
  0
ARC
  5
9771
  8
0
 10
4110.4064930652475596
 20
138.5513653144620037
 30
0.0
 40
0.0298381621544006
 50
190.1980027089016971
 51
238.4575245362414933
  0
ARC
  5
9772
  8
0
 10
4110.4823988148245917
 20
138.55451543212601
 30
0.0
 40
0.0341001553903073
 50
300.9743443705719983
 51
338.6601987443801249
  0
ARC
  5
9773
  8
0
 10
4110.4461787630325489
 20
138.6520728154185917
 30
0.0
 40
0.1377247713334361
 50
246.3287174316706967
 51
292.9803350184926103
  0
ARC
  5
9774
  8
0
 10
4133.8441574141261299
 20
142.4070782890869111
 30
0.0
 40
23.7825322132491301
 50
189.300025645170507
 51
189.3430850969365054
  0
LINE
  5
9775
  8
0
 10
4110.5167113098023037
 20
138.5555080555724885
 30
0.0
 11
4110.5141610180608041
 21
138.5421064417029129
 31
0.0
  0
ARC
  5
9776
  8
0
 10
4110.2840588160215702
 20
138.5825752783132998
 30
0.0
 40
0.0311555242093919
 50
198.5558537794248082
 51
237.247401055017491
  0
ARC
  5
9777
  8
0
 10
4110.3221084307297133
 20
138.6807412790161038
 30
0.0
 40
0.1359486524251953
 50
246.1798658583030885
 51
293.1432568240709884
  0
ARC
  5
9778
  8
0
 10
4110.6728422493770267
 20
138.5532582006559892
 30
0.0
 40
0.0275375009735131
 50
189.227408247310791
 51
204.98101701751051
  0
ARC
  5
9779
  8
0
 10
4110.6871217986990814
 20
138.5664017093232872
 30
0.0
 40
0.0464063650369178
 50
212.2645707051711952
 51
262.5817785936308724
  0
ARC
  5
977A
  8
0
 10
4110.7124601483737933
 20
138.6670939341298094
 30
0.0
 40
0.1500181306909457
 50
257.945565787832777
 51
290.2613460110296728
  0
ARC
  5
977B
  8
0
 10
4110.7511681354435495
 20
138.5551294785024083
 30
0.0
 40
0.0316727760915431
 50
294.7173378078296082
 51
345.0542931249219123
  0
LINE
  5
977C
  8
0
 10
4110.6454285577547125
 20
138.5502803069817048
 30
0.0
 11
4110.6456634391761327
 21
138.5488353277951887
 31
0.0
  0
LINE
  5
977D
  8
0
 10
4110.8444790736766663
 20
138.5461847374675983
 30
0.0
 11
4110.8475433938338028
 21
138.5293311956984894
 31
0.0
  0
ARC
  5
977E
  8
0
 10
4110.8742186350946213
 20
138.534153563854602
 30
0.0
 40
0.0271076323375747
 50
190.2472935225682988
 51
198.80184283729551
  0
ARC
  5
977F
  8
0
 10
4110.8790768359785943
 20
138.5368224598695122
 30
0.0
 40
0.0325809361350559
 50
200.4915460762485964
 51
243.5749126932250022
  0
ARC
  5
9780
  8
0
 10
4110.9016388832087614
 20
138.5853467567513064
 30
0.0
 40
0.0860872175046776
 50
244.5000355424288045
 51
260.282166726723176
  0
ARC
  5
9781
  8
0
 10
4110.9157909836276303
 20
138.6688766684445966
 30
0.0
 40
0.170807443415332
 50
260.3326497698291178
 51
270.1621445691217787
  0
ARC
  5
9782
  8
0
 10
4110.7767101072258811
 20
138.9025893281165907
 30
0.0
 40
0.3630241429960512
 50
270.3387199407281969
 51
280.7657504547535154
  0
ARC
  5
9783
  8
0
 10
4110.9384970664223147
 20
134.5691207741840003
 30
0.0
 40
6.1672013728422437
 50
76.7287609157889818
 51
86.3646087240125269
  0
ARC
  5
9784
  8
0
 10
4112.0272876845838255
 20
138.9486029184853919
 30
0.0
 40
1.6556250701918649
 50
51.2529651419717567
 51
78.6101291782547236
  0
ARC
  5
9785
  8
0
 10
4112.7390853134484132
 20
139.8855467787005011
 30
0.0
 40
0.480403692277007
 50
1.140127599388326
 51
47.5203611945831881
  0
ARC
  5
9786
  8
0
 10
4113.0281154740068814
 20
139.8970810653096919
 30
0.0
 40
0.1912886220543819
 50
331.4288692938413874
 51
359.4083150865021139
  0
ARC
  5
9787
  8
0
 10
4112.2379393123692353
 20
140.7761759498721119
 30
0.0
 40
1.363859710316301
 50
281.6635341251862883
 51
314.6314070268678051
  0
ARC
  5
9788
  8
0
 10
4111.0002426414721413
 20
145.8208470082865063
 30
0.0
 40
6.557404463275021
 50
269.2650128274910912
 51
283.3439160788248046
  0
ARC
  5
9789
  8
0
 10
4113.0596032898165504
 20
139.7825522088292018
 30
0.0
 40
0.1848273988444605
 50
358.2763940432785148
 51
30.7975925146563405
  0
ARC
  5
978A
  8
0
 10
4113.0466645468359275
 20
139.7842362897957003
 30
0.0
 40
0.1978151749461357
 50
330.8704861208560146
 51
357.9015508455678969
  0
ARC
  5
978B
  8
0
 10
4112.7639034870016985
 20
139.9898730227889985
 30
0.0
 40
0.5465290169266546
 50
296.3626000535938942
 51
326.464703858526093
  0
ARC
  5
978C
  8
0
 10
4111.8072535929040896
 20
141.9539844898916954
 30
0.0
 40
2.7312184283631482
 50
279.944577652432713
 51
296.0478333128359054
  0
ARC
  5
978D
  8
0
 10
4110.9591283203553758
 20
146.4104960160368876
 30
0.0
 40
7.2675369944309001
 50
269.6620331879655055
 51
280.463046595202627
  0
ARC
  5
978E
  8
0
 10
4113.0582857029576189
 20
139.445795958889704
 30
0.0
 40
0.1982468425627037
 50
328.6969701983309164
 51
1.120116876225
  0
ARC
  5
978F
  8
0
 10
4112.6617152549606544
 20
139.7652443219064082
 30
0.0
 40
0.7062390662557027
 50
287.2727247477135961
 51
323.261122992879109
  0
ARC
  5
9790
  8
0
 10
4111.5026140991340071
 20
142.7204409468562005
 30
0.0
 40
3.879110915322868
 50
276.0780702779632065
 51
290.6625795010381239
  0
ARC
  5
9791
  8
0
 10
4110.9312576005986557
 20
146.7192728885667066
 30
0.0
 40
7.9172838556908349
 50
269.8915252361341004
 51
277.125542026862604
  0
ARC
  5
9792
  8
0
 10
4112.9569547856317513
 20
139.3144773711264008
 30
0.0
 40
0.363308084787643
 50
2.2099677139030778
 51
35.2260530910629583
  0
ARC
  5
9793
  8
0
 10
4112.8289707296016786
 20
139.3483407780948085
 30
0.0
 40
0.4914231311782979
 50
342.2241413468915994
 51
357.6846024750565221
  0
ARC
  5
9794
  8
0
 10
4112.7953389304666416
 20
139.4226531786451915
 30
0.0
 40
0.5494769133737309
 50
299.5986794841484198
 51
335.9031043934892864
  0
ARC
  5
9795
  8
0
 10
4111.9585644962044171
 20
140.8935908081672039
 30
0.0
 40
2.2417678730741089
 50
281.9387784424267807
 51
299.6255783757255244
  0
ARC
  5
9796
  8
0
 10
4111.4180454355728216
 20
142.9417087580789882
 30
0.0
 40
4.3586669176736432
 50
281.3907387761971108
 51
283.3210097398692255
  0
ARC
  5
9797
  8
0
 10
4111.2129397069156767
 20
143.9805407438153964
 30
0.0
 40
5.4175468515659464
 50
277.2643635278515717
 51
281.3473521704843847
  0
ARC
  5
9798
  8
0
 10
4111.0138282965581311
 20
145.4441345446199136
 30
0.0
 40
6.8945811995613093
 50
274.6938633160849008
 51
277.3677864621362232
  0
ARC
  5
9799
  8
0
 10
4110.9364729170310966
 20
146.3638485668219005
 30
0.0
 40
7.8175409877079582
 50
272.7814946290387184
 51
274.7073058350854922
  0
ARC
  5
979A
  8
0
 10
4110.920157141825257
 20
146.7057875673181115
 30
0.0
 40
8.1598689009689025
 50
270.9172148085297067
 51
272.7794107416199267
  0
ARC
  5
979B
  8
0
 10
4110.9160560937070841
 20
146.8812060433180022
 30
0.0
 40
8.3353306489444972
 50
270.001492053709228
 51
270.926099049913887
  0
LINE
  5
979C
  8
0
 10
4113.2564946625643643
 20
139.4496713837687025
 30
0.0
 11
4113.2443470640109808
 21
139.7769929588885134
 31
0.0
  0
ARC
  5
979D
  8
0
 10
4112.2497786747189821
 20
138.675745120344402
 30
0.0
 40
0.0300774065740199
 50
305.7521779604228982
 51
346.9112509657193755
  0
ARC
  5
979E
  8
0
 10
4112.2088999630295802
 20
138.7758664272240026
 30
0.0
 40
0.1375665942714459
 50
249.893117902427889
 51
295.144475793484105
  0
ARC
  5
979F
  8
0
 10
4111.8665439322949169
 20
138.5991893524748093
 30
0.0
 40
0.0298381621544006
 50
301.5438606667531758
 51
349.8033824941070975
  0
ARC
  5
97A0
  8
0
 10
4111.7906381065813548
 20
138.6023376350136971
 30
0.0
 40
0.0341001553903073
 50
201.3411864586286981
 51
239.0270408324219034
  0
ARC
  5
97A1
  8
0
 10
4111.826855799781697
 20
138.6998958939466036
 30
0.0
 40
0.1377247713334361
 50
247.0210501845159001
 51
293.6726677713356253
  0
ARC
  5
97A2
  8
0
 10
4111.8839909563266701
 20
138.6709897599961892
 30
0.0
 40
0.0710267749667088
 50
280.641300557841987
 51
299.9201318727564853
  0
ARC
  5
97A3
  8
0
 10
4083.4829136257299069
 20
143.2672697046029953
 30
0.0
 40
28.7947690967233108
 50
350.6596357822556911
 51
350.6849863498046034
  0
ARC
  5
97A4
  8
0
 10
4111.4260544271819526
 20
138.5513776390999112
 30
0.0
 40
0.0298381621544006
 50
301.5438606667531758
 51
349.8033824941070975
  0
ARC
  5
97A5
  8
0
 10
4111.3501486014693
 20
138.5545259216387137
 30
0.0
 40
0.0341001553903073
 50
201.3411864586286981
 51
239.0270408324219034
  0
ARC
  5
97A6
  8
0
 10
4111.3863662946687327
 20
138.6520841805715918
 30
0.0
 40
0.1377247713334361
 50
247.0210501845159001
 51
293.6726677713356253
  0
ARC
  5
97A7
  8
0
 10
4087.98829686807494
 20
142.4065239753441006
 30
0.0
 40
23.7825322132491301
 50
350.6583001060690208
 51
350.7013595578357013
  0
LINE
  5
97A8
  8
0
 10
4111.3158360825027557
 20
138.5555177155339095
 30
0.0
 11
4111.3183866982471955
 21
138.5421161633250051
 31
0.0
  0
ARC
  5
97A9
  8
0
 10
4111.5484879218302012
 20
138.5825905629556871
 30
0.0
 40
0.0311555242093919
 50
302.7539841479867277
 51
341.4455314235846117
  0
ARC
  5
97AA
  8
0
 10
4111.5104359338365612
 20
138.6807556437289008
 30
0.0
 40
0.1359486524251953
 50
246.8581283789314966
 51
293.8215193446977196
  0
ARC
  5
97AB
  8
0
 10
4111.1597051973667476
 20
138.5532640859412936
 30
0.0
 40
0.0275375009735131
 50
335.0203681854961815
 51
350.7739769556970941
  0
ARC
  5
97AC
  8
0
 10
4111.1454253302881625
 20
138.5664072493773915
 30
0.0
 40
0.0464063650369178
 50
277.4196066093891773
 51
327.7368144978379974
  0
ARC
  5
97AD
  8
0
 10
4111.1200845462490179
 20
138.6670988615655915
 30
0.0
 40
0.1500181306909457
 50
249.7400391919888136
 51
282.0558194151719817
  0
ARC
  5
97AE
  8
0
 10
4111.0813792660819672
 20
138.5551334701528958
 30
0.0
 40
0.0316727760915431
 50
194.9470920780867118
 51
245.284047395162105
  0
LINE
  5
97AF
  8
0
 10
4111.1871189609755675
 20
138.5502868550310041
 30
0.0
 11
4111.1868841144896578
 21
138.5488418701663988
 31
0.0
  0
LINE
  5
97B0
  8
0
 10
4110.9880685441276
 20
138.5461864732023969
 30
0.0
 11
4110.9850046314286374
 21
138.5293328573542055
 31
0.0
  0
ARC
  5
97B1
  8
0
 10
4110.9583292735887881
 20
138.5341545805987948
 30
0.0
 40
0.0271076323375747
 50
341.1995423657148763
 51
349.7540916804421727
  0
ARC
  5
97B2
  8
0
 10
4110.9534710081834419
 20
138.5368233591593992
 30
0.0
 40
0.0325809361350559
 50
296.4264725097986002
 51
339.5098391267633247
  0
ARC
  5
97B3
  8
0
 10
4110.9309077878178869
 20
138.5853471105590131
 30
0.0
 40
0.0860872175046776
 50
279.7192184762823217
 51
295.5013496605715204
  0
ARC
  5
97B4
  8
0
 10
4110.9167536650757029
 20
138.6688767028387872
 30
0.0
 40
0.1708074663327042
 50
269.839221561603722
 51
279.668735103267295
  0
ARC
  5
97B5
  8
0
 10
4111.0558288939955673
 20
138.9025927021538109
 30
0.0
 40
0.3630241429960512
 50
259.2356347482602814
 51
269.6626652622560982
  0
LINE
  5
97B6
  8
0
 10
4111.0244206588367888
 20
143.3571488417028945
 30
0.0
 11
4110.8078851358368411
 21
143.3571488417028945
 31
0.0
  0
ARC
  5
97B7
  8
0
 10
4110.8078851358368411
 20
143.347305501830391
 30
0.0
 40
0.0098433398725177
 50
90.0
 51
180.7904305597907921
  0
LINE
  5
97B8
  8
0
 10
4110.7980427326374411
 20
143.3471697112028949
 30
0.0
 11
4110.798044286782897
 21
143.16996606640609
 31
0.0
  0
ARC
  5
97B9
  8
0
 10
4110.8078852523412934
 20
143.1701409693046969
 30
0.0
 40
0.0098425197042987
 50
181.0182072985107027
 51
270.0012823968075963
  0
LINE
  5
97BA
  8
0
 10
4110.8078854726372811
 20
143.160298449602891
 30
0.0
 11
4111.0244206085781116
 21
143.1602984496032036
 31
0.0
  0
LINE
  5
97BB
  8
0
 10
4110.004765833205056
 20
143.4673648688984997
 30
0.0
 11
4110.004765833205056
 21
142.4672514969028896
 31
0.0
  0
ARC
  5
97BC
  8
0
 10
4116.7917735620021631
 20
142.6688573435403953
 30
0.0
 40
6.7900013864608191
 50
181.7014520888708944
 51
192.773217584000605
  0
LINE
  5
97BD
  8
0
 10
4111.5059971023865728
 20
142.2570594304027054
 30
0.0
 11
4110.3263089559368382
 21
142.2570594285027994
 31
0.0
  0
ARC
  5
97BE
  8
0
 10
4110.3263089559686705
 20
142.2373743402820025
 30
0.0
 40
0.019685088220804
 50
90.0000000922611036
 51
179.7003831847987954
  0
LINE
  5
97BF
  8
0
 10
4110.3066241368978808
 20
142.2374772790431905
 30
0.0
 11
4110.3041827672441286
 21
141.7706179598523875
 31
0.0
  0
LINE
  5
97C0
  8
0
 10
4110.3137907641366837
 20
142.2525663635682065
 30
0.0
 11
4110.3137907641366837
 21
141.813595113689388
 31
0.0
  0
LINE
  5
97C1
  8
0
 10
4110.2759342230901893
 20
141.3323210798930916
 30
0.0
 11
4110.1866811550371494
 21
141.3509593756027982
 31
0.0
  0
ARC
  5
97C2
  8
0
 10
4110.1940083970648629
 20
141.406344227439007
 30
0.0
 40
0.0558674349567402
 50
227.9525222908283126
 51
262.4637127417473721
  0
ARC
  5
97C3
  8
0
 10
4110.9701470664240333
 20
141.7993065279279108
 30
0.0
 40
0.9222899107921126
 50
200.7662575309402087
 51
208.1027746728088061
  0
LINE
  5
97C4
  8
0
 10
4110.1565913960366743
 20
141.3648576233028962
 30
0.0
 11
4110.1710637915775806
 21
141.1633585197629941
 31
0.0
  0
LINE
  5
97C5
  8
0
 10
4111.8773110844676921
 20
143.4673648688984997
 30
0.0
 11
4111.8711127908327398
 21
142.4672514969028896
 31
0.0
  0
ARC
  5
97C6
  8
0
 10
4107.6791518332211126
 20
142.4732805645402891
 30
0.0
 40
4.1919652932496687
 50
341.8525726732405019
 51
359.9175946781626863
  0
ARC
  5
97C7
  8
0
 10
4111.5059967860406687
 20
142.237374338916311
 30
0.0
 40
0.019685091489017
 50
0.2996207408699265
 51
89.9990792351640039
  0
LINE
  5
97C8
  8
0
 10
4111.5256816083729063
 20
142.2374772790431905
 30
0.0
 11
4111.5281160880022071
 21
141.7719355288531062
 31
0.0
  0
LINE
  5
97C9
  8
0
 10
4111.5293092899200929
 20
141.5472517881383965
 30
0.0
 11
4111.5316400767287632
 21
141.1239316563869011
 31
0.0
  0
LINE
  5
97CA
  8
0
 10
4111.5185149811341034
 20
142.2525663635682065
 30
0.0
 11
4111.5185149811341034
 21
141.8145139231376959
 31
0.0
  0
LINE
  5
97CB
  8
0
 10
4111.5185656690846372
 20
141.4983616906436055
 30
0.0
 11
4111.5187288666411405
 21
141.2111114356457051
 31
0.0
  0
LINE
  5
97CC
  8
0
 10
4111.5563715221796883
 20
141.3323210798930916
 30
0.0
 11
4111.6456245902327282
 21
141.3509593756027982
 31
0.0
  0
ARC
  5
97CD
  8
0
 10
4111.6382973482059242
 20
141.406344227439007
 30
0.0
 40
0.0558674349567402
 50
277.5362872582526279
 51
312.0474777091715737
  0
LINE
  5
97CE
  8
0
 10
4111.6757143492341129
 20
141.3648576233028962
 30
0.0
 11
4111.6612131683059488
 21
141.1629577409495937
 31
0.0
  0
ARC
  5
97CF
  8
0
 10
4111.0244206094339461
 20
143.3473055018303057
 30
0.0
 40
0.0098433398727189
 50
359.2095694406796724
 51
89.9997124319021111
  0
LINE
  5
97D0
  8
0
 10
4111.0342630126342556
 20
143.3471697112028949
 30
0.0
 11
4111.0342614584869807
 21
143.16996606640609
 31
0.0
  0
ARC
  5
97D1
  8
0
 10
4111.0244204929331318
 20
143.1701409693031053
 30
0.0
 40
0.0098425197006734
 50
270.0006731969505154
 51
358.9817927100884276
  0
LINE
  5
97D2
  8
0
 10
4110.004765833205056
 20
143.4673648688984997
 30
0.0
 11
4111.8773110844676921
 21
143.4673648688984997
 31
0.0
  0
ARC
  5
97D3
  8
0
 10
4111.5490757610450601
 20
141.3502631924137063
 30
0.0
 40
0.0193935747898141
 50
195.8889681308581032
 51
292.1884536325488284
  0
ARC
  5
97D4
  8
0
 10
4110.2833053466438287
 20
141.3501431023105965
 30
0.0
 40
0.0192882909974787
 50
247.6241344366254111
 51
334.8631497568077862
  0
ARC
  5
97D5
  8
0
 10
4109.9139862773472487
 20
142.172763725352695
 30
0.0
 40
1.938196379133873
 50
335.364857238081072
 51
349.6148036215747084
  0
LINE
  5
97D6
  8
0
 10
4110.8176229958617114
 20
143.3571354009665981
 30
0.0
 11
4110.8176247222636448
 21
143.160298449602891
 31
0.0
  0
LINE
  5
97D7
  8
0
 10
4111.014475089964435
 20
143.3571488417028945
 30
0.0
 11
4111.014475089964435
 21
143.1602984496032036
 31
0.0
  0
LINE
  5
97D8
  8
0
 10
4110.8176229605633125
 20
143.3413873694665881
 30
0.0
 11
4111.014475089964435
 21
143.3413873694665881
 31
0.0
  0
LINE
  5
97D9
  8
0
 10
4110.8176231948709756
 20
143.3344453008666051
 30
0.0
 11
4111.0144491709488648
 21
143.3344121097198922
 31
0.0
  0
LINE
  5
97DA
  8
0
 10
4110.8176235717528471
 20
143.2914748962666067
 30
0.0
 11
4111.0144419247662881
 21
143.2914417064054078
 31
0.0
  0
LINE
  5
97DB
  8
0
 10
4110.8176246273624201
 20
143.1822127307667074
 30
0.0
 11
4111.0144695377566677
 21
143.182262490453212
 31
0.0
  0
LINE
  5
97DC
  8
0
 62
     1
 10
4094.7498345472508845
 20
143.429012807407787
 30
0.0
 11
4094.7498345472508845
 21
143.4673319454915088
 31
0.0
  0
LINE
  5
97DD
  8
0
 10
4094.7498345472508845
 20
143.4673319454915088
 30
0.0
 11
4097.5057810913513094
 21
143.4673319454915088
 31
0.0
  0
LINE
  5
97DE
  8
0
 10
4095.5222864772867979
 20
142.6412416206160003
 30
0.0
 11
4096.7333291613158508
 21
142.6412416206160003
 31
0.0
  0
LINE
  5
97DF
  8
0
 10
4095.4852629394358701
 20
142.6671650615195972
 30
0.0
 11
4095.4555620664641538
 21
142.7487609189481077
 31
0.0
  0
LINE
  5
97E0
  8
0
 10
4095.5372699221748007
 20
142.0224701405255132
 30
0.0
 11
4095.5372699221748007
 21
142.5736599126236115
 31
0.0
  0
LINE
  5
97E1
  8
0
 10
4095.5569459087341784
 20
142.5933369253363878
 30
0.0
 11
4096.6986697298680156
 21
142.5933369253363878
 31
0.0
  0
LINE
  5
97E2
  8
0
 10
4095.5372699221748007
 20
142.5736599126236115
 30
0.0
 11
4095.5569459087341784
 21
142.5933369253363878
 31
0.0
  0
LINE
  5
97E3
  8
0
 10
4095.5569571397641084
 20
142.0027839496239039
 30
0.0
 11
4096.698658498838995
 21
142.0027839496239039
 31
0.0
  0
LINE
  5
97E4
  8
0
 10
4095.5569571397641084
 20
142.0027839496239039
 30
0.0
 11
4095.5372699221748007
 21
142.0224701405255132
 31
0.0
  0
ARC
  5
97E5
  8
0
 10
4095.5222864772867979
 20
142.6806416206160009
 30
0.0
 40
0.0394
 50
200.0014940740989005
 51
270.0000000000259774
  0
LINE
  5
97E6
  8
0
 10
4095.3469420366500344
 20
142.8628843257478138
 30
0.0
 11
4095.0399069212239738
 21
142.992152843135699
 31
0.0
  0
ARC
  5
97E7
  8
0
 10
4095.2705383455859192
 20
142.6814123279310138
 30
0.0
 40
0.1969
 50
20.0014940741187495
 51
67.1678399326509776
  0
ARC
  5
97E8
  8
0
 10
4095.2238345472510446
 20
143.429012807407787
 30
0.0
 40
0.4740000000000001
 50
180.0
 51
247.1678399326505939
  0
LINE
  5
97E9
  8
0
 10
4096.811903310782327
 20
141.9358617229461004
 30
0.0
 11
4095.467330700491857
 21
141.9358617229461004
 31
0.0
  0
ARC
  5
97EA
  8
0
 10
4098.0148087086872692
 20
141.3065011809387101
 30
0.0
 40
2.624069148111301
 50
166.122817360118006
 51
173.5353371959278093
  0
ARC
  5
97EB
  8
0
 10
4100.7452373346650347
 20
141.2071034897408026
 30
0.0
 40
5.3523961001285718
 50
175.7694854751499065
 51
178.7382422183544008
  0
ARC
  5
97EC
  8
0
 10
4097.8872656696330523
 20
141.3672794589926127
 30
0.0
 40
2.4934857255738092
 50
180.9723904975753896
 51
196.8755180532251927
  0
ARC
  5
97ED
  8
0
 10
4096.3848769009109674
 20
141.011252992948414
 30
0.0
 40
0.9572108476081016
 50
202.5976760550846905
 51
243.5598082206442996
  0
ARC
  5
97EE
  8
0
 10
4096.4249874689776334
 20
141.1675218515092922
 30
0.0
 40
1.1155018269604831
 50
245.2892558542627057
 51
284.6247467599879997
  0
ARC
  5
97EF
  8
0
 10
4097.3720129875509883
 20
136.5437215599513081
 30
0.0
 40
3.6063531327538629
 50
95.6026278453338136
 51
100.6320363917213996
  0
ARC
  5
97F0
  8
0
 10
4097.3070621529859636
 20
137.205828725840604
 30
0.0
 40
2.9410678480580872
 50
84.9974259466776232
 51
95.6026278453338136
  0
ARC
  5
97F1
  8
0
 10
4097.5012294692778596
 20
139.4240235333842008
 30
0.0
 40
0.714391142532684
 50
32.7307148183989227
 51
84.9974259466776232
  0
ARC
  5
97F2
  8
0
 10
4099.083583442181407
 20
137.0238301300823025
 30
0.0
 40
0.8186945394039798
 50
245.3846925054980943
 51
294.615307494501792
  0
ARC
  5
97F3
  8
0
 10
4099.0783079288894442
 20
137.0122385409567869
 30
0.0
 40
0.8059589619093808
 50
217.7427812854803904
 51
245.3824125545372965
  0
ARC
  5
97F4
  8
0
 10
4098.9749105547216459
 20
136.9560792614161073
 30
0.0
 40
0.6900780619332477
 50
194.0434115417214116
 51
219.3107501195786995
  0
ARC
  5
97F5
  8
0
 10
4100.9365681330009465
 20
136.8136781132787121
 30
0.0
 40
2.6661641351170671
 50
172.5695262538563952
 51
176.043307900522592
  0
ARC
  5
97F6
  8
0
 10
4099.3624170756938838
 20
137.0402280102319139
 30
0.0
 40
1.086492861420238
 50
182.2459143601666938
 51
193.3896229534954045
  0
ARC
  5
97F7
  8
0
 10
4099.083583442181407
 20
137.0485455590668096
 30
0.0
 40
0.782422268049013
 50
249.90098959904509
 51
290.09901040095491
  0
ARC
  5
97F8
  8
0
 10
4099.0782393283607234
 20
137.0344134507658964
 30
0.0
 40
0.7673143498052108
 50
219.4694394557899102
 51
249.9131050059401957
  0
ARC
  5
97F9
  8
0
 10
4099.0621117378614144
 20
137.0211333323572092
 30
0.0
 40
0.7464227074506167
 50
190.4031295825259917
 51
219.4694394557899102
  0
ARC
  5
97FA
  8
0
 10
4102.3186558431325466
 20
137.4352577225621985
 30
0.0
 40
4.02827025227921
 50
182.8723092343082044
 51
187.8317152556699057
  0
ARC
  5
97FB
  8
0
 10
4110.2019352198503839
 20
137.803155766306503
 30
0.0
 40
11.9201132134239796
 50
179.6662569098913025
 51
182.739658563735702
  0
ARC
  5
97FC
  8
0
 10
4105.1208475405874196
 20
138.3524250134570082
 30
0.0
 40
6.8556361387110423
 50
179.9203627426020091
 51
184.0134967231091139
  0
ARC
  5
97FD
  8
0
 10
4103.4152928939338381
 20
138.5263963116794912
 30
0.0
 40
5.1526995330381489
 50
178.4860326794448895
 51
181.8288388995327125
  0
ARC
  5
97FE
  8
0
 10
4093.9619902997837926
 20
138.5011102249881958
 30
0.0
 40
4.305428995043008
 50
2.1486976746211339
 51
8.4397633093788986
  0
ARC
  5
97FF
  8
0
 10
4094.92035043604983
 20
138.6580050384501135
 30
0.0
 40
3.3344515258095488
 50
8.1899621830311577
 51
22.5147397802760985
  0
ARC
  5
9800
  8
0
 10
4099.0820858491197214
 20
140.4951757306197919
 30
0.0
 40
1.1958221202214721
 50
229.9542995288508109
 51
253.5340716861441024
  0
ARC
  5
9801
  8
0
 10
4099.0763772443542621
 20
140.4883834902074113
 30
0.0
 40
1.186949538962228
 50
205.8308453903082977
 51
229.9542995288508109
  0
ARC
  5
9802
  8
0
 10
4099.0705435132867933
 20
140.4855594788612052
 30
0.0
 40
1.180468222873168
 50
188.4198195401853866
 51
205.8308453903082977
  0
ARC
  5
9803
  8
0
 10
4099.8078433118444082
 20
140.5383730013896013
 30
0.0
 40
1.9183636810319451
 50
181.3991534143912077
 51
186.755545150241403
  0
ARC
  5
9804
  8
0
 10
4099.5974873013574324
 20
140.3946684393968951
 30
0.0
 40
1.710181033950958
 50
163.7264041004744968
 51
176.7530816623902012
  0
ARC
  5
9805
  8
0
 10
4099.0748750435150214
 20
140.4837656921536109
 30
0.0
 40
1.185107140307134
 50
134.3408454145501878
 51
160.7797807535611128
  0
ARC
  5
9806
  8
0
 10
4099.0817467186416252
 20
140.4767340605208972
 30
0.0
 40
1.1949389134156609
 50
111.2362409092233975
 51
134.3408454145501878
  0
ARC
  5
9807
  8
0
 10
4099.0831131070199262
 20
140.4732178992018987
 30
0.0
 40
1.1987112346664439
 50
95.1737297473223691
 51
111.2362409092233975
  0
ARC
  5
9808
  8
0
 10
4099.083583442181407
 20
140.3229106627132126
 30
0.0
 40
1.348512001578732
 50
85.3822652936749051
 51
94.6177347063251091
  0
ARC
  5
9809
  8
0
 10
4099.083583442181407
 20
140.328486520199391
 30
0.0
 40
1.4335076839658281
 50
87.3925803705585338
 51
92.6074196294414236
  0
ARC
  5
980A
  8
0
 10
4099.0720786615447651
 20
140.4928140490910948
 30
0.0
 40
1.2688332654062879
 50
92.4260164731395406
 51
102.479905751997606
  0
ARC
  5
980B
  8
0
 10
4098.9196470415499789
 20
141.1815316327198104
 30
0.0
 40
0.5634487541121878
 50
102.479905751997606
 51
120.3501581788663941
  0
ARC
  5
980C
  8
0
 10
4099.2695380453451435
 20
140.5839664643357025
 30
0.0
 40
1.2559138037729749
 50
120.3501581788663941
 51
134.3523001879482877
  0
ARC
  5
980D
  8
0
 10
4099.2701983773768006
 20
140.5832910315139088
 30
0.0
 40
1.256858392514109
 50
134.3523001879482877
 51
140.8985717998289999
  0
ARC
  5
980E
  8
0
 10
3604.4707152536398098
 20
1887.0700906044451131
 30
0.0
 40
1813.9908007488459134
 50
285.8006599344686833
 51
285.8121253284098202
  0
ARC
  5
980F
  8
0
 10
4097.6943619807880168
 20
144.5259884100404122
 30
0.0
 40
2.990385140860579
 50
267.4916206412606243
 51
283.7410928941852148
  0
ARC
  5
9810
  8
0
 10
4098.0704796668924246
 20
153.111685913839807
 30
0.0
 40
11.5843170780211402
 50
266.5521839819060119
 51
267.4916206412606243
  0
ARC
  5
9811
  8
0
 10
4097.4263927063821029
 20
142.4211764521280941
 30
0.0
 40
0.8744225610967852
 50
243.3544480800863141
 51
266.5521839819060119
  0
ARC
  5
9812
  8
0
 10
4097.3387619144159544
 20
142.0997261744396098
 30
0.0
 40
0.5517531573870444
 50
197.2768267597664931
 51
236.501448506674393
  0
LINE
  5
9813
  8
0
 10
4095.7144399220710511
 20
142.0027839496239039
 30
0.0
 11
4095.7144399220710511
 21
141.9358617229461004
 31
0.0
  0
ARC
  5
9814
  8
0
 10
4095.8325349836891291
 20
142.4998391407210079
 30
0.0
 40
0.4773639121965612
 50
246.5686149271527086
 51
293.4343733138215953
  0
LINE
  5
9815
  8
0
 10
4095.6427109604519501
 20
142.0618401168985088
 30
0.0
 11
4095.5372699221748007
 21
142.0618401168985088
 31
0.0
  0
LINE
  5
9816
  8
0
 10
4095.6427109604519501
 20
142.0618401168985088
 30
0.0
 11
4095.6427109604519501
 21
142.5342899362505875
 31
0.0
  0
LINE
  5
9817
  8
0
 10
4096.0223818503518487
 20
142.0618500176985037
 30
0.0
 11
4096.2332337882508
 21
142.0618500176985037
 31
0.0
  0
LINE
  5
9818
  8
0
 10
4096.0223818503518487
 20
142.0618500176985037
 30
0.0
 11
4096.0223818503518487
 21
142.5342800354507062
 31
0.0
  0
ARC
  5
9819
  8
0
 10
4095.8325349836891291
 20
142.0962909124280884
 30
0.0
 40
0.4773639121965612
 50
66.5656266862033306
 51
113.4313850728473057
  0
LINE
  5
981A
  8
0
 10
4095.6427109604519501
 20
142.5342899362505875
 30
0.0
 11
4095.5372699221748007
 21
142.5342899362505875
 31
0.0
  0
LINE
  5
981B
  8
0
 10
4096.0223818503518487
 20
142.5342800354505925
 30
0.0
 11
4096.2332337882508
 21
142.5342800354505925
 31
0.0
  0
LINE
  5
981C
  8
0
 62
     1
 10
4097.5057810913513094
 20
143.429012807407787
 30
0.0
 11
4097.5057810913513094
 21
143.4673319454915088
 31
0.0
  0
LINE
  5
981D
  8
0
 10
4096.7703526991663239
 20
142.6671650615195972
 30
0.0
 11
4096.8000535721375854
 21
142.7487609189481077
 31
0.0
  0
LINE
  5
981E
  8
0
 10
4096.7183457164283027
 20
142.0224701405255132
 30
0.0
 11
4096.7183457164283027
 21
142.5736599126236115
 31
0.0
  0
LINE
  5
981F
  8
0
 10
4096.7183457164283027
 20
142.5736599126236115
 30
0.0
 11
4096.6986697298680156
 21
142.5933369253363878
 31
0.0
  0
LINE
  5
9820
  8
0
 10
4096.698658498838995
 20
142.0027839496239039
 30
0.0
 11
4096.7183457164283027
 21
142.0224701405255132
 31
0.0
  0
ARC
  5
9821
  8
0
 10
4096.7333291613158508
 20
142.6806416206160009
 30
0.0
 40
0.0394
 50
269.9999999999739089
 51
339.9985059259010995
  0
LINE
  5
9822
  8
0
 10
4096.9086736019517048
 20
142.8628843257478138
 30
0.0
 11
4097.2157087173791297
 21
142.992152843135699
 31
0.0
  0
ARC
  5
9823
  8
0
 10
4096.985077293017639
 20
142.6814123279310138
 30
0.0
 40
0.1969
 50
112.8321600673489939
 51
159.9985059258812896
  0
ARC
  5
9824
  8
0
 10
4097.0317810913511494
 20
143.429012807407787
 30
0.0
 40
0.4740000000000001
 50
292.8321600673493208
 51
0.0
  0
LINE
  5
9825
  8
0
 10
4096.5411757165329618
 20
142.0027839496239039
 30
0.0
 11
4096.5411757165329618
 21
141.9358617229461004
 31
0.0
  0
ARC
  5
9826
  8
0
 10
4096.4230806549139743
 20
142.4998391407210079
 30
0.0
 40
0.4773639121965612
 50
246.56562668617849
 51
293.4313850728473199
  0
LINE
  5
9827
  8
0
 10
4096.6129046781516081
 20
142.0618401168985088
 30
0.0
 11
4096.7183457164283027
 21
142.0618401168985088
 31
0.0
  0
LINE
  5
9828
  8
0
 10
4096.6129046781516081
 20
142.0618401168985088
 30
0.0
 11
4096.6129046781516081
 21
142.5342899362505875
 31
0.0
  0
LINE
  5
9829
  8
0
 10
4096.2332337882508
 20
142.0618500176985037
 30
0.0
 11
4096.2332337882508
 21
142.5342800354507062
 31
0.0
  0
ARC
  5
982A
  8
0
 10
4096.4230806549139743
 20
142.0962909124280884
 30
0.0
 40
0.4773639121965612
 50
66.5686149271527086
 51
113.4343733137965984
  0
LINE
  5
982B
  8
0
 10
4096.6129046781516081
 20
142.5342899362505875
 30
0.0
 11
4096.7183457164283027
 21
142.5342899362505875
 31
0.0
  0
LINE
  5
982C
  8
0
 10
4095.6140285159049199
 20
142.6412416206160003
 30
0.0
 11
4095.6140285159049199
 21
142.5933369253363878
 31
0.0
  0
LINE
  5
982D
  8
0
 10
4096.641587971300396
 20
142.6412416206160003
 30
0.0
 11
4096.641587971300396
 21
142.5933369253363878
 31
0.0
  0
ARC
  5
982E
  8
0
 10
4099.083583442181407
 20
137.3726488522287923
 30
0.0
 40
0.497585902783713
 50
262.9918359363671243
 51
277.0081640636328757
  0
ARC
  5
982F
  8
0
 10
4099.0815799667971078
 20
137.3443919818348888
 30
0.0
 40
0.4692979685808487
 50
246.780620508187809
 51
262.8136923080641054
  0
ARC
  5
9830
  8
0
 10
4099.0421863392548403
 20
137.2525655528783091
 30
0.0
 40
0.3693782460743113
 50
224.1958185256920046
 51
246.7806205081880933
  0
ARC
  5
9831
  8
0
 10
4099.1595781898986388
 20
137.3667074713785041
 30
0.0
 40
0.5331134718394434
 50
206.3894560248789105
 51
224.1958185256920046
  0
ARC
  5
9832
  8
0
 10
4099.2468066708379411
 20
137.4099880591930969
 30
0.0
 40
0.6304891216111124
 50
192.2786331762887926
 51
206.3894560248789105
  0
ARC
  5
9833
  8
0
 10
4099.6290976545797093
 20
137.493191643603609
 30
0.0
 40
1.02172975435459
 50
180.4033483434008076
 51
192.2786331762887926
  0
ARC
  5
9834
  8
0
 10
4104.6792048587522004
 20
137.3356988295635119
 30
0.0
 40
6.0736716027854696
 50
174.1169119832620993
 51
178.5820038242187877
  0
ARC
  5
9835
  8
0
 10
4143.660175238019292
 20
131.8673954112643969
 30
0.0
 40
45.4327820420675366
 50
171.655693300688398
 51
172.2955674640786015
  0
ARC
  5
9836
  8
0
 10
4090.1124861685320866
 20
139.7214527805417106
 30
0.0
 40
8.6878353032880788
 50
351.6556933006884265
 51
353.8119461181105976
  0
ARC
  5
9837
  8
0
 10
4096.0476382795750396
 20
139.0779409790962973
 30
0.0
 40
2.7178991210653338
 50
353.8119461181105976
 51
1.6001921737890761
  0
ARC
  5
9838
  8
0
 10
4097.5603035314270528
 20
139.1201986229455088
 30
0.0
 40
1.2046437319699641
 50
1.6001921737890761
 51
18.6012929478016602
  0
ARC
  5
9839
  8
0
 10
4097.0639418777236642
 20
138.9531420013840091
 30
0.0
 40
1.728363892049728
 50
18.6012929478024311
 51
30.2355352048325798
  0
ARC
  5
983A
  8
0
 10
4102.3644465285324259
 20
141.7764074135425005
 30
0.0
 40
4.2789268800827562
 50
203.127014199407995
 51
207.1555814534330864
  0
ARC
  5
983B
  8
0
 10
4099.5756413011213226
 20
140.5140381070490037
 30
0.0
 40
1.2201808102551059
 50
193.0383135924450073
 51
200.0470604480022132
  0
ARC
  5
983C
  8
0
 10
4099.1908613854748182
 20
140.37070119292909
 30
0.0
 40
0.8146985586867863
 50
180.2541271267328966
 51
189.3199976658198977
  0
ARC
  5
983D
  8
0
 10
4099.3473515663872604
 20
140.3082970277044979
 30
0.0
 40
0.9729585546600636
 50
158.7761453307890065
 51
176.5358112001082986
  0
ARC
  5
983E
  8
0
 10
4098.9635405987746708
 20
140.4573513583358135
 30
0.0
 40
0.5612207104696534
 50
123.4077720204393955
 51
158.7761453307890065
  0
ARC
  5
983F
  8
0
 10
4099.083583442181407
 20
140.3576817069389904
 30
0.0
 40
0.7119617225785103
 50
52.9417014477109902
 51
127.0582985522890027
  0
ARC
  5
9840
  8
0
 10
4099.083583442181407
 20
140.3773399523279011
 30
0.0
 40
0.7560246436802772
 50
72.077855288877231
 51
107.9221447111227974
  0
ARC
  5
9841
  8
0
 10
4099.0823406129138675
 20
140.381495531455613
 30
0.0
 40
0.7516882690774125
 50
107.9294812603218929
 51
133.7259169773327869
  0
ARC
  5
9842
  8
0
 10
4099.0768722051534496
 20
140.3872127135545043
 30
0.0
 40
0.7437769067047365
 50
133.7259169773327869
 51
159.5402205655547903
  0
ARC
  5
9843
  8
0
 10
4099.073675142833963
 20
140.3884054888409878
 30
0.0
 40
0.7403645877922697
 50
159.5402205655555861
 51
170.1128779567266918
  0
ARC
  5
9844
  8
0
 10
4099.6477398797860587
 20
140.3395974332080129
 30
0.0
 40
1.3152533944329741
 50
172.3128113569989921
 51
177.8925159004851935
  0
ARC
  5
9845
  8
0
 10
4099.241213420562417
 20
140.4260067996052896
 30
0.0
 40
0.9086339988935128
 50
182.3995125175231067
 51
202.9522083565551895
  0
ARC
  5
9846
  8
0
 10
4099.0714105022689182
 20
140.3863329987337067
 30
0.0
 40
0.7374006869553297
 50
205.2592715733179034
 51
221.7275885336692909
  0
ARC
  5
9847
  8
0
 10
4099.083583442181407
 20
138.4872263856985057
 30
0.0
 40
0.5751599692870825
 50
317.8583230561260962
 51
56.1472790321120812
  0
ARC
  5
9848
  8
0
 10
4099.083583442181407
 20
138.4872263856985057
 30
0.0
 40
0.5751599692870825
 50
123.8527209678879046
 51
222.1416769438739038
  0
ARC
  5
9849
  8
0
 10
4099.080468957595258
 20
138.4876770973820896
 30
0.0
 40
0.4953738639233717
 50
130.7643383213884078
 51
214.4441465138326919
  0
CIRCLE
  5
984A
  8
0
 10
4099.083583442181407
 20
140.3432974237734072
 30
0.0
 40
0.5751599692870825
  0
CIRCLE
  5
984B
  8
0
 10
4099.083583442181407
 20
140.3432974237734072
 30
0.0
 40
0.4761902245288657
  0
LINE
  5
984C
  8
0
 62
     1
 10
4103.4173323371078368
 20
143.429012807407787
 30
0.0
 11
4103.4173323371078368
 21
143.4673319454915088
 31
0.0
  0
LINE
  5
984D
  8
0
 10
4103.4173323371078368
 20
143.4673319454915088
 30
0.0
 11
4100.6613857930087761
 21
143.4673319454915088
 31
0.0
  0
LINE
  5
984E
  8
0
 10
4102.6448804070732876
 20
142.6412416206160003
 30
0.0
 11
4101.4338377230433252
 21
142.6412416206160003
 31
0.0
  0
LINE
  5
984F
  8
0
 10
4102.6819039449228512
 20
142.6671650615195972
 30
0.0
 11
4102.7116048178959318
 21
142.7487609189481077
 31
0.0
  0
LINE
  5
9850
  8
0
 10
4102.6298969621839206
 20
142.0224701405255132
 30
0.0
 11
4102.6298969621839206
 21
142.5736599126236115
 31
0.0
  0
LINE
  5
9851
  8
0
 10
4102.6102209756263619
 20
142.5933369253363878
 30
0.0
 11
4101.4684971544911605
 21
142.5933369253363878
 31
0.0
  0
LINE
  5
9852
  8
0
 10
4102.6298969621839206
 20
142.5736599126236115
 30
0.0
 11
4102.6102209756263619
 21
142.5933369253363878
 31
0.0
  0
LINE
  5
9853
  8
0
 10
4102.6102097445964318
 20
142.0027839496239039
 30
0.0
 11
4101.4685083855210905
 21
142.0027839496239039
 31
0.0
  0
LINE
  5
9854
  8
0
 10
4102.6102097445964318
 20
142.0027839496239039
 30
0.0
 11
4102.6298969621839206
 21
142.0224701405255132
 31
0.0
  0
ARC
  5
9855
  8
0
 10
4102.6448804070732876
 20
142.6806416206160009
 30
0.0
 40
0.0394
 50
269.9999999999739089
 51
339.9985059259010995
  0
LINE
  5
9856
  8
0
 10
4102.8202248477100511
 20
142.8628843257478138
 30
0.0
 11
4103.127259963135657
 21
142.992152843135699
 31
0.0
  0
ARC
  5
9857
  8
0
 10
4102.8966285387750759
 20
142.6814123279310138
 30
0.0
 40
0.1969
 50
112.8321600673489939
 51
159.9985059258812896
  0
ARC
  5
9858
  8
0
 10
4102.9433323371076767
 20
143.429012807407787
 30
0.0
 40
0.4740000000000001
 50
292.8321600673493208
 51
0.0
  0
LINE
  5
9859
  8
0
 10
4101.3552635735777585
 20
141.9358617229461004
 30
0.0
 11
4102.6998361838677738
 21
141.9358617229461004
 31
0.0
  0
ARC
  5
985A
  8
0
 10
4100.1523581756728163
 20
141.3065011809387101
 30
0.0
 40
2.624069148111301
 50
6.4646628040721312
 51
13.8771826398820295
  0
ARC
  5
985B
  8
0
 10
4097.4219295496950508
 20
141.2071034897408026
 30
0.0
 40
5.3523961001285718
 50
1.2617577816456089
 51
4.2305145248500367
  0
ARC
  5
985C
  8
0
 10
4100.2799012147270332
 20
141.3672794589926127
 30
0.0
 40
2.4934857255738092
 50
343.1244819467747789
 51
359.0276095024245819
  0
ARC
  5
985D
  8
0
 10
4101.7822899834491182
 20
141.011252992948414
 30
0.0
 40
0.9572108476081016
 50
296.4401917793557004
 51
337.4023239449152811
  0
ARC
  5
985E
  8
0
 10
4101.7421794153806331
 20
141.1675218515092922
 30
0.0
 40
1.1155018269604831
 50
255.375253240012114
 51
294.7107441457372943
  0
ARC
  5
985F
  8
0
 10
4100.7951538968090972
 20
136.5437215599513081
 30
0.0
 40
3.6063531327538629
 50
79.3679636082785862
 51
84.3973721546662148
  0
ARC
  5
9860
  8
0
 10
4100.8601047313750314
 20
137.205828725840604
 30
0.0
 40
2.9410678480580872
 50
84.3973721546662148
 51
95.0025740533223768
  0
ARC
  5
9861
  8
0
 10
4100.6659374150822259
 20
139.4240235333842008
 30
0.0
 40
0.714391142532684
 50
95.0025740533223768
 51
147.2692851816011057
  0
ARC
  5
9862
  8
0
 10
4099.0888589554706414
 20
137.0122385409567869
 30
0.0
 40
0.8059589619093808
 50
294.6175874454627888
 51
322.2572187145190128
  0
ARC
  5
9863
  8
0
 10
4099.1922563296366206
 20
136.9560792614161073
 30
0.0
 40
0.6900780619332477
 50
320.6892498804211868
 51
345.9565884582784747
  0
ARC
  5
9864
  8
0
 10
4097.2305987513582295
 20
136.8136781132787121
 30
0.0
 40
2.6661641351170671
 50
3.9566920994773551
 51
7.4304737461435817
  0
ARC
  5
9865
  8
0
 10
4098.8047498086671112
 20
137.0402280102319139
 30
0.0
 40
1.086492861420238
 50
346.6103770465045955
 51
357.7540856398333062
  0
ARC
  5
9866
  8
0
 10
4099.0889275559993621
 20
137.0344134507658964
 30
0.0
 40
0.7673143498052108
 50
290.0868949940597759
 51
320.5305605442101182
  0
ARC
  5
9867
  8
0
 10
4099.1050551464977616
 20
137.0211333323572092
 30
0.0
 40
0.7464227074506167
 50
320.5305605442101182
 51
349.5968704174740083
  0
ARC
  5
9868
  8
0
 10
4095.8485110412279937
 20
137.4352577225621985
 30
0.0
 40
4.02827025227921
 50
352.1682847443299806
 51
357.1276907656917956
  0
ARC
  5
9869
  8
0
 10
4087.9652316645110659
 20
137.803155766306503
 30
0.0
 40
11.9201132134239796
 50
357.2603414362644116
 51
0.3337430901086926
  0
ARC
  5
986A
  8
0
 10
4093.0463193437722111
 20
138.3524250134570082
 30
0.0
 40
6.8556361387110423
 50
355.9865032768909145
 51
0.0796372573979508
  0
ARC
  5
986B
  8
0
 10
4094.751873990427157
 20
138.5263963116794912
 30
0.0
 40
5.1526995330381489
 50
358.1711611004673159
 51
1.5139673205551381
  0
ARC
  5
986C
  8
0
 10
4104.2051765845772024
 20
138.5011102249881958
 30
0.0
 40
4.305428995043008
 50
171.5602366906209966
 51
177.8513023253788106
  0
ARC
  5
986D
  8
0
 10
4103.2468164483098008
 20
138.6580050384501135
 30
0.0
 40
3.3344515258095488
 50
157.485260219723898
 51
171.8100378169687872
  0
ARC
  5
986E
  8
0
 10
4099.0850810352403641
 20
140.4951757306197919
 30
0.0
 40
1.1958221202214721
 50
286.4659283138558976
 51
310.0457004711491891
  0
ARC
  5
986F
  8
0
 10
4099.090789640006733
 20
140.4883834902074113
 30
0.0
 40
1.186949538962228
 50
310.0457004711491891
 51
334.1691546096917023
  0
ARC
  5
9870
  8
0
 10
4099.0966233710742017
 20
140.4855594788612052
 30
0.0
 40
1.180468222873168
 50
334.1691546096917023
 51
351.580180459814585
  0
ARC
  5
9871
  8
0
 10
4098.3593235725156774
 20
140.5383730013896013
 30
0.0
 40
1.9183636810319451
 50
353.244454849758597
 51
358.6008465856087923
  0
ARC
  5
9872
  8
0
 10
4098.5696795830026531
 20
140.3946684393968951
 30
0.0
 40
1.710181033950958
 50
3.2469183376097721
 51
16.2735958995255316
  0
ARC
  5
9873
  8
0
 10
4099.0922918408441546
 20
140.4837656921536109
 30
0.0
 40
1.185107140307134
 50
19.2202192464389015
 51
45.6591545854498122
  0
ARC
  5
9874
  8
0
 10
4099.0854201657175508
 20
140.4767340605208972
 30
0.0
 40
1.1949389134156609
 50
45.6591545854498122
 51
68.7637590907765457
  0
ARC
  5
9875
  8
0
 10
4099.0840537773410688
 20
140.4732178992018987
 30
0.0
 40
1.1987112346664439
 50
68.7637590907765457
 51
84.8262702526776451
  0
ARC
  5
9876
  8
0
 10
4099.095088222814411
 20
140.4928140490910948
 30
0.0
 40
1.2688332654062879
 50
77.5200942480023372
 51
87.5739835268604736
  0
ARC
  5
9877
  8
0
 10
4099.2475198428091971
 20
141.1815316327198104
 30
0.0
 40
0.5634487541121878
 50
59.6498418211336201
 51
77.5200942480023372
  0
ARC
  5
9878
  8
0
 10
4098.8976288390158516
 20
140.5839664643357025
 30
0.0
 40
1.2559138037729749
 50
45.6476998120517123
 51
59.6498418211336201
  0
ARC
  5
9879
  8
0
 10
4098.8969685069832849
 20
140.5832910315139088
 30
0.0
 40
1.256858392514109
 50
39.101428200170993
 51
45.6476998120517123
  0
ARC
  5
987A
  8
0
 10
4593.69645163072164
 20
1887.0700906044451131
 30
0.0
 40
1813.9908007488459134
 50
254.1878746715902082
 51
254.1993400655312882
  0
ARC
  5
987B
  8
0
 10
4100.4728049035729782
 20
144.5259884100404122
 30
0.0
 40
2.990385140860579
 50
256.2589071058147852
 51
272.5083793587133982
  0
ARC
  5
987C
  8
0
 10
4100.096687217467661
 20
153.111685913839807
 30
0.0
 40
11.5843170780211402
 50
272.5083793587133982
 51
273.4478160180939881
  0
ARC
  5
987D
  8
0
 10
4100.7407741779770731
 20
142.4211764521280941
 30
0.0
 40
0.8744225610967852
 50
273.4478160180939881
 51
296.6455519199136006
  0
ARC
  5
987E
  8
0
 10
4100.8284049699441312
 20
142.0997261744396098
 30
0.0
 40
0.5517531573870444
 50
303.4985514933255786
 51
342.7231732402336206
  0
LINE
  5
987F
  8
0
 10
4102.4527269622885797
 20
142.0027839496239039
 30
0.0
 11
4102.4527269622885797
 21
141.9358617229461004
 31
0.0
  0
ARC
  5
9880
  8
0
 10
4102.3346319006714111
 20
142.4998391407210079
 30
0.0
 40
0.4773639121965612
 50
246.56562668617849
 51
293.4313850728473199
  0
LINE
  5
9881
  8
0
 10
4102.5244559239090449
 20
142.0618401168985088
 30
0.0
 11
4102.6298969621839206
 21
142.0618401168985088
 31
0.0
  0
LINE
  5
9882
  8
0
 10
4102.5244559239090449
 20
142.0618401168985088
 30
0.0
 11
4102.5244559239090449
 21
142.5342899362505875
 31
0.0
  0
LINE
  5
9883
  8
0
 10
4102.1447850340091463
 20
142.0618500176985037
 30
0.0
 11
4101.933933096108376
 21
142.0618500176985037
 31
0.0
  0
LINE
  5
9884
  8
0
 10
4102.1447850340091463
 20
142.0618500176985037
 30
0.0
 11
4102.1447850340091463
 21
142.5342800354507062
 31
0.0
  0
ARC
  5
9885
  8
0
 10
4102.3346319006714111
 20
142.0962909124280884
 30
0.0
 40
0.4773639121965612
 50
66.5686149271527086
 51
113.4343733137965984
  0
LINE
  5
9886
  8
0
 10
4102.5244559239090449
 20
142.5342899362505875
 30
0.0
 11
4102.6298969621839206
 21
142.5342899362505875
 31
0.0
  0
LINE
  5
9887
  8
0
 10
4102.1447850340091463
 20
142.5342800354505925
 30
0.0
 11
4101.933933096108376
 21
142.5342800354505925
 31
0.0
  0
LINE
  5
9888
  8
0
 62
     1
 10
4100.6613857930087761
 20
143.429012807407787
 30
0.0
 11
4100.6613857930087761
 21
143.4673319454915088
 31
0.0
  0
LINE
  5
9889
  8
0
 10
4101.3968141851937617
 20
142.6671650615195972
 30
0.0
 11
4101.3671133122206811
 21
142.7487609189481077
 31
0.0
  0
LINE
  5
988A
  8
0
 10
4101.4488211679326923
 20
142.0224701405255132
 30
0.0
 11
4101.4488211679326923
 21
142.5736599126236115
 31
0.0
  0
LINE
  5
988B
  8
0
 10
4101.4488211679326923
 20
142.5736599126236115
 30
0.0
 11
4101.4684971544911605
 21
142.5933369253363878
 31
0.0
  0
LINE
  5
988C
  8
0
 10
4101.4685083855210905
 20
142.0027839496239039
 30
0.0
 11
4101.4488211679326923
 21
142.0224701405255132
 31
0.0
  0
ARC
  5
988D
  8
0
 10
4101.4338377230433252
 20
142.6806416206160009
 30
0.0
 40
0.0394
 50
200.0014940740989005
 51
270.0000000000259774
  0
LINE
  5
988E
  8
0
 10
4101.2584932824065618
 20
142.8628843257478138
 30
0.0
 11
4100.9514581669809559
 21
142.992152843135699
 31
0.0
  0
ARC
  5
988F
  8
0
 10
4101.1820895913424465
 20
142.6814123279310138
 30
0.0
 40
0.1969
 50
20.0014940741187495
 51
67.1678399326509776
  0
ARC
  5
9890
  8
0
 10
4101.1353857930089362
 20
143.429012807407787
 30
0.0
 40
0.4740000000000001
 50
180.0
 51
247.1678399326505939
  0
LINE
  5
9891
  8
0
 10
4101.6259911678280332
 20
142.0027839496239039
 30
0.0
 11
4101.6259911678280332
 21
141.9358617229461004
 31
0.0
  0
ARC
  5
9892
  8
0
 10
4101.7440862294461112
 20
142.4998391407210079
 30
0.0
 40
0.4773639121965612
 50
246.5686149271527086
 51
293.4343733138215953
  0
LINE
  5
9893
  8
0
 10
4101.5542622062075679
 20
142.0618401168985088
 30
0.0
 11
4101.4488211679326923
 21
142.0618401168985088
 31
0.0
  0
LINE
  5
9894
  8
0
 10
4101.5542622062075679
 20
142.0618401168985088
 30
0.0
 11
4101.5542622062075679
 21
142.5342899362505875
 31
0.0
  0
LINE
  5
9895
  8
0
 10
4101.933933096108376
 20
142.0618500176985037
 30
0.0
 11
4101.933933096108376
 21
142.5342800354507062
 31
0.0
  0
ARC
  5
9896
  8
0
 10
4101.7440862294461112
 20
142.0962909124280884
 30
0.0
 40
0.4773639121965612
 50
66.5656266862033306
 51
113.4313850728473057
  0
LINE
  5
9897
  8
0
 10
4101.5542622062075679
 20
142.5342899362505875
 30
0.0
 11
4101.4488211679326923
 21
142.5342899362505875
 31
0.0
  0
LINE
  5
9898
  8
0
 10
4102.5531383684538014
 20
142.6412416206160003
 30
0.0
 11
4102.5531383684538014
 21
142.5933369253363878
 31
0.0
  0
LINE
  5
9899
  8
0
 10
4101.52557891305878
 20
142.6412416206160003
 30
0.0
 11
4101.52557891305878
 21
142.5933369253363878
 31
0.0
  0
ARC
  5
989A
  8
0
 10
4099.0855869175629778
 20
137.3443919818348888
 30
0.0
 40
0.4692979685808487
 50
277.1863076919358946
 51
293.2193794918122194
  0
ARC
  5
989B
  8
0
 10
4099.1249805451043358
 20
137.2525655528783091
 30
0.0
 40
0.3693782460743113
 50
293.2193794918118783
 51
315.8041814743078817
  0
ARC
  5
989C
  8
0
 10
4099.0075886944614467
 20
137.3667074713785041
 30
0.0
 40
0.5331134718394434
 50
315.8041814743078817
 51
333.6105439751211179
  0
ARC
  5
989D
  8
0
 10
4098.920360213521235
 20
137.4099880591930969
 30
0.0
 40
0.6304891216111124
 50
333.6105439751211179
 51
347.7213668237112074
  0
ARC
  5
989E
  8
0
 10
4098.5380692297803762
 20
137.493191643603609
 30
0.0
 40
1.02172975435459
 50
347.7213668237112074
 51
359.5966516565990787
  0
ARC
  5
989F
  8
0
 10
4093.4879620256087946
 20
137.3356988295635119
 30
0.0
 40
6.0736716027854696
 50
1.417996175781157
 51
5.8830880167378838
  0
ARC
  5
98A0
  8
0
 10
4054.506991646339884
 20
131.8673954112643969
 30
0.0
 40
45.4327820420675366
 50
7.7044325359213879
 51
8.3443066993115735
  0
ARC
  5
98A1
  8
0
 10
4108.0546807158270894
 20
139.7214527805417106
 30
0.0
 40
8.6878353032880788
 50
186.1880538818894024
 51
188.3443066993114883
  0
ARC
  5
98A2
  8
0
 10
4102.1195286047859554
 20
139.0779409790962973
 30
0.0
 40
2.7178991210653338
 50
178.3998078262108891
 51
186.1880538818894024
  0
ARC
  5
98A3
  8
0
 10
4100.6068633529330327
 20
139.1201986229455088
 30
0.0
 40
1.2046437319699641
 50
161.3987070521982901
 51
178.3998078262108891
  0
ARC
  5
98A4
  8
0
 10
4101.1032250066346023
 20
138.9531420013840091
 30
0.0
 40
1.728363892049728
 50
149.7644647951674131
 51
161.3987070521976079
  0
ARC
  5
98A5
  8
0
 10
4095.8027203558290239
 20
141.7764074135425005
 30
0.0
 40
4.2789268800827562
 50
332.8444185465668852
 51
336.8729858005913229
  0
ARC
  5
98A6
  8
0
 10
4098.5915255832396724
 20
140.5140381070490037
 30
0.0
 40
1.2201808102551059
 50
339.9529395519977015
 51
346.9616864075542253
  0
ARC
  5
98A7
  8
0
 10
4098.9763054988861768
 20
140.37070119292909
 30
0.0
 40
0.8146985586867863
 50
350.680002334180017
 51
359.7458728732669897
  0
ARC
  5
98A8
  8
0
 10
4098.8198153179719156
 20
140.3082970277044979
 30
0.0
 40
0.9729585546600636
 50
3.464188799891732
 51
21.223854669211029
  0
ARC
  5
98A9
  8
0
 10
4099.2036262855854147
 20
140.4573513583358135
 30
0.0
 40
0.5612207104696534
 50
21.223854669211029
 51
56.5922279795605405
  0
ARC
  5
98AA
  8
0
 10
4099.0848262714453085
 20
140.381495531455613
 30
0.0
 40
0.7516882690774125
 50
46.2740830226671989
 51
72.0705187396781071
  0
ARC
  5
98AB
  8
0
 10
4099.0902946792057264
 20
140.3872127135545043
 30
0.0
 40
0.7437769067047365
 50
20.45977943444516
 51
46.2740830226671989
  0
ARC
  5
98AC
  8
0
 10
4099.0934917415261225
 20
140.3884054888409878
 30
0.0
 40
0.7403645877922697
 50
9.887122043273294
 51
20.4597794344443997
  0
ARC
  5
98AD
  8
0
 10
4098.5194270045740268
 20
140.3395974332080129
 30
0.0
 40
1.3152533944329741
 50
2.1074840995147728
 51
7.687188643001031
  0
ARC
  5
98AE
  8
0
 10
4098.9259534637976685
 20
140.4260067996052896
 30
0.0
 40
0.9086339988935128
 50
337.047791643444782
 51
357.6004874824768081
  0
ARC
  5
98AF
  8
0
 10
4099.0957563820902578
 20
140.3863329987337067
 30
0.0
 40
0.7374006869553297
 50
318.2724114663307091
 51
334.7407284266819829
  0
ARC
  5
98B0
  8
0
 10
4099.0866979267648276
 20
138.4876770973820896
 30
0.0
 40
0.4953738639233717
 50
325.5558534861667113
 51
49.2356616786116135
  0
LINE
  5
98B1
  8
0
 10
4111.6123453659511142
 20
141.1129338538970046
 30
0.0
 11
4111.5541515968579915
 21
141.1045418230033874
 31
0.0
  0
ARC
  5
98B2
  8
0
 10
4111.5779948186318506
 20
141.1901875982071886
 30
0.0
 40
0.0875600299729917
 50
318.9624730652690232
 51
345.0762395294320868
  0
ARC
  5
98B3
  8
0
 10
4111.5958928893005577
 20
141.1746084499912968
 30
0.0
 40
0.0638313386305093
 50
284.936549618724996
 51
318.9624730652683979
  0
LINE
  5
98B4
  8
0
 10
4111.4797288729341744
 20
141.1720892782985004
 30
0.0
 11
4111.3295975462133356
 21
141.1720892782985004
 31
0.0
  0
LINE
  5
98B5
  8
0
 10
4110.5029488037916963
 20
141.1720892782985004
 30
0.0
 11
4110.3526781589689563
 21
141.1720892782985004
 31
0.0
  0
ARC
  5
98B6
  8
0
 10
4111.4797288729341744
 20
141.2110892782984877
 30
0.0
 40
0.039
 50
270.0
 51
0.0325518601488765
  0
ARC
  5
98B7
  8
0
 10
4111.551339778126021
 20
141.1240401222989078
 30
0.0
 40
0.0197
 50
180.3154655013308911
 51
278.2059614067433131
  0
LINE
  5
98B8
  8
0
 10
4110.220061665951107
 20
141.1129338538970046
 30
0.0
 11
4110.2782554350433202
 21
141.1045418230033874
 31
0.0
  0
ARC
  5
98B9
  8
0
 10
4110.2544122132712801
 20
141.1901875982071886
 30
0.0
 40
0.0875600299729917
 50
194.9237604705677995
 51
221.0375269347310052
  0
ARC
  5
98BA
  8
0
 10
4110.2365141426016635
 20
141.1746084499912968
 30
0.0
 40
0.0638313386305093
 50
221.0375269347316021
 51
255.0634503812748903
  0
ARC
  5
98BB
  8
0
 10
4110.2810672537771097
 20
141.1240401222989078
 30
0.0
 40
0.0197
 50
261.7940385932566869
 51
359.6845344986689952
  0
LINE
  5
98BC
  8
0
 10
4110.3138416643878372
 20
141.498892496178712
 30
0.0
 11
4110.3136781652638092
 21
141.2111114356457051
 31
0.0
  0
ARC
  5
98BD
  8
0
 10
4110.3526781589689563
 20
141.2110892782984877
 30
0.0
 40
0.039
 50
179.9674481398510864
 51
270.0
  0
LINE
  5
98BE
  8
0
 10
4110.3007669551743675
 20
141.1239316563869011
 30
0.0
 11
4110.3007669551743675
 21
141.5621821904207991
 31
0.0
  0
ARC
  5
98BF
  8
0
 10
4116.1214898904190704
 20
78.1660106244235209
 30
0.0
 40
63.431532690951002
 50
95.412597220426008
 51
100.6824220303072934
  0
ARC
  5
98C0
  8
0
 10
4119.0866407433413769
 20
62.4469610996662681
 30
0.0
 40
79.4278021792522537
 50
100.6824220303072934
 51
103.8778866460946944
  0
ARC
  5
98C1
  8
0
 10
4116.770772604881131
 20
73.798675563397282
 30
0.0
 40
67.2651635103953396
 50
98.4467510614988726
 51
104.5077820910661046
  0
ARC
  5
98C2
  8
0
 10
4112.8443279717375844
 20
104.2469860769366932
 30
0.0
 40
36.5751136798817598
 50
93.6702509417163895
 51
99.3690100513170762
  0
LINE
  5
98C3
  8
0
 10
4111.4287877003780523
 20
140.71680227760001
 30
0.0
 11
4111.329596688440688
 21
141.1653267504391067
 31
0.0
  0
ENDSEC
  0
EOF
