  0
SECTION
  2
HEADER
  9
$ACADVER
  1
AC1009
  9
$INSBASE
 10
3962.9535638783099785
 20
67.5217956637630436
 30
0.0
  9
$EXTMIN
 10
3954.7265628518398444
 20
42.4157987408277322
 30
-0.0000000349181948
  9
$EXTMAX
 10
3963.2270375080120175
 20
76.8112228563569204
 30
0.0000000814935746
  9
$LIMMIN
 10
0.0
 20
0.0
  9
$LIMMAX
 10
11.6929133858000007
 20
8.2677165353999982
  9
$ORTHOMODE
 70
     0
  9
$REGENMODE
 70
     1
  9
$FILLMODE
 70
     1
  9
$QTEXTMODE
 70
     0
  9
$MIRRTEXT
 70
     0
  9
$DRAGMODE
 70
     2
  9
$LTSCALE
 40
0.6431102362
  9
$OSMODE
 70
  4095
  9
$ATTMODE
 70
     1
  9
$TEXTSIZE
 40
0.2
  9
$TRACEWID
 40
0.05
  9
$TEXTSTYLE
  7
STANDARD
  9
$CLAYER
  8
0
  9
$CELTYPE
  6
BYLAYER
  9
$CECOLOR
 62
   256
  9
$DIMSCALE
 40
1.0
  9
$DIMASZ
 40
0.1875
  9
$DIMEXO
 40
0.0625
  9
$DIMDLI
 40
0.4443307087
  9
$DIMRND
 40
0.0
  9
$DIMDLE
 40
0.0
  9
$DIMEXE
 40
0.125
  9
$DIMTP
 40
0.01
  9
$DIMTM
 40
0.01
  9
$DIMTXT
 40
2.0
  9
$DIMCEN
 40
0.1052362205
  9
$DIMTSZ
 40
0.0
  9
$DIMTOL
 70
     1
  9
$DIMLIM
 70
     0
  9
$DIMTIH
 70
     1
  9
$DIMTOH
 70
     1
  9
$DIMSE1
 70
     0
  9
$DIMSE2
 70
     0
  9
$DIMTAD
 70
     0
  9
$DIMZIN
 70
     0
  9
$DIMBLK
  1

  9
$DIMASO
 70
     1
  9
$DIMSHO
 70
     1
  9
$DIMPOST
  1
\X
  9
$DIMAPOST
  1

  9
$DIMALT
 70
     1
  9
$DIMALTD
 70
     2
  9
$DIMALTF
 40
25.3999999999999986
  9
$DIMLFAC
 40
1.0
  9
$DIMTOFL
 70
     0
  9
$DIMTVP
 40
0.0
  9
$DIMTIX
 70
     0
  9
$DIMSOXD
 70
     0
  9
$DIMSAH
 70
     0
  9
$DIMBLK1
  1

  9
$DIMBLK2
  1

  9
$DIMSTYLE
  2
STANDARD
  9
$DIMCLRD
 70
     0
  9
$DIMCLRE
 70
     0
  9
$DIMCLRT
 70
     0
  9
$DIMTFAC
 40
1.0
  9
$DIMGAP
 40
0.09
  9
$LUNITS
 70
     2
  9
$LUPREC
 70
     4
  9
$SKETCHINC
 40
0.1
  9
$FILLETRAD
 40
0.0
  9
$AUNITS
 70
     0
  9
$AUPREC
 70
     0
  9
$MENU
  1
.
  9
$ELEVATION
 40
0.0
  9
$PELEVATION
 40
0.0
  9
$THICKNESS
 40
0.0
  9
$LIMCHECK
 70
     0
  9
$BLIPMODE
 70
     0
  9
$CHAMFERA
 40
0.0
  9
$CHAMFERB
 40
0.0
  9
$SKPOLY
 70
     0
  9
$TDCREATE
 40
2458060.468368056230247
  9
$TDUPDATE
 40
2459082.5393750001676381
  9
$TDINDWG
 40
0.4318820602
  9
$TDUSRTIMER
 40
0.4318820602
  9
$USRTIMER
 70
     1
  9
$ANGBASE
 50
0.0
  9
$ANGDIR
 70
     0
  9
$PDMODE
 70
     0
  9
$PDSIZE
 40
0.3125
  9
$PLINEWID
 40
0.0
  9
$COORDS
 70
     1
  9
$SPLFRAME
 70
     0
  9
$SPLINETYPE
 70
     6
  9
$SPLINESEGS
 70
     8
  9
$ATTDIA
 70
     1
  9
$ATTREQ
 70
     1
  9
$HANDLING
 70
     1
  9
$HANDSEED
  5
9631
  9
$SURFTAB1
 70
     6
  9
$SURFTAB2
 70
     6
  9
$SURFTYPE
 70
     6
  9
$SURFU
 70
     6
  9
$SURFV
 70
     6
  9
$UCSNAME
  2

  9
$UCSORG
 10
0.0
 20
0.0
 30
0.0
  9
$UCSXDIR
 10
1.0
 20
0.0
 30
0.0
  9
$UCSYDIR
 10
0.0
 20
1.0
 30
0.0
  9
$PUCSNAME
  2

  9
$PUCSORG
 10
0.0
 20
0.0
 30
0.0
  9
$PUCSXDIR
 10
1.0
 20
0.0
 30
0.0
  9
$PUCSYDIR
 10
0.0
 20
1.0
 30
0.0
  9
$USERI1
 70
     0
  9
$USERI2
 70
     0
  9
$USERI3
 70
     0
  9
$USERI4
 70
     0
  9
$USERI5
 70
     0
  9
$USERR1
 40
0.0
  9
$USERR2
 40
0.0
  9
$USERR3
 40
0.0
  9
$USERR4
 40
0.0
  9
$USERR5
 40
0.0
  9
$WORLDVIEW
 70
     1
  9
$SHADEDGE
 70
     3
  9
$SHADEDIF
 70
    70
  9
$TILEMODE
 70
     1
  9
$MAXACTVP
 70
    64
  9
$PLIMCHECK
 70
     0
  9
$PEXTMIN
 10
1.0000000000000000E+20
 20
1.0000000000000000E+20
 30
1.0000000000000000E+20
  9
$PEXTMAX
 10
-1.0000000000000000E+20
 20
-1.0000000000000000E+20
 30
-1.0000000000000000E+20
  9
$PLIMMIN
 10
0.0
 20
0.0
  9
$PLIMMAX
 10
12.0
 20
9.0
  9
$UNITMODE
 70
     0
  9
$VISRETAIN
 70
     1
  9
$PLINEGEN
 70
     0
  9
$PSLTSCALE
 70
     1
  0
ENDSEC
  0
SECTION
  2
TABLES
  0
TABLE
  2
VPORT
 70
     1
  0
VPORT
  2
*ACTIVE
 70
     0
 10
0.0
 20
0.0
 11
1.0
 21
1.0
 12
166.6188900236757036
 22
-60.5671456345131389
 13
0.0
 23
0.0
 14
1.0
 24
1.0
 15
0.0
 25
0.0
 16
0.0
 26
0.0
 36
5.1040778033513332
 17
3792.35791015625
 27
120.1806564331053977
 37
0.0
 40
34.6108443083195496
 41
2.005224660397074
 42
50.0
 43
0.0
 44
0.0
 50
0.0
 51
0.0
 71
     0
 72
   100
 73
     1
 74
     1
 75
     0
 76
     0
 77
     0
 78
     0
  0
ENDTAB
  0
TABLE
  2
LTYPE
 70
     2
  0
LTYPE
  2
CONTINUOUS
 70
     0
  3
Solid line
 72
    65
 73
     0
 40
0.0
  0
LTYPE
  2
PHANTOM2
 70
     0
  3
___ _ _ ___ _ _ ___ _ _ ___ _ _
 72
    65
 73
     6
 40
1.25
 49
0.625
 49
-0.125
 49
0.125
 49
-0.125
 49
0.125
 49
-0.125
  0
ENDTAB
  0
TABLE
  2
LAYER
 70
     2
  0
LAYER
  2
0
 70
     0
 62
   255
  6
CONTINUOUS
  0
LAYER
  2
DEFPOINTS
 70
     0
 62
     7
  6
CONTINUOUS
  0
ENDTAB
  0
TABLE
  2
STYLE
 70
     1
  0
STYLE
  2
STANDARD
 70
     0
 40
0.0
 41
0.8
 50
0.0
 71
     0
 42
0.2
  3
txt
  4

  0
ENDTAB
  0
TABLE
  2
VIEW
 70
     0
  0
ENDTAB
  0
TABLE
  2
UCS
 70
     0
  0
ENDTAB
  0
TABLE
  2
APPID
 70
     9
  0
APPID
  2
ACAD
 70
     0
  0
APPID
  2
ACAD_MLEADERVER
 70
     0
  0
APPID
  2
ACAD_EXEMPT_FROM_CAD_STANDARDS
 70
     0
  0
APPID
  2
ACAD_NAV_VCDISPLAY
 70
     0
  0
APPID
  2
ACAECLAYERSTANDARD
 70
     0
  0
APPID
  2
ACCMTRANSPARENCY
 70
     0
  0
APPID
  2
ACAD_DSTYLE_DIMJAG
 70
     0
  0
APPID
  2
ACAD_DSTYLE_DIMTALN
 70
     0
  0
APPID
  2
ACDBATTR
 70
     0
  0
ENDTAB
  0
TABLE
  2
DIMSTYLE
 70
     1
  0
DIMSTYLE
  2
STANDARD
 70
     0
  3

  4

  5

  6

  7

 40
1.0
 41
0.1875
 42
0.0625
 43
0.38
 44
0.125
 45
0.0
 46
0.0
 47
0.01
 48
0.01
140
0.15625
141
0.09
142
0.0
143
25.3999999999999986
144
1.0
145
0.0
146
1.0
147
0.09
 71
     1
 72
     0
 73
     1
 74
     1
 75
     0
 76
     0
 77
     0
 78
     4
170
     0
171
     2
172
     0
173
     0
174
     0
175
     0
176
     0
177
     0
178
     0
  0
ENDTAB
  0
ENDSEC
  0
SECTION
  2
BLOCKS
  0
BLOCK
  8
0
  2
$MODEL_SPACE
 70
     0
 10
0.0
 20
0.0
 30
0.0
  3
$MODEL_SPACE
  1

  0
ENDBLK
  5
21
  8
0
  0
BLOCK
 67
     1
  8
0
  2
$PAPER_SPACE
 70
     0
 10
0.0
 20
0.0
 30
0.0
  3
$PAPER_SPACE
  1

  0
ENDBLK
  5
1D
 67
     1
  8
0
  0
ENDSEC
  0
SECTION
  2
ENTITIES
  0
ATTDEF
  5
3930
  8
DEFPOINTS
 10
3962.9558999180949286
 20
67.5224567461841616
 30
0.0
 40
0.001
  1
K-72667T-4
  3

  2
MODELNUMBER
 70
     0
1001
ACDBATTR
1070
     0
1070
     1
  0
ATTDEF
  5
3931
  8
DEFPOINTS
 10
3962.9558999180949286
 20
67.5207900795174965
 30
0.0
 40
0.001
  1
SINGULIER
  3

  2
TRADENAME
 70
     0
1001
ACDBATTR
1070
     0
1070
     1
  0
ATTDEF
  5
3932
  8
DEFPOINTS
 10
3962.9558999180949286
 20
67.5191234128508313
 30
0.0
 40
0.001
  1
BATH AND SHOWER FAUCET
  3

  2
PRODUCT
 70
     0
1001
ACDBATTR
1070
     0
1070
     1
  0
LINE
  5
9213
  8
0
 10
3957.3353974248780105
 20
44.999495016240509
 30
0.0
 11
3957.3354503850328001
 21
66.0186911053312855
 31
0.0
  0
LINE
  5
9214
  8
0
 10
3957.8865767961210622
 20
45.0382515205535725
 30
0.0
 11
3957.8866296559999682
 21
66.0186933148972912
 31
0.0
  0
LINE
  5
9215
  8
0
 10
3959.3323162265828614
 20
44.9710100818153578
 30
0.0
 11
3959.3323712785440875
 21
66.8215151414002548
 31
0.0
  0
LINE
  5
9216
  8
0
 10
3959.8834972540421404
 20
44.9413029195969784
 30
0.0
 11
3959.8835523043148896
 21
66.7911559258959642
 31
0.0
  0
ARC
  5
9217
  8
0
 10
3958.6122227259979809
 20
43.1499909472307479
 30
0.0
 40
0.7286747254357389
 50
245.9823344725145944
 51
269.0762561850240218
  0
ARC
  5
9218
  8
0
 10
3958.7987840965301984
 20
43.4898683417445469
 30
0.0
 40
1.115520586010835
 50
213.1552719672272929
 51
244.3347841224249066
  0
ARC
  5
9219
  8
0
 10
3960.1609382686410754
 20
44.3817274287656431
 30
0.0
 40
2.7436715219904682
 50
194.0637707366614961
 51
213.1903833185303085
  0
ARC
  5
921A
  8
0
 10
3962.3896892390089306
 20
44.9925166270279178
 30
0.0
 40
5.0542966316101197
 50
179.9208925779670949
 51
194.640684278726809
  0
ARC
  5
921B
  8
0
 10
3954.3162967784610373
 20
45.0413058642782573
 30
0.0
 40
5.5680985735040354
 50
350.0439514355404071
 51
358.9709135586816728
  0
ARC
  5
921C
  8
0
 10
3956.4765753387719087
 20
44.6122345623497125
 30
0.0
 40
3.366527346582147
 50
331.7029178996568248
 51
350.8798547561052033
  0
ARC
  5
921D
  8
0
 10
3958.351962790387006
 20
43.5822340349526485
 30
0.0
 40
1.2271115609313741
 50
295.5700002398393735
 51
332.5388212202291811
  0
ARC
  5
921E
  8
0
 10
3958.5869827002497914
 20
43.2519148344626885
 30
0.0
 40
0.8306135067738644
 50
270.9307594149801162
 51
290.7750141066671858
  0
ARC
  5
921F
  8
0
 10
3962.6210565607198077
 20
45.0171014155918527
 30
0.0
 40
4.7345270057671671
 50
179.7440471287632988
 51
193.0914265085760917
  0
ARC
  5
9220
  8
0
 10
3960.6515696202141044
 20
44.5590981015957581
 30
0.0
 40
2.712486985279023
 50
193.0914265085760917
 51
206.5435851601019124
  0
ARC
  5
9221
  8
0
 10
3958.9995267440431235
 20
43.701405963182431
 30
0.0
 40
0.8517887175693946
 50
204.5908711012673109
 51
235.7956907590576918
  0
ARC
  5
9222
  8
0
 10
3958.610368105688849
 20
43.1499818014650103
 30
0.0
 40
0.1773735255663925
 50
239.6323404012807998
 51
304.7021323413889036
  0
ARC
  5
9223
  8
0
 10
3958.0302647709781922
 20
43.8651017621267982
 30
0.0
 40
1.0977694365719439
 50
308.3471951855142947
 51
340.2110507733488021
  0
ARC
  5
9224
  8
0
 10
3955.8676530792208723
 20
44.7802037748065231
 30
0.0
 40
3.4448963701695101
 50
338.0667499164172796
 51
352.5331961598363932
  0
ARC
  5
9225
  8
0
 10
3953.3752161446100217
 20
45.1068703311626535
 30
0.0
 40
5.9586491249283586
 50
352.5331961598363932
 51
358.6935136906330968
  0
LINE
  5
9226
  8
0
 10
3955.5045079959209033
 20
68.3267173083908972
 30
0.0
 11
3958.6364661424750011
 21
68.3267173083908972
 31
0.0
  0
ARC
  5
9227
  8
0
 10
3955.4956699244239644
 20
67.7361612032355538
 30
0.0
 40
0.590622235311189
 50
89.1425939193462966
 51
270.857406080653675
  0
LINE
  5
9228
  8
0
 10
3955.5045079959209033
 20
67.1456050980802104
 30
0.0
 11
3958.6272438166888605
 21
67.1456050980802104
 31
0.0
  0
LINE
  5
9229
  8
0
 10
3956.0738023548219644
 20
67.0866165671886279
 30
0.0
 11
3956.0831452202860419
 21
67.1456050980802104
 31
0.0
  0
LINE
  5
922A
  8
0
 10
3956.0487272396640037
 20
67.054134214052354
 30
0.0
 11
3956.0580461731437936
 21
67.0609048155410363
 31
0.0
  0
LINE
  5
922B
  8
0
 10
3956.0487272396640037
 20
67.054134214052354
 30
0.0
 11
3955.4673228502310849
 21
67.14621962288318
 31
0.0
  0
ARC
  5
922C
  8
0
 10
3956.034887434203938
 20
67.0927800851194718
 30
0.0
 40
0.0394
 50
305.9999999999130864
 51
350.9999999878584731
  0
LINE
  5
922D
  8
0
 10
3955.6676507874749404
 20
67.1144907946587068
 30
0.0
 11
3955.6556802191248607
 21
67.0389125822469936
 31
0.0
  0
LINE
  5
922E
  8
0
 10
3955.7687527436441997
 20
67.098477817913647
 30
0.0
 11
3955.7567821430861841
 21
67.0228994025349323
 31
0.0
  0
ARC
  5
922F
  8
0
 10
3955.7978949764869867
 20
67.6127500575104108
 30
0.0
 40
0.591281709716502
 50
266.0129088702886975
 51
290.9156732947660089
  0
LINE
  5
9230
  8
0
 10
3955.7884630274102165
 20
67.0215874987130462
 30
0.0
 11
3955.7887495436111749
 21
67.0233963761130411
 31
0.0
  0
LINE
  5
9231
  8
0
 10
3955.7887495436111749
 20
67.0233963761130411
 30
0.0
 11
3955.7896034298669292
 21
67.0234219973807512
 31
0.0
  0
LINE
  5
9232
  8
0
 10
3955.7896034298669292
 20
67.0234219973807512
 30
0.0
 11
3955.8067505079270632
 21
67.0227073920853087
 31
0.0
  0
LINE
  5
9233
  8
0
 10
3955.8067505079270632
 20
67.0227073920853087
 30
0.0
 11
3955.8065643174409161
 21
67.0215319059177261
 31
0.0
  0
LINE
  5
9234
  8
0
 10
3955.7890080830111401
 20
67.0250286776130508
 30
0.0
 11
3955.7898754744101097
 21
67.0305050566130518
 31
0.0
  0
LINE
  5
9235
  8
0
 10
3955.7898754744101097
 20
67.0305050566130518
 30
0.0
 11
3955.7907370445609558
 21
67.0305790741174121
 31
0.0
  0
LINE
  5
9236
  8
0
 10
3955.7907370445609558
 20
67.0305790741174121
 30
0.0
 11
3955.8077386369109263
 21
67.0289460261130472
 31
0.0
  0
LINE
  5
9237
  8
0
 10
3955.8077386369109263
 20
67.0289460261130472
 30
0.0
 11
3955.8072919875357911
 21
67.0261260521109676
 31
0.0
  0
LINE
  5
9238
  8
0
 10
3955.8072919875357911
 20
67.0261260521109676
 30
0.0
 11
3955.7898475491101635
 21
67.0249631388130354
 31
0.0
  0
LINE
  5
9239
  8
0
 10
3955.7898475491101635
 20
67.0249631388130354
 30
0.0
 11
3955.7890080830111401
 21
67.0250286776130508
 31
0.0
  0
LINE
  5
923A
  8
0
 10
3955.7903998331112234
 20
67.0338156750130452
 30
0.0
 11
3955.7918730649112149
 21
67.0431171800130414
 31
0.0
  0
LINE
  5
923B
  8
0
 10
3955.7918730649112149
 20
67.0431171800130414
 30
0.0
 11
3955.7927428752109336
 21
67.043243223913052
 31
0.0
  0
LINE
  5
923C
  8
0
 10
3955.7927428752109336
 20
67.043243223913052
 30
0.0
 11
3955.8095956743100032
 21
67.0406707322130444
 31
0.0
  0
LINE
  5
923D
  8
0
 10
3955.8095956743100032
 20
67.0406707322130444
 30
0.0
 11
3955.8088369374108879
 21
67.0358803150130456
 31
0.0
  0
LINE
  5
923E
  8
0
 10
3955.8088369374108879
 20
67.0358803150130456
 30
0.0
 11
3955.7912320849040952
 21
67.0337045874699697
 31
0.0
  0
LINE
  5
923F
  8
0
 10
3955.7912320849040952
 20
67.0337045874699697
 30
0.0
 11
3955.7904030360800789
 21
67.0338358975203477
 31
0.0
  0
LINE
  5
9240
  8
0
 10
3955.7926787864112157
 20
67.0482042535130489
 30
0.0
 11
3955.7948036384100305
 21
67.0616199258130337
 31
0.0
  0
LINE
  5
9241
  8
0
 10
3955.7948036384100305
 20
67.0616199258130337
 30
0.0
 11
3955.7956825946121171
 21
67.0618038332750643
 31
0.0
  0
LINE
  5
9242
  8
0
 10
3955.7956825946121171
 20
67.0618038332750643
 30
0.0
 11
3955.8123784075551157
 21
67.058240052051346
 31
0.0
  0
LINE
  5
9243
  8
0
 10
3955.8123784075551157
 20
67.058240052051346
 30
0.0
 11
3955.8112837939261226
 21
67.0513289919060469
 31
0.0
  0
LINE
  5
9244
  8
0
 10
3955.8112837939261226
 20
67.0513289919060469
 30
0.0
 11
3955.7935035537097974
 21
67.0480459105130535
 31
0.0
  0
LINE
  5
9245
  8
0
 10
3955.7935035537097974
 20
67.0480459105130535
 30
0.0
 11
3955.7926787864112157
 21
67.0482042535130489
 31
0.0
  0
LINE
  5
9246
  8
0
 10
3955.7959171142101695
 20
67.0686500841130453
 30
0.0
 11
3955.7987682251100523
 21
67.0866511948130437
 31
0.0
  0
LINE
  5
9247
  8
0
 10
3955.7987682251100523
 20
67.0866511948130437
 30
0.0
 11
3955.7996577395101667
 21
67.0869017435130246
 31
0.0
  0
LINE
  5
9248
  8
0
 10
3955.7996577395101667
 20
67.0869017435130246
 30
0.0
 11
3955.8161817050099671
 21
67.0822529600130508
 31
0.0
  0
LINE
  5
9249
  8
0
 10
3955.8161817050099671
 20
67.0822529600130508
 30
0.0
 11
3955.8147123978310447
 21
67.0729761784906771
 31
0.0
  0
LINE
  5
924A
  8
0
 10
3955.8147123978310447
 20
67.0729761784906771
 30
0.0
 11
3955.7967338573339475
 21
67.0684410780648506
 31
0.0
  0
LINE
  5
924B
  8
0
 10
3955.7967338573339475
 20
67.0684410780648506
 30
0.0
 11
3955.7959171142101695
 21
67.0686500841130453
 31
0.0
  0
LINE
  5
924C
  8
0
 10
3955.7671113978908579
 20
67.0881149033271242
 30
0.0
 11
3955.7852040242878502
 21
67.0852493127774494
 31
0.0
  0
LINE
  5
924D
  8
0
 10
3955.7852040242878502
 20
67.0852493127774494
 30
0.0
 11
3955.7886087869028415
 21
67.086122926370976
 31
0.0
  0
LINE
  5
924E
  8
0
 10
3955.7886087869028415
 20
67.086122926370976
 30
0.0
 11
3955.7900318185161268
 21
67.0951075435491049
 31
0.0
  0
LINE
  5
924F
  8
0
 10
3955.7852040243042211
 20
67.0852493127747636
 30
0.0
 11
3955.7868453493069865
 21
67.0956122306914438
 31
0.0
  0
LINE
  5
9250
  8
0
 10
3955.8065132179140164
 20
67.0612039473331976
 30
0.0
 11
3955.8077864479591881
 21
67.0692427467079142
 31
0.0
  0
LINE
  5
9251
  8
0
 10
3955.8077864479591881
 20
67.0692427467079142
 30
0.0
 11
3955.8258299567251015
 21
67.074188158865951
 31
0.0
  0
LINE
  5
9252
  8
0
 10
3955.8258299567251015
 20
67.074188158865951
 30
0.0
 11
3955.8425806799509701
 21
67.0709710675026827
 31
0.0
  0
LINE
  5
9253
  8
0
 10
3955.8425806799509701
 20
67.0709710675026827
 30
0.0
 11
3955.8412904536098722
 21
67.0628249578104487
 31
0.0
  0
LINE
  5
9254
  8
0
 10
3955.8412904536098722
 20
67.0628249578104487
 30
0.0
 11
3955.8232664635111178
 21
67.0580028998130331
 31
0.0
  0
LINE
  5
9255
  8
0
 10
3955.8232664635111178
 20
67.0580028998130331
 30
0.0
 11
3955.8065132179140164
 21
67.0612039473331976
 31
0.0
  0
LINE
  5
9256
  8
0
 10
3955.8045149974050219
 20
67.0485877874802725
 30
0.0
 11
3955.8223562189668883
 21
67.052256008392078
 31
0.0
  0
LINE
  5
9257
  8
0
 10
3955.8223562189668883
 20
67.052256008392078
 30
0.0
 11
3955.8392665825840595
 21
67.0500468467814414
 31
0.0
  0
LINE
  5
9258
  8
0
 10
3955.8392665825840595
 20
67.0500468467814414
 30
0.0
 11
3955.8383340697100721
 21
67.044159251013042
 31
0.0
  0
LINE
  5
9259
  8
0
 10
3955.8383340697100721
 20
67.044159251013042
 30
0.0
 11
3955.8205026622749756
 21
67.0405531118099276
 31
0.0
  0
LINE
  5
925A
  8
0
 10
3955.8205026622749756
 20
67.0405531118099276
 30
0.0
 11
3955.8035939078058618
 21
67.0427723156465447
 31
0.0
  0
LINE
  5
925B
  8
0
 10
3955.8035939078058618
 20
67.0427723156465447
 30
0.0
 11
3955.8045149974050219
 21
67.0485877874802725
 31
0.0
  0
LINE
  5
925C
  8
0
 10
3955.8016093903038382
 20
67.0302427318698335
 30
0.0
 11
3955.8022087345098043
 21
67.0340267835130419
 31
0.0
  0
LINE
  5
925D
  8
0
 10
3955.8022087345098043
 20
67.0340267835130419
 30
0.0
 11
3955.8198718721027944
 21
67.0365705081879213
 31
0.0
  0
LINE
  5
925E
  8
0
 10
3955.8198718721027944
 20
67.0365705081879213
 30
0.0
 11
3955.836932169776901
 21
67.0353081109988409
 31
0.0
  0
LINE
  5
925F
  8
0
 10
3955.836932169776901
 20
67.0353081109988409
 30
0.0
 11
3955.8363257510100084
 21
67.0314793925130488
 31
0.0
  0
LINE
  5
9260
  8
0
 10
3955.8363257510100084
 20
67.0314793925130488
 30
0.0
 11
3955.8186661505787924
 21
67.0289580001014542
 31
0.0
  0
LINE
  5
9261
  8
0
 10
3955.8186661505787924
 20
67.0289580001014542
 30
0.0
 11
3955.8016093903038382
 21
67.0302427318698335
 31
0.0
  0
LINE
  5
9262
  8
0
 10
3955.8004984305698599
 20
67.023228575013917
 30
0.0
 11
3955.8007939378840092
 21
67.0250942760187911
 31
0.0
  0
LINE
  5
9263
  8
0
 10
3955.8007939378840092
 20
67.0250942760187911
 30
0.0
 11
3955.8182948500361817
 21
67.0266138672212719
 31
0.0
  0
LINE
  5
9264
  8
0
 10
3955.8182948500361817
 20
67.0266138672212719
 30
0.0
 11
3955.835500826110092
 21
67.0262711294130469
 31
0.0
  0
LINE
  5
9265
  8
0
 10
3955.835500826110092
 20
67.0262711294130469
 30
0.0
 11
3955.835201928799961
 21
67.0243840249270875
 31
0.0
  0
LINE
  5
9266
  8
0
 10
3955.835201928799961
 20
67.0243840249270875
 30
0.0
 11
3955.8177004908420713
 21
67.0228612315273011
 31
0.0
  0
LINE
  5
9267
  8
0
 10
3955.8177004908420713
 20
67.0228612315273011
 30
0.0
 11
3955.8004984305698599
 21
67.023228575013917
 31
0.0
  0
LINE
  5
9268
  8
0
 10
3955.8292621512159712
 20
67.0268769322461537
 30
0.0
 11
3955.8297120736101533
 21
67.029717571613034
 31
0.0
  0
LINE
  5
9269
  8
0
 10
3955.8297120736101533
 20
67.029717571613034
 30
0.0
 11
3955.8474308419467889
 21
67.0326125351669191
 31
0.0
  0
LINE
  5
926A
  8
0
 10
3955.8474308419467889
 20
67.0326125351669191
 30
0.0
 11
3955.8646994981108946
 21
67.0326656619130432
 31
0.0
  0
LINE
  5
926B
  8
0
 10
3955.8646994981108946
 20
67.0326656619130432
 30
0.0
 11
3955.8642540694249874
 21
67.0298533933176373
 31
0.0
  0
LINE
  5
926C
  8
0
 10
3955.8642540694249874
 20
67.0298533933176373
 30
0.0
 11
3955.8465243814030146
 21
67.0268894870439311
 31
0.0
  0
LINE
  5
926D
  8
0
 10
3955.8465243814030146
 20
67.0268894870439311
 30
0.0
 11
3955.8292621512159712
 21
67.0268769322461537
 31
0.0
  0
LINE
  5
926E
  8
0
 10
3955.8308185643109027
 20
67.0367035708130459
 30
0.0
 11
3955.8315830799101604
 21
67.0415304734130331
 31
0.0
  0
LINE
  5
926F
  8
0
 10
3955.8315830799101604
 20
67.0415304734130331
 30
0.0
 11
3955.8494762073100901
 21
67.0455264149130414
 31
0.0
  0
LINE
  5
9270
  8
0
 10
3955.8494762073100901
 20
67.0455264149130414
 30
0.0
 11
3955.8665990413069267
 21
67.0446587386896056
 31
0.0
  0
LINE
  5
9271
  8
0
 10
3955.8665990413069267
 20
67.0446587386896056
 30
0.0
 11
3955.8658227153100597
 21
67.039757268215169
 31
0.0
  0
LINE
  5
9272
  8
0
 10
3955.8658227153100597
 20
67.039757268215169
 30
0.0
 11
3955.847935474445876
 21
67.0357986103773982
 31
0.0
  0
LINE
  5
9273
  8
0
 10
3955.847935474445876
 20
67.0357986103773982
 30
0.0
 11
3955.8308185643109027
 21
67.0367035708130459
 31
0.0
  0
LINE
  5
9274
  8
0
 10
3955.8332844254659904
 20
67.052272238743555
 30
0.0
 11
3955.8343878987097924
 21
67.0592392356130489
 31
0.0
  0
LINE
  5
9275
  8
0
 10
3955.8343878987097924
 20
67.0592392356130489
 30
0.0
 11
3955.8524773901631306
 21
67.0644749709748851
 31
0.0
  0
LINE
  5
9276
  8
0
 10
3955.8524773901631306
 20
67.0644749709748851
 30
0.0
 11
3955.8694490642078563
 21
67.0626529085982526
 31
0.0
  0
LINE
  5
9277
  8
0
 10
3955.8694490642078563
 20
67.0626529085982526
 30
0.0
 11
3955.8683274448030716
 21
67.0555713408275551
 31
0.0
  0
LINE
  5
9278
  8
0
 10
3955.8683274448030716
 20
67.0555713408275551
 30
0.0
 11
3955.8502523940819628
 21
67.0504268984050924
 31
0.0
  0
LINE
  5
9279
  8
0
 10
3955.8502523940819628
 20
67.0504268984050924
 30
0.0
 11
3955.8332844254659904
 21
67.052272238743555
 31
0.0
  0
LINE
  5
927A
  8
0
 10
3955.8367415710099522
 20
67.0740996299130501
 30
0.0
 11
3955.8382238550448164
 21
67.0834583444066226
 31
0.0
  0
LINE
  5
927B
  8
0
 10
3955.8382238550448164
 20
67.0834583444066226
 30
0.0
 11
3955.8461541112928899
 21
67.0862186456171514
 31
0.0
  0
LINE
  5
927C
  8
0
 10
3955.8367415710099522
 20
67.0740996299130501
 30
0.0
 11
3955.8535517039917977
 21
67.0712577549924873
 31
0.0
  0
LINE
  5
927D
  8
0
 10
3955.8535517039917977
 20
67.0712577549924873
 30
0.0
 11
3955.8718431128181692
 21
67.0777682286501999
 31
0.0
  0
LINE
  5
927E
  8
0
 10
3955.8718431128181692
 20
67.0777682286501999
 30
0.0
 11
3955.8725201236097746
 21
67.082042679512341
 31
0.0
  0
LINE
  5
927F
  8
0
 10
3955.8647930566830837
 20
67.0732512205727005
 30
0.0
 11
3955.8634888888468595
 21
67.0650170881225165
 31
0.0
  0
LINE
  5
9280
  8
0
 10
3955.8634888888468595
 20
67.0650170881225165
 30
0.0
 11
3955.8805204317468451
 21
67.0635731401466444
 31
0.0
  0
LINE
  5
9281
  8
0
 10
3955.8805204317468451
 20
67.0635731401466444
 30
0.0
 11
3955.8988628244101164
 21
67.0704055128130392
 31
0.0
  0
LINE
  5
9282
  8
0
 10
3955.8988628244101164
 20
67.0704055128130392
 30
0.0
 11
3955.9000162217089382
 21
67.077687725403436
 31
0.0
  0
LINE
  5
9283
  8
0
 10
3955.8647930566830837
 20
67.0732512205727005
 30
0.0
 11
3955.8835792682461943
 21
67.0802910830785351
 31
0.0
  0
LINE
  5
9284
  8
0
 10
3955.8605021477101218
 20
67.046159713252095
 30
0.0
 11
3955.8614440066949101
 21
67.052106318024471
 31
0.0
  0
LINE
  5
9285
  8
0
 10
3955.8614440066949101
 20
67.052106318024471
 30
0.0
 11
3955.8795855944867981
 21
67.0576708582657801
 31
0.0
  0
LINE
  5
9286
  8
0
 10
3955.8795855944867981
 20
67.0576708582657801
 30
0.0
 11
3955.8967762460101767
 21
67.0572314830130409
 31
0.0
  0
LINE
  5
9287
  8
0
 10
3955.8967762460101767
 20
67.0572314830130409
 30
0.0
 11
3955.8958158697050749
 21
67.0511679642896183
 31
0.0
  0
LINE
  5
9288
  8
0
 10
3955.8958158697050749
 20
67.0511679642896183
 30
0.0
 11
3955.8776835392877729
 21
67.0456618730544136
 31
0.0
  0
LINE
  5
9289
  8
0
 10
3955.8776835392877729
 20
67.0456618730544136
 30
0.0
 11
3955.8605021477101218
 21
67.046159713252095
 31
0.0
  0
LINE
  5
928A
  8
0
 10
3955.8584743773330956
 20
67.0333570413135931
 30
0.0
 11
3955.8590865748001306
 21
67.037222245442635
 31
0.0
  0
LINE
  5
928B
  8
0
 10
3955.8590865748001306
 20
67.037222245442635
 30
0.0
 11
3955.8770367135430206
 21
67.0415781421063741
 31
0.0
  0
LINE
  5
928C
  8
0
 10
3955.8770367135430206
 20
67.0415781421063741
 30
0.0
 11
3955.8943732391107915
 21
67.0415781421063741
 31
0.0
  0
LINE
  5
928D
  8
0
 10
3955.8943732391107915
 20
67.0415781421063741
 30
0.0
 11
3955.8937496173211912
 21
67.0381223271778595
 31
0.0
  0
LINE
  5
928E
  8
0
 10
3955.8937496173211912
 20
67.0381223271778595
 30
0.0
 11
3955.8758010486058083
 21
67.0337764611841749
 31
0.0
  0
LINE
  5
928F
  8
0
 10
3955.8758010486058083
 20
67.0337764611841749
 30
0.0
 11
3955.8584743773330956
 21
67.0333570413135931
 31
0.0
  0
LINE
  5
9290
  8
0
 10
3955.8573400549471444
 20
67.0261953784158351
 30
0.0
 11
3955.8576417187991865
 21
67.0280999503377899
 31
0.0
  0
LINE
  5
9291
  8
0
 10
3955.8576417187991865
 20
67.0280999503377899
 30
0.0
 11
3955.8754207083411529
 21
67.0313751354118494
 31
0.0
  0
LINE
  5
9292
  8
0
 10
3955.8754207083411529
 20
67.0313751354118494
 30
0.0
 11
3955.8929016806109757
 21
67.0327687732130499
 31
0.0
  0
LINE
  5
9293
  8
0
 10
3955.8929016806109757
 20
67.0327687732130499
 30
0.0
 11
3955.8925945540358953
 21
67.0308297112652838
 31
0.0
  0
LINE
  5
9294
  8
0
 10
3955.8925945540358953
 20
67.0308297112652838
 30
0.0
 11
3955.8748119886108725
 21
67.0275319484130421
 31
0.0
  0
LINE
  5
9295
  8
0
 10
3955.8748119886108725
 20
67.0275319484130421
 30
0.0
 11
3955.8573400549471444
 21
67.0261953784158351
 31
0.0
  0
LINE
  5
9296
  8
0
 10
3955.8865637122098633
 20
67.0327476616129729
 30
0.0
 11
3955.8870142900259452
 21
67.0355924401652885
 31
0.0
  0
LINE
  5
9297
  8
0
 10
3955.8870142900259452
 20
67.0355924401652885
 30
0.0
 11
3955.9050387345678246
 21
67.0404174843362739
 31
0.0
  0
LINE
  5
9298
  8
0
 10
3955.9050387345678246
 20
67.0404174843362739
 30
0.0
 11
3955.9225935123808995
 21
67.0422769936820089
 31
0.0
  0
LINE
  5
9299
  8
0
 10
3955.9225935123808995
 20
67.0422769936820089
 30
0.0
 11
3955.9221214035101184
 21
67.039296274513049
 31
0.0
  0
LINE
  5
929A
  8
0
 10
3955.9221214035101184
 20
67.039296274513049
 30
0.0
 11
3955.904104921742146
 21
67.0345216220080715
 31
0.0
  0
LINE
  5
929B
  8
0
 10
3955.904104921742146
 20
67.0345216220080715
 30
0.0
 11
3955.8865637122098633
 21
67.0327476616129729
 31
0.0
  0
LINE
  5
929C
  8
0
 10
3955.8881620355100495
 20
67.0428389110104064
 30
0.0
 11
3955.888947707700936
 21
67.047799390752715
 31
0.0
  0
LINE
  5
929D
  8
0
 10
3955.888947707700936
 20
67.047799390752715
 30
0.0
 11
3955.9071481156020127
 21
67.0537353073939641
 31
0.0
  0
LINE
  5
929E
  8
0
 10
3955.9071481156020127
 20
67.0537353073939641
 30
0.0
 11
3955.924559424736799
 21
67.0546891087477235
 31
0.0
  0
LINE
  5
929F
  8
0
 10
3955.924559424736799
 20
67.0546891087477235
 30
0.0
 11
3955.9237556044108715
 21
67.049614045915547
 31
0.0
  0
LINE
  5
92A0
  8
0
 10
3955.9237556044108715
 20
67.049614045915547
 30
0.0
 11
3955.9055588811111193
 21
67.0437013934130448
 31
0.0
  0
LINE
  5
92A1
  8
0
 10
3955.9055588811111193
 20
67.0437013934130448
 30
0.0
 11
3955.8881620355100495
 21
67.0428389110104064
 31
0.0
  0
LINE
  5
92A2
  8
0
 10
3955.8906975494510334
 20
67.0588473494207733
 30
0.0
 11
3955.8918335671987734
 21
67.0660198239370402
 31
0.0
  0
LINE
  5
92A3
  8
0
 10
3955.8918335671987734
 20
67.0660198239370402
 30
0.0
 11
3955.9102491324229049
 21
67.0733143080277614
 31
0.0
  0
LINE
  5
92A4
  8
0
 10
3955.9102491324229049
 20
67.0733143080277614
 30
0.0
 11
3955.9275093928167735
 21
67.0733143080277614
 31
0.0
  0
LINE
  5
92A5
  8
0
 10
3955.9275093928167735
 20
67.0733143080277614
 30
0.0
 11
3955.9263509623178834
 21
67.0660003244647953
 31
0.0
  0
LINE
  5
92A6
  8
0
 10
3955.9263509623178834
 20
67.0660003244647953
 30
0.0
 11
3955.9079494025108943
 21
67.058794384713039
 31
0.0
  0
LINE
  5
92A7
  8
0
 10
3955.9079494025108943
 20
67.058794384713039
 30
0.0
 11
3955.8906975494510334
 21
67.0588473494207733
 31
0.0
  0
LINE
  5
92A8
  8
0
 10
3955.9183627617280763
 20
67.05556016412568
 30
0.0
 11
3955.919337536310195
 21
67.0617145901130414
 31
0.0
  0
LINE
  5
92A9
  8
0
 10
3955.919337536310195
 20
67.0617145901130414
 30
0.0
 11
3955.9378142697510157
 21
67.0693952748706437
 31
0.0
  0
LINE
  5
92AA
  8
0
 10
3955.9378142697510157
 20
67.0693952748706437
 30
0.0
 11
3955.947774374328219
 21
67.0701235771291806
 31
0.0
  0
LINE
  5
92AB
  8
0
 10
3955.9183627617280763
 20
67.05556016412568
 30
0.0
 11
3955.9358374913790612
 21
67.0569143872861275
 31
0.0
  0
LINE
  5
92AC
  8
0
 10
3955.9358374913790612
 20
67.0569143872861275
 30
0.0
 11
3955.9543073881100099
 21
67.064551789420392
 31
0.0
  0
LINE
  5
92AD
  8
0
 10
3955.9543073881100099
 20
67.064551789420392
 30
0.0
 11
3955.9550084089100892
 21
67.0689778186104775
 31
0.0
  0
LINE
  5
92AE
  8
0
 10
3955.9162666410102247
 20
67.0423259456130438
 30
0.0
 11
3955.9168991224100864
 21
67.046319216913048
 31
0.0
  0
LINE
  5
92AF
  8
0
 10
3955.9168991224100864
 20
67.046319216913048
 30
0.0
 11
3955.9351660434849691
 21
67.0526751986511016
 31
0.0
  0
LINE
  5
92B0
  8
0
 10
3955.9351660434849691
 20
67.0526751986511016
 30
0.0
 11
3955.9528033738970407
 21
67.0550559247259059
 31
0.0
  0
LINE
  5
92B1
  8
0
 10
3955.9528033738970407
 20
67.0550559247259059
 30
0.0
 11
3955.952153892510978
 21
67.0509553196130526
 31
0.0
  0
LINE
  5
92B2
  8
0
 10
3955.952153892510978
 20
67.0509553196130526
 30
0.0
 11
3955.933884410500923
 21
67.0445832865498232
 31
0.0
  0
LINE
  5
92B3
  8
0
 10
3955.933884410500923
 20
67.0445832865498232
 30
0.0
 11
3955.9162666410102247
 21
67.0423259456130438
 31
0.0
  0
LINE
  5
92B4
  8
0
 10
3955.9150955088048249
 20
67.0349318743802911
 30
0.0
 11
3955.915406865623936
 21
67.0368976449978788
 31
0.0
  0
LINE
  5
92B5
  8
0
 10
3955.915406865623936
 20
67.0368976449978788
 30
0.0
 11
3955.9334901960510251
 21
67.0420943633967568
 31
0.0
  0
LINE
  5
92B6
  8
0
 10
3955.9334901960510251
 20
67.0420943633967568
 30
0.0
 11
3955.9512714248257907
 21
67.0453837463396667
 31
0.0
  0
LINE
  5
92B7
  8
0
 10
3955.9512714248257907
 20
67.0453837463396667
 30
0.0
 11
3955.9509519664379695
 21
67.0433668237791949
 31
0.0
  0
LINE
  5
92B8
  8
0
 10
3955.9509519664379695
 20
67.0433668237791949
 30
0.0
 11
3955.9328595336191938
 21
67.0381126352857422
 31
0.0
  0
LINE
  5
92B9
  8
0
 10
3955.9328595336191938
 20
67.0381126352857422
 30
0.0
 11
3955.9150955088048249
 21
67.0349318743802911
 31
0.0
  0
LINE
  5
92BA
  8
0
 10
3955.9440552310811654
 20
67.0398179147374549
 30
0.0
 11
3955.9442442638242028
 21
67.0410113511997565
 31
0.0
  0
LINE
  5
92BB
  8
0
 10
3955.9442442638242028
 20
67.0410113511997565
 30
0.0
 11
3955.9624064958129566
 21
67.0467063518569404
 31
0.0
  0
LINE
  5
92BC
  8
0
 10
3955.9624064958129566
 20
67.0467063518569404
 30
0.0
 11
3955.9804267268032163
 21
67.0515046175451204
 31
0.0
  0
LINE
  5
92BD
  8
0
 10
3955.9804267268032163
 20
67.0515046175451204
 30
0.0
 11
3955.9802335823042085
 21
67.0502852203215696
 31
0.0
  0
LINE
  5
92BE
  8
0
 10
3955.9448256206110273
 20
67.0446817856130508
 30
0.0
 11
3955.94530556690097
 21
67.0477119879291479
 31
0.0
  0
LINE
  5
92BF
  8
0
 10
3955.94530556690097
 20
67.0477119879291479
 30
0.0
 11
3955.9636481033039672
 21
67.0545453863377219
 31
0.0
  0
LINE
  5
92C0
  8
0
 10
3955.9636481033039672
 20
67.0545453863377219
 30
0.0
 11
3955.9815208474101382
 21
67.0584124562130484
 31
0.0
  0
LINE
  5
92C1
  8
0
 10
3955.9815208474101382
 20
67.0584124562130484
 30
0.0
 11
3955.9810259528198912
 21
67.0552878734708031
 31
0.0
  0
LINE
  5
92C2
  8
0
 10
3955.9810259528198912
 20
67.0552878734708031
 30
0.0
 11
3955.9626736134518978
 21
67.0483926993607611
 31
0.0
  0
LINE
  5
92C3
  8
0
 10
3955.9626736134518978
 20
67.0483926993607611
 30
0.0
 11
3955.9448256206019323
 21
67.0446817855593338
 31
0.0
  0
LINE
  5
92C4
  8
0
 10
3955.9464873363058359
 20
67.0551732787849488
 30
0.0
 11
3955.9473050983201574
 21
67.0603363661740559
 31
0.0
  0
LINE
  5
92C5
  8
0
 10
3955.9473050983201574
 20
67.0603363661740559
 30
0.0
 11
3955.9640529729567788
 21
67.0675453003959916
 31
0.0
  0
LINE
  5
92C6
  8
0
 10
3955.9464873363058359
 20
67.0551732787849488
 30
0.0
 11
3955.9641913195819143
 21
67.057974952448717
 31
0.0
  0
LINE
  5
92C7
  8
0
 10
3955.9641913195819143
 20
67.057974952448717
 30
0.0
 11
3955.9803899950220512
 21
67.064957770299344
 31
0.0
  0
LINE
  5
92C8
  8
0
 10
3955.9738565271568405
 20
67.050017255097373
 30
0.0
 11
3955.9741540435388742
 21
67.0518956452981456
 31
0.0
  0
LINE
  5
92C9
  8
0
 10
3955.9741540435388742
 20
67.0518956452981456
 30
0.0
 11
3955.9926113223718858
 21
67.059453376012442
 31
0.0
  0
LINE
  5
92CA
  8
0
 10
3955.9926113223718858
 20
67.059453376012442
 30
0.0
 11
3956.0006733957038705
 21
67.061745195234181
 31
0.0
  0
LINE
  5
92CB
  8
0
 10
3955.9738565271568405
 20
67.050017255097373
 30
0.0
 11
3955.9919486173098448
 21
67.0552693389117707
 31
0.0
  0
LINE
  5
92CC
  8
0
 10
3955.9919486173098448
 20
67.0552693389117707
 30
0.0
 11
3956.0061659315028919
 21
67.0608752630255935
 31
0.0
  0
ARC
  5
92CD
  8
0
 10
3955.7988557710709756
 20
67.6125978806206405
 30
0.0
 40
0.5912817097165018
 50
231.6340160932444974
 51
255.9868610694146867
  0
LINE
  5
92CE
  8
0
 10
3955.6251445414309273
 20
67.0474549418131005
 30
0.0
 11
3955.6254310294521019
 21
67.0492638236762275
 31
0.0
  0
LINE
  5
92CF
  8
0
 10
3955.6254310294521019
 20
67.0492638236762275
 30
0.0
 11
3955.6246268539280209
 21
67.0495520595433732
 31
0.0
  0
LINE
  5
92D0
  8
0
 10
3955.6246268539280209
 20
67.0495520595433732
 30
0.0
 11
3955.6080982069711354
 21
67.0541712344105036
 31
0.0
  0
LINE
  5
92D1
  8
0
 10
3955.6080982069711354
 20
67.0541712344105036
 30
0.0
 11
3955.607912034722176
 21
67.0529957453546643
 31
0.0
  0
LINE
  5
92D2
  8
0
 10
3955.6256895593292029
 20
67.0508961266846342
 30
0.0
 11
3955.626556937253099
 21
67.056372507819006
 31
0.0
  0
LINE
  5
92D3
  8
0
 10
3955.626556937253099
 20
67.056372507819006
 30
0.0
 11
3955.6257604093648297
 21
67.056709145665522
 31
0.0
  0
LINE
  5
92D4
  8
0
 10
3955.6257604093648297
 20
67.056709145665522
 30
0.0
 11
3955.6090863094468659
 21
67.0604098726367965
 31
0.0
  0
LINE
  5
92D5
  8
0
 10
3955.6090863094468659
 20
67.0604098726367965
 30
0.0
 11
3955.6086396670311842
 21
67.0575898975324947
 31
0.0
  0
LINE
  5
92D6
  8
0
 10
3955.6086396670311842
 20
67.0575898975324947
 30
0.0
 11
3955.6248709278120259
 21
67.0510932081598838
 31
0.0
  0
LINE
  5
92D7
  8
0
 10
3955.6248709278120259
 20
67.0510932081598838
 30
0.0
 11
3955.6256895593292029
 21
67.0508961266846342
 31
0.0
  0
LINE
  5
92D8
  8
0
 10
3955.6270812931347791
 20
67.0596831266653766
 30
0.0
 11
3955.6285545268960959
 21
67.068984631354553
 31
0.0
  0
LINE
  5
92D9
  8
0
 10
3955.6285545268960959
 20
67.068984631354553
 30
0.0
 11
3955.6277662394099934
 21
67.0693732955567299
 31
0.0
  0
LINE
  5
92DA
  8
0
 10
3955.6277662394099934
 20
67.0693732955567299
 30
0.0
 11
3955.6109433424421695
 21
67.072134579434362
 31
0.0
  0
LINE
  5
92DB
  8
0
 10
3955.6109433424421695
 20
67.072134579434362
 30
0.0
 11
3955.6101846045557977
 21
67.0673441623906115
 31
0.0
  0
LINE
  5
92DC
  8
0
 10
3955.6101846045557977
 20
67.0673441623906115
 30
0.0
 11
3955.6262554473128148
 21
67.0598346593972821
 31
0.0
  0
LINE
  5
92DD
  8
0
 10
3955.6262554473128148
 20
67.0598346593972821
 30
0.0
 11
3955.6270844961090916
 21
67.0597033491719969
 31
0.0
  0
LINE
  5
92DE
  8
0
 10
3955.6293602528021438
 20
67.0740717041567507
 30
0.0
 11
3955.6314851230599743
 21
67.087487373564997
 31
0.0
  0
LINE
  5
92DF
  8
0
 10
3955.6314851230599743
 20
67.087487373564997
 30
0.0
 11
3955.6307060183607973
 21
67.08793389548687
 31
0.0
  0
LINE
  5
92E0
  8
0
 10
3955.6307060183607973
 20
67.08793389548687
 30
0.0
 11
3955.6137260948112271
 21
67.0897038962436341
 31
0.0
  0
LINE
  5
92E1
  8
0
 10
3955.6137260948112271
 20
67.0897038962436341
 30
0.0
 11
3955.6126314714529144
 21
67.0827928376391469
 31
0.0
  0
LINE
  5
92E2
  8
0
 10
3955.6126314714529144
 20
67.0827928376391469
 30
0.0
 11
3955.6285269222280476
 21
67.0741759814728766
 31
0.0
  0
LINE
  5
92E3
  8
0
 10
3955.6285269222280476
 20
67.0741759814728766
 30
0.0
 11
3955.6293602528021438
 21
67.0740717041567507
 31
0.0
  0
LINE
  5
92E4
  8
0
 10
3955.632598611260164
 20
67.0945175299009975
 30
0.0
 11
3955.6354497650618214
 21
67.1125186338059194
 31
0.0
  0
LINE
  5
92E5
  8
0
 10
3955.6354497650618214
 20
67.1125186338059194
 30
0.0
 11
3955.6346812124620556
 21
67.1130317979319386
 31
0.0
  0
LINE
  5
92E6
  8
0
 10
3955.6346812124620556
 20
67.1130317979319386
 30
0.0
 11
3955.6175294370441406
 21
67.1137167971132271
 31
0.0
  0
LINE
  5
92E7
  8
0
 10
3955.6175294370441406
 20
67.1137167971132271
 30
0.0
 11
3955.6160601108199444
 21
67.1044400186072494
 31
0.0
  0
LINE
  5
92E8
  8
0
 10
3955.6160601108199444
 20
67.1044400186072494
 30
0.0
 11
3955.631757256183846
 21
67.0945711442205805
 31
0.0
  0
LINE
  5
92E9
  8
0
 10
3955.631757256183846
 20
67.0945711442205805
 30
0.0
 11
3955.632598611260164
 21
67.0945175299009975
 31
0.0
  0
LINE
  5
92EA
  8
0
 10
3955.6660094738767839
 20
67.1041280830418003
 30
0.0
 11
3955.6479168590858535
 21
67.10699374613354
 31
0.0
  0
LINE
  5
92EB
  8
0
 10
3955.6479168590858535
 20
67.10699374613354
 30
0.0
 11
3955.6449487064210189
 21
67.1088767434623747
 31
0.0
  0
LINE
  5
92EC
  8
0
 10
3955.6449487064210189
 20
67.1088767434623747
 30
0.0
 11
3955.6463717584051665
 21
67.1178613574140286
 31
0.0
  0
LINE
  5
92ED
  8
0
 10
3955.6479168590699373
 20
67.1069937461362116
 30
0.0
 11
3955.6495582255870431
 21
67.1173566574774725
 31
0.0
  0
LINE
  5
92EE
  8
0
 10
3955.6202201196911119
 20
67.0907102588158608
 30
0.0
 11
3955.6214933638589173
 21
67.0987490559536894
 31
0.0
  0
LINE
  5
92EF
  8
0
 10
3955.6214933638589173
 20
67.0987490559536894
 30
0.0
 11
3955.6058612249439648
 21
67.1090282360256651
 31
0.0
  0
LINE
  5
92F0
  8
0
 10
3955.6058612249439648
 20
67.1090282360256651
 30
0.0
 11
3955.5889362130610607
 21
67.111144926423421
 31
0.0
  0
LINE
  5
92F1
  8
0
 10
3955.5889362130610607
 20
67.111144926423421
 30
0.0
 11
3955.5876459721898755
 21
67.1029988190326634
 31
0.0
  0
LINE
  5
92F2
  8
0
 10
3955.5876459721898755
 20
67.1029988190326634
 30
0.0
 11
3955.6032976667770527
 21
67.0928429872602692
 31
0.0
  0
LINE
  5
92F3
  8
0
 10
3955.6032976667770527
 20
67.0928429872602692
 30
0.0
 11
3955.6202201196911119
 21
67.0907102588158608
 31
0.0
  0
LINE
  5
92F4
  8
0
 10
3955.6182218818721594
 20
67.0780941017047496
 30
0.0
 11
3955.6023874505931417
 21
67.0870960913475329
 31
0.0
  0
LINE
  5
92F5
  8
0
 10
3955.6023874505931417
 20
67.0870960913475329
 30
0.0
 11
3955.5856220831469727
 21
67.090220710857281
 31
0.0
  0
LINE
  5
92F6
  8
0
 10
3955.5856220831469727
 20
67.090220710857281
 30
0.0
 11
3955.5846895648028294
 21
67.0843331159553031
 31
0.0
  0
LINE
  5
92F7
  8
0
 10
3955.5846895648028294
 20
67.0843331159553031
 30
0.0
 11
3955.6005338468471564
 21
67.0753932022179669
 31
0.0
  0
LINE
  5
92F8
  8
0
 10
3955.6005338468471564
 20
67.0753932022179669
 30
0.0
 11
3955.6173007871611844
 21
67.0722786306805148
 31
0.0
  0
LINE
  5
92F9
  8
0
 10
3955.6173007871611844
 20
67.0722786306805148
 30
0.0
 11
3955.6182218818721594
 21
67.0780941017047496
 31
0.0
  0
LINE
  5
92FA
  8
0
 10
3955.6153162708337732
 20
67.0597490467177124
 30
0.0
 11
3955.6159156120797888
 21
67.0635330988299359
 31
0.0
  0
LINE
  5
92FB
  8
0
 10
3955.6159156120797888
 20
67.0635330988299359
 30
0.0
 11
3955.5999030557568403
 21
67.0714105987414513
 31
0.0
  0
LINE
  5
92FC
  8
0
 10
3955.5999030557568403
 20
67.0714105987414513
 30
0.0
 11
3955.5832876626468533
 21
67.0754819762931334
 31
0.0
  0
LINE
  5
92FD
  8
0
 10
3955.5832876626468533
 20
67.0754819762931334
 30
0.0
 11
3955.5826812467148557
 21
67.071653257358463
 31
0.0
  0
LINE
  5
92FE
  8
0
 10
3955.5826812467148557
 20
67.071653257358463
 30
0.0
 11
3955.5986973401359137
 21
67.0637980897202794
 31
0.0
  0
LINE
  5
92FF
  8
0
 10
3955.5986973401359137
 20
67.0637980897202794
 30
0.0
 11
3955.6153162708337732
 21
67.0597490467177124
 31
0.0
  0
LINE
  5
9300
  8
0
 10
3955.6142053344960914
 20
67.0527348861563013
 30
0.0
 11
3955.6145008311477795
 21
67.0546005888499366
 31
0.0
  0
LINE
  5
9301
  8
0
 10
3955.6145008311477795
 20
67.0546005888499366
 30
0.0
 11
3955.5983260816278744
 21
67.0614539501821696
 31
0.0
  0
LINE
  5
9302
  8
0
 10
3955.5983260816278744
 20
67.0614539501821696
 30
0.0
 11
3955.5818563341949812
 21
67.0664449922975905
 31
0.0
  0
LINE
  5
9303
  8
0
 10
3955.5818563341949812
 20
67.0664449922975905
 30
0.0
 11
3955.5815574474959249
 21
67.0645578861308707
 31
0.0
  0
LINE
  5
9304
  8
0
 10
3955.5815574474959249
 20
67.0645578861308707
 30
0.0
 11
3955.5977317075407882
 21
67.0577013168468596
 31
0.0
  0
LINE
  5
9305
  8
0
 10
3955.5977317075407882
 20
67.0577013168468596
 30
0.0
 11
3955.6142053344960914
 21
67.0527348861563013
 31
0.0
  0
LINE
  5
9306
  8
0
 10
3955.5879768645509102
 20
67.0650932638895654
 30
0.0
 11
3955.588426780168902
 21
67.0679339043295499
 31
0.0
  0
LINE
  5
9307
  8
0
 10
3955.588426780168902
 20
67.0679339043295499
 30
0.0
 11
3955.5724698560579782
 21
67.0761626428876951
 31
0.0
  0
LINE
  5
9308
  8
0
 10
3955.5724698560579782
 20
67.0761626428876951
 30
0.0
 11
3955.5560628267830907
 21
67.0815495435278137
 31
0.0
  0
LINE
  5
9309
  8
0
 10
3955.5560628267830907
 20
67.0815495435278137
 30
0.0
 11
3955.5556174045559601
 21
67.0787372739094394
 31
0.0
  0
LINE
  5
930A
  8
0
 10
3955.5556174045559601
 20
67.0787372739094394
 30
0.0
 11
3955.5715634091570791
 21
67.0704395926039183
 31
0.0
  0
LINE
  5
930B
  8
0
 10
3955.5715634091570791
 20
67.0704395926039183
 30
0.0
 11
3955.5879768645509102
 21
67.0650932638895654
 31
0.0
  0
LINE
  5
930C
  8
0
 10
3955.589533265504997
 20
67.074919904379243
 30
0.0
 11
3955.5902977822761386
 21
67.0797468067937217
 31
0.0
  0
LINE
  5
930D
  8
0
 10
3955.5902977822761386
 20
67.0797468067937217
 30
0.0
 11
3955.5745152581580442
 21
67.0890765168152399
 31
0.0
  0
LINE
  5
930E
  8
0
 10
3955.5745152581580442
 20
67.0890765168152399
 30
0.0
 11
3955.5579623665421423
 21
67.0935426208488508
 31
0.0
  0
LINE
  5
930F
  8
0
 10
3955.5579623665421423
 20
67.0935426208488508
 30
0.0
 11
3955.5571860390850816
 21
67.0886411506058522
 31
0.0
  0
LINE
  5
9310
  8
0
 10
3955.5571860390850816
 20
67.0886411506058522
 30
0.0
 11
3955.5729744862110238
 21
67.0793487184697312
 31
0.0
  0
LINE
  5
9311
  8
0
 10
3955.5729744862110238
 20
67.0793487184697312
 30
0.0
 11
3955.589533265504997
 21
67.074919904379243
 31
0.0
  0
LINE
  5
9312
  8
0
 10
3955.59199913766588
 20
67.0904885705665208
 30
0.0
 11
3955.5931026206530987
 21
67.0974555658930427
 31
0.0
  0
LINE
  5
9313
  8
0
 10
3955.5931026206530987
 20
67.0974555658930427
 30
0.0
 11
3955.5775164655738081
 21
67.1080250689866205
 31
0.0
  0
LINE
  5
9314
  8
0
 10
3955.5775164655738081
 20
67.1080250689866205
 30
0.0
 11
3955.5608124102418515
 21
67.1115367874633222
 31
0.0
  0
LINE
  5
9315
  8
0
 10
3955.5608124102418515
 20
67.1115367874633222
 30
0.0
 11
3955.5596907804638249
 21
67.1044552213355701
 31
0.0
  0
LINE
  5
9316
  8
0
 10
3955.5596907804638249
 20
67.1044552213355701
 30
0.0
 11
3955.575291413028026
 21
67.093977005360145
 31
0.0
  0
LINE
  5
9317
  8
0
 10
3955.575291413028026
 20
67.093977005360145
 30
0.0
 11
3955.59199913766588
 21
67.0904885705665208
 31
0.0
  0
LINE
  5
9318
  8
0
 10
3955.5954563193240574
 20
67.1123159560162037
 30
0.0
 11
3955.5969386228362055
 21
67.1216746674248128
 31
0.0
  0
LINE
  5
9319
  8
0
 10
3955.5969386228362055
 20
67.1216746674248128
 30
0.0
 11
3955.5902495013187945
 21
67.1267504806867095
 31
0.0
  0
LINE
  5
931A
  8
0
 10
3955.5954563193240574
 20
67.1123159560162037
 30
0.0
 11
3955.5785907551721721
 21
67.1148078568419777
 31
0.0
  0
LINE
  5
931B
  8
0
 10
3955.5785907551721721
 20
67.1148078568419777
 30
0.0
 11
3955.5632064861738399
 21
67.1266521031878085
 31
0.0
  0
LINE
  5
931C
  8
0
 10
3955.5632064861738399
 20
67.1266521031878085
 30
0.0
 11
3955.5638835057688993
 21
67.1309265526556089
 31
0.0
  0
LINE
  5
931D
  8
0
 10
3955.5685156297449794
 20
67.1201775647471663
 30
0.0
 11
3955.5672114471408349
 21
67.1119434346360464
 31
0.0
  0
LINE
  5
931E
  8
0
 10
3955.5672114471408349
 20
67.1119434346360464
 30
0.0
 11
3955.5505672984381818
 21
67.1158332615305255
 31
0.0
  0
LINE
  5
931F
  8
0
 10
3955.5505672984381818
 20
67.1158332615305255
 30
0.0
 11
3955.5352340144859227
 21
67.1279994066936041
 31
0.0
  0
LINE
  5
9320
  8
0
 10
3955.5352340144859227
 20
67.1279994066936041
 30
0.0
 11
3955.5363874251561356
 21
67.1352816171661146
 31
0.0
  0
LINE
  5
9321
  8
0
 10
3955.5685156297449794
 20
67.1201775647471663
 30
0.0
 11
3955.5528243681669665
 21
67.1326781934938168
 31
0.0
  0
LINE
  5
9322
  8
0
 10
3955.5642246817401428
 20
67.0930860636086948
 30
0.0
 11
3955.5651665464260986
 21
67.0990326674782125
 31
0.0
  0
LINE
  5
9323
  8
0
 10
3955.5651665464260986
 20
67.0990326674782125
 30
0.0
 11
3955.5496324524010561
 21
67.1099309810399234
 31
0.0
  0
LINE
  5
9324
  8
0
 10
3955.5496324524010561
 20
67.1099309810399234
 30
0.0
 11
3955.5331474164809151
 21
67.1148253799987486
 31
0.0
  0
LINE
  5
9325
  8
0
 10
3955.5331474164809151
 20
67.1148253799987486
 30
0.0
 11
3955.5321870339471388
 21
67.1087618622618578
 31
0.0
  0
LINE
  5
9326
  8
0
 10
3955.5321870339471388
 20
67.1087618622618578
 30
0.0
 11
3955.5477303856578146
 21
67.0979219976568544
 31
0.0
  0
LINE
  5
9327
  8
0
 10
3955.5477303856578146
 20
67.0979219976568544
 30
0.0
 11
3955.5642246817401428
 21
67.0930860636086948
 31
0.0
  0
LINE
  5
9328
  8
0
 10
3955.5621969113640262
 20
67.0802833916700934
 30
0.0
 11
3955.5628091062571912
 21
67.0841485962067452
 31
0.0
  0
LINE
  5
9329
  8
0
 10
3955.5628091062571912
 20
67.0841485962067452
 30
0.0
 11
3955.5470835948372041
 21
67.0938382611772823
 31
0.0
  0
LINE
  5
932A
  8
0
 10
3955.5470835948372041
 20
67.0938382611772823
 30
0.0
 11
3955.5305956007368877
 21
67.0991956084039174
 31
0.0
  0
LINE
  5
932B
  8
0
 10
3955.5305956007368877
 20
67.0991956084039174
 30
0.0
 11
3955.5301207807910941
 21
67.0957162252723833
 31
0.0
  0
LINE
  5
932C
  8
0
 10
3955.5301207807910941
 20
67.0957162252723833
 30
0.0
 11
3955.5458478987120543
 21
67.0860365851949467
 31
0.0
  0
LINE
  5
932D
  8
0
 10
3955.5458478987120543
 20
67.0860365851949467
 30
0.0
 11
3955.5621969113640262
 21
67.0802833916700934
 31
0.0
  0
LINE
  5
932E
  8
0
 10
3955.5610626117618267
 20
67.0731217251636167
 30
0.0
 11
3955.5613642651278496
 21
67.0750262987463088
 31
0.0
  0
LINE
  5
932F
  8
0
 10
3955.5613642651278496
 20
67.0750262987463088
 30
0.0
 11
3955.5454675636851789
 21
67.083635258592949
 31
0.0
  0
LINE
  5
9330
  8
0
 10
3955.5454675636851789
 20
67.083635258592949
 30
0.0
 11
3955.5292728558729323
 21
67.0903626694397559
 31
0.0
  0
LINE
  5
9331
  8
0
 10
3955.5292728558729323
 20
67.0903626694397559
 30
0.0
 11
3955.5289657397229348
 21
67.0884236058410579
 31
0.0
  0
LINE
  5
9332
  8
0
 10
3955.5289657397229348
 20
67.0884236058410579
 30
0.0
 11
3955.5448588650251622
 21
67.0797920682569497
 31
0.0
  0
LINE
  5
9333
  8
0
 10
3955.5448588650251622
 20
67.0797920682569497
 30
0.0
 11
3955.5610626117618267
 21
67.0731217251636167
 31
0.0
  0
LINE
  5
9334
  8
0
 10
3955.5352940902330374
 20
67.0883840269928271
 30
0.0
 11
3955.5357446616058041
 21
67.0912288065655247
 31
0.0
  0
LINE
  5
9335
  8
0
 10
3955.5357446616058041
 20
67.0912288065655247
 30
0.0
 11
3955.5200934576077998
 21
67.1013876187864753
 31
0.0
  0
LINE
  5
9336
  8
0
 10
3955.5200934576077998
 20
67.1013876187864753
 30
0.0
 11
3955.5039725206488583
 21
67.1085809066722447
 31
0.0
  0
LINE
  5
9337
  8
0
 10
3955.5039725206488583
 20
67.1085809066722447
 30
0.0
 11
3955.5035004180190299
 21
67.1056001865149341
 31
0.0
  0
LINE
  5
9338
  8
0
 10
3955.5035004180190299
 20
67.1056001865149341
 30
0.0
 11
3955.5191596210520402
 21
67.095491760216774
 31
0.0
  0
LINE
  5
9339
  8
0
 10
3955.5191596210520402
 20
67.095491760216774
 30
0.0
 11
3955.5352940902330374
 21
67.0883840269928271
 31
0.0
  0
LINE
  5
933A
  8
0
 10
3955.5368924025201522
 20
67.0984752781346288
 30
0.0
 11
3955.5376780763208444
 21
67.1034357576219094
 31
0.0
  0
LINE
  5
933B
  8
0
 10
3955.5376780763208444
 20
67.1034357576219094
 30
0.0
 11
3955.5222028041571321
 21
67.1147054473060933
 31
0.0
  0
LINE
  5
933C
  8
0
 10
3955.5222028041571321
 20
67.1147054473060933
 30
0.0
 11
3955.505938431218965
 21
67.1209930220208406
 31
0.0
  0
LINE
  5
933D
  8
0
 10
3955.505938431218965
 20
67.1209930220208406
 30
0.0
 11
3955.5051346087388993
 21
67.1159179595298525
 31
0.0
  0
LINE
  5
933E
  8
0
 10
3955.5051346087388993
 20
67.1159179595298525
 30
0.0
 11
3955.5206135657472259
 21
67.1046715339457762
 31
0.0
  0
LINE
  5
933F
  8
0
 10
3955.5206135657472259
 20
67.1046715339457762
 30
0.0
 11
3955.5368924025201522
 21
67.0984752781346288
 31
0.0
  0
LINE
  5
9340
  8
0
 10
3955.5394279292631836
 20
67.1144837145173625
 30
0.0
 11
3955.5405639574978522
 21
67.1216561873724373
 31
0.0
  0
LINE
  5
9341
  8
0
 10
3955.5405639574978522
 20
67.1216561873724373
 30
0.0
 11
3955.5253038844448383
 21
67.134284437887743
 31
0.0
  0
LINE
  5
9342
  8
0
 10
3955.5253038844448383
 20
67.134284437887743
 30
0.0
 11
3955.5088884227398012
 21
67.1396182175882785
 31
0.0
  0
LINE
  5
9343
  8
0
 10
3955.5088884227398012
 20
67.1396182175882785
 30
0.0
 11
3955.5077299810291152
 21
67.1323042358011435
 31
0.0
  0
LINE
  5
9344
  8
0
 10
3955.5077299810291152
 20
67.1323042358011435
 30
0.0
 11
3955.5230040962019302
 21
67.1197645238116962
 31
0.0
  0
LINE
  5
9345
  8
0
 10
3955.5230040962019302
 20
67.1197645238116962
 30
0.0
 11
3955.5394279292631836
 21
67.1144837145173625
 31
0.0
  0
LINE
  5
9346
  8
0
 10
3955.5121009745071206
 20
67.1199065459920234
 30
0.0
 11
3955.5130757557199104
 21
67.1260609709290463
 31
0.0
  0
LINE
  5
9347
  8
0
 10
3955.5130757557199104
 20
67.1260609709290463
 30
0.0
 11
3955.497876852355148
 21
67.1390754218777062
 31
0.0
  0
LINE
  5
9348
  8
0
 10
3955.497876852355148
 20
67.1390754218777062
 30
0.0
 11
3955.4886293029080662
 21
67.1428459571976219
 31
0.0
  0
LINE
  5
9349
  8
0
 10
3955.5121009745071206
 20
67.1199065459920234
 30
0.0
 11
3955.495900023825925
 21
67.1265945422375694
 31
0.0
  0
LINE
  5
934A
  8
0
 10
3955.495900023825925
 20
67.1265945422375694
 30
0.0
 11
3955.4806942473192066
 21
67.1395657163334079
 31
0.0
  0
LINE
  5
934B
  8
0
 10
3955.4806942473192066
 20
67.1395657163334079
 30
0.0
 11
3955.4813952729259654
 21
67.1439917447622463
 31
0.0
  0
LINE
  5
934C
  8
0
 10
3955.5100048522090219
 20
67.106672327729683
 30
0.0
 11
3955.5106373313801669
 21
67.1106655993826138
 31
0.0
  0
LINE
  5
934D
  8
0
 10
3955.5106373313801669
 20
67.1106655993826138
 30
0.0
 11
3955.4952286103689403
 21
67.1223553481482469
 31
0.0
  0
LINE
  5
934E
  8
0
 10
3955.4952286103689403
 20
67.1223553481482469
 30
0.0
 11
3955.4791902281422153
 21
67.1300698524251658
 31
0.0
  0
LINE
  5
934F
  8
0
 10
3955.4791902281422153
 20
67.1300698524251658
 30
0.0
 11
3955.4785407485151154
 21
67.1259692470337228
 31
0.0
  0
LINE
  5
9350
  8
0
 10
3955.4785407485151154
 20
67.1259692470337228
 30
0.0
 11
3955.4939469449232092
 21
67.1142634411882995
 31
0.0
  0
LINE
  5
9351
  8
0
 10
3955.4939469449232092
 20
67.1142634411882995
 30
0.0
 11
3955.5100048522090219
 21
67.106672327729683
 31
0.0
  0
LINE
  5
9352
  8
0
 10
3955.5088337417660114
 20
67.0992782530499312
 30
0.0
 11
3955.5091450882559911
 21
67.1012440253035152
 31
0.0
  0
LINE
  5
9353
  8
0
 10
3955.5091450882559911
 20
67.1012440253035152
 30
0.0
 11
3955.493552735600133
 21
67.1117745172233811
 31
0.0
  0
LINE
  5
9354
  8
0
 10
3955.493552735600133
 20
67.1117745172233811
 30
0.0
 11
3955.4776582919598695
 21
67.1203976719976225
 31
0.0
  0
LINE
  5
9355
  8
0
 10
3955.4776582919598695
 20
67.1203976719976225
 30
0.0
 11
3955.4773388434950903
 21
67.1183807478654302
 31
0.0
  0
LINE
  5
9356
  8
0
 10
3955.4773388434950903
 20
67.1183807478654302
 30
0.0
 11
3955.4929220935719059
 21
67.1077927858804912
 31
0.0
  0
LINE
  5
9357
  8
0
 10
3955.4929220935719059
 20
67.1077927858804912
 30
0.0
 11
3955.5088337417660114
 21
67.0992782530499312
 31
0.0
  0
LINE
  5
9358
  8
0
 10
3955.4828013332821683
 20
67.1128743044313865
 30
0.0
 11
3955.4829903494010068
 21
67.1140677435270447
 31
0.0
  0
LINE
  5
9359
  8
0
 10
3955.4829903494010068
 20
67.1140677435270447
 30
0.0
 11
3955.4674769365860811
 21
67.1250965116421838
 31
0.0
  0
LINE
  5
935A
  8
0
 10
3955.4674769365860811
 20
67.1250965116421838
 30
0.0
 11
3955.4518214648001049
 21
67.1352285539703502
 31
0.0
  0
LINE
  5
935B
  8
0
 10
3955.4518214648001049
 20
67.1352285539703502
 30
0.0
 11
3955.4516283367729557
 21
67.1340091541378285
 31
0.0
  0
LINE
  5
935C
  8
0
 10
3955.4835716875891194
 20
67.1177381808860218
 30
0.0
 11
3955.4840516277208735
 21
67.1207683841773246
 31
0.0
  0
LINE
  5
935D
  8
0
 10
3955.4840516277208735
 20
67.1207683841773246
 30
0.0
 11
3955.468718524040014
 21
67.132935549296505
 31
0.0
  0
LINE
  5
935E
  8
0
 10
3955.468718524040014
 20
67.132935549296505
 30
0.0
 11
3955.4529155615459786
 21
67.1421363964176265
 31
0.0
  0
LINE
  5
935F
  8
0
 10
3955.4529155615459786
 20
67.1421363964176265
 30
0.0
 11
3955.4524206725582189
 21
67.139011812787956
 31
0.0
  0
LINE
  5
9360
  8
0
 10
3955.4524206725582189
 20
67.139011812787956
 30
0.0
 11
3955.4677440094228587
 21
67.1267828662419817
 31
0.0
  0
LINE
  5
9361
  8
0
 10
3955.4677440094228587
 20
67.1267828662419817
 30
0.0
 11
3955.4835716875800244
 21
67.1177381808323332
 31
0.0
  0
LINE
  5
9362
  8
0
 10
3955.4852333938601987
 20
67.1282296755505712
 30
0.0
 11
3955.486051158445207
 21
67.1333927625324236
 31
0.0
  0
LINE
  5
9363
  8
0
 10
3955.486051158445207
 20
67.1333927625324236
 30
0.0
 11
3955.472350714633194
 21
67.1454242992922161
 31
0.0
  0
LINE
  5
9364
  8
0
 10
3955.4852333938601987
 20
67.1282296755505712
 30
0.0
 11
3955.4692617026407788
 21
67.1363651213748938
 31
0.0
  0
LINE
  5
9365
  8
0
 10
3955.4692617026407788
 20
67.1363651213748938
 30
0.0
 11
3955.4574159827998301
 21
67.146779102392486
 31
0.0
  0
LINE
  5
9366
  8
0
 10
3955.4576104618831778
 20
67.1317836616310899
 30
0.0
 11
3955.4579079690238359
 21
67.1336620532954527
 31
0.0
  0
LINE
  5
9367
  8
0
 10
3955.4579079690238359
 20
67.1336620532954527
 30
0.0
 11
3955.4426895727087867
 21
67.1465535562740286
 31
0.0
  0
LINE
  5
9368
  8
0
 10
3955.4426895727087867
 20
67.1465535562740286
 30
0.0
 11
3955.4403299782898102
 21
67.1481372962336707
 31
0.0
  0
LINE
  5
9369
  8
0
 10
3955.4576104618831778
 20
67.1317836616310899
 30
0.0
 11
3955.442026887306838
 21
67.1423695160594605
 31
0.0
  0
LINE
  5
936A
  8
0
 10
3955.442026887306838
 20
67.1423695160594605
 30
0.0
 11
3955.4343104354647949
 21
67.1487349202360093
 31
0.0
  0
LINE
  5
936B
  8
0
 10
3956.2988205809288047
 20
67.2294312265681384
 30
0.0
 11
3958.4619204760338107
 21
67.2294312265681384
 31
0.0
  0
LINE
  5
936C
  8
0
 10
3956.2988205809288047
 20
68.2428375833865459
 30
0.0
 11
3958.4639096418841291
 21
68.2428375833865459
 31
0.0
  0
LINE
  5
936D
  8
0
 10
3956.2198205809290812
 20
68.1638375833865382
 30
0.0
 11
3956.2198205809290812
 21
67.3084312265681461
 31
0.0
  0
ARC
  5
936E
  8
0
 10
3956.2988205809288047
 20
68.1638375833865382
 30
0.0
 40
0.079
 50
90.0
 51
179.9999999999974989
  0
ARC
  5
936F
  8
0
 10
3956.2988205809288047
 20
67.3084312265681461
 30
0.0
 40
0.079
 50
180.0000000000015916
 51
270.0
  0
ARC
  5
9370
  8
0
 10
3959.5687813236759212
 20
67.7268013651072778
 30
0.0
 40
0.9356456894963526
 50
228.741493146697195
 51
270.0419082359210847
  0
ARC
  5
9371
  8
0
 10
3959.5673506273888052
 20
67.760106947437265
 30
0.0
 40
0.9689533299558076
 50
270.1250671299259238
 51
298.9598055823652771
  0
ARC
  5
9372
  8
0
 10
3959.5847388020988546
 20
67.7281213487529072
 30
0.0
 40
0.932547979968143
 50
298.976599998410677
 51
351.7465877235820813
  0
ARC
  5
9373
  8
0
 10
3958.6272438166888605
 20
66.6535050980799184
 30
0.0
 40
0.4921
 50
48.7414937466870128
 51
90.0
  0
ARC
  5
9374
  8
0
 10
3958.5313271549798628
 20
66.6312382519107587
 30
0.0
 40
0.5749662888147381
 50
43.0099439751279178
 51
73.3140011933623725
  0
ARC
  5
9375
  8
0
 10
3958.722034557925781
 20
67.2674637861840239
 30
0.0
 40
0.0892266379764516
 50
232.6868747497578909
 51
253.3139710229025923
  0
ARC
  5
9376
  8
0
 10
3958.428514904479016
 20
66.3595176107318991
 30
0.0
 40
0.8705547835880965
 50
74.0358964323823159
 51
87.800864085240562
  0
ARC
  5
9377
  8
0
 10
3959.5687813334538987
 20
67.7453887550481824
 30
0.0
 40
0.9356457154931431
 50
89.9580923640499606
 51
131.2585062533401015
  0
ARC
  5
9378
  8
0
 10
3959.5673506135990465
 20
67.7120831455612517
 30
0.0
 40
0.9689533831466615
 50
61.0401952262146281
 51
89.874932061504083
  0
ARC
  5
9379
  8
0
 10
3959.5847388020988546
 20
67.7440687974064844
 30
0.0
 40
0.932547979968143
 50
8.2618620779651302
 51
61.0234000015892235
  0
ARC
  5
937A
  8
0
 10
3958.5313271549798628
 20
68.8409518942486471
 30
0.0
 40
0.5749662888147381
 50
286.685998806637599
 51
316.9900560248721035
  0
ARC
  5
937B
  8
0
 10
3958.722034557925781
 20
68.2047263599753819
 30
0.0
 40
0.0892266379764516
 50
106.6860289770973935
 51
127.3131252502419954
  0
ARC
  5
937C
  8
0
 10
3958.428514904479016
 20
69.1126725354274924
 30
0.0
 40
0.8705547835880965
 50
272.3301557189080881
 51
285.9641035676175989
  0
LINE
  5
937D
  8
0
 10
3957.6110361406717857
 20
67.0620011556768247
 30
0.0
 11
3957.6110361406717857
 21
66.6761713191471159
 31
0.0
  0
LINE
  5
937E
  8
0
 10
3957.1484369998279362
 20
66.6761713191471159
 30
0.0
 11
3957.1484369998279362
 21
66.5550528649916942
 31
0.0
  0
LINE
  5
937F
  8
0
 10
3957.1293263552820463
 20
67.0619975147710221
 30
0.0
 11
3958.0927459260619798
 21
67.0620047965826132
 31
0.0
  0
LINE
  5
9380
  8
0
 10
3957.1293263552820463
 20
66.6761713191471159
 30
0.0
 11
3958.0927459260619798
 21
66.6761713191471159
 31
0.0
  0
LINE
  5
9381
  8
0
 10
3957.1293263552820463
 20
66.6761713191471159
 30
0.0
 11
3957.1293263552820463
 21
67.0619975147710221
 31
0.0
  0
LINE
  5
9382
  8
0
 10
3957.1484369998279362
 20
66.5550528649916942
 30
0.0
 11
3958.0736352815169994
 21
66.5550528649916942
 31
0.0
  0
LINE
  5
9383
  8
0
 10
3957.3157622522107886
 20
66.4849021732005383
 30
0.0
 11
3957.3157622522107886
 21
66.0186910264055484
 31
0.0
  0
ARC
  5
9384
  8
0
 10
3957.6110409411958244
 20
67.4238381879140576
 30
0.0
 40
0.9842714787572671
 50
241.965944420866208
 51
252.5425649701805071
  0
LINE
  5
9385
  8
0
 10
3958.0736352815169994
 20
67.1456050980802104
 30
0.0
 11
3958.0736352815169994
 21
67.0619976592149669
 31
0.0
  0
LINE
  5
9386
  8
0
 10
3958.0736352815169994
 20
66.6761713191471159
 30
0.0
 11
3958.0736352815169994
 21
66.5550528649916942
 31
0.0
  0
LINE
  5
9387
  8
0
 10
3957.906310029134147
 20
66.4849021732005383
 30
0.0
 11
3957.906310029134147
 21
66.0186933937919065
 31
0.0
  0
ARC
  5
9388
  8
0
 10
3957.6110313401491112
 20
67.4238381879140576
 30
0.0
 40
0.9842714787572671
 50
287.4574350298195213
 51
298.0340555791336783
  0
LINE
  5
9389
  8
0
 10
3958.0927459260619798
 20
66.6761713191471159
 30
0.0
 11
3958.0927459260619798
 21
67.0620047965826132
 31
0.0
  0
LINE
  5
938A
  8
0
 10
3957.906310029134147
 20
66.0186933937919065
 30
0.0
 11
3957.3157622522107886
 21
66.0186910264055484
 31
0.0
  0
LINE
  5
938B
  8
0
 10
3957.1303658049391743
 20
66.6761713191471159
 30
0.0
 11
3957.1303658049391743
 21
67.0619975226274931
 31
0.0
  0
LINE
  5
938C
  8
0
 10
3957.1328139665470189
 20
66.6761713191471159
 30
0.0
 11
3957.1328139665470189
 21
67.0619975411314329
 31
0.0
  0
LINE
  5
938D
  8
0
 10
3957.1373916030529472
 20
66.6761713191471159
 30
0.0
 11
3957.1373916030529472
 21
67.0619975757305724
 31
0.0
  0
LINE
  5
938E
  8
0
 10
3957.1438385054361788
 20
66.6761713191471159
 30
0.0
 11
3957.1438385054361788
 21
67.0619976244581721
 31
0.0
  0
LINE
  5
938F
  8
0
 10
3957.1521292426277796
 20
66.6761713191471159
 30
0.0
 11
3957.1521292426277796
 21
67.0619976871220302
 31
0.0
  0
LINE
  5
9390
  8
0
 10
3957.1622310682978423
 20
66.6761713191471159
 30
0.0
 11
3957.1622310682978423
 21
67.0619977634746363
 31
0.0
  0
LINE
  5
9391
  8
0
 10
3957.1741041114578366
 20
66.6761713191471159
 30
0.0
 11
3957.1741041114578366
 21
67.0619978532146206
 31
0.0
  0
LINE
  5
9392
  8
0
 10
3957.1877015364889303
 20
66.6761713191471159
 30
0.0
 11
3957.1877015364889303
 21
67.0619979559880051
 31
0.0
  0
LINE
  5
9393
  8
0
 10
3957.2029696859940486
 20
66.6761713191471159
 30
0.0
 11
3957.2029696859940486
 21
67.0619980713892261
 31
0.0
  0
LINE
  5
9394
  8
0
 10
3957.219848275539789
 20
66.6761713191471159
 30
0.0
 11
3957.219848275539789
 21
67.0619981989626126
 31
0.0
  0
LINE
  5
9395
  8
0
 10
3957.2382707039269008
 20
66.6761713191471159
 30
0.0
 11
3957.2382707039269008
 21
67.0619983382048162
 31
0.0
  0
LINE
  5
9396
  8
0
 10
3957.2581642748200466
 20
66.6761713191471159
 30
0.0
 11
3957.2581642748200466
 21
67.0619984885663314
 31
0.0
  0
LINE
  5
9397
  8
0
 10
3957.2794504619851068
 20
66.6761713191471159
 30
0.0
 11
3957.2794504619851068
 21
67.0619986494536704
 31
0.0
  0
LINE
  5
9398
  8
0
 10
3957.3020452815649151
 20
66.6761713191471159
 30
0.0
 11
3957.3020452815649151
 21
67.0619988202320343
 31
0.0
  0
LINE
  5
9399
  8
0
 10
3957.3258595371489719
 20
66.6761713191471159
 30
0.0
 11
3957.3258595371489719
 21
67.0619990002272601
 31
0.0
  0
LINE
  5
939A
  8
0
 10
3957.3507995378158739
 20
66.6761713191471159
 30
0.0
 11
3957.3507979911109942
 21
67.0619991887195113
 31
0.0
  0
LINE
  5
939B
  8
0
 10
3957.3767660619719209
 20
66.6761713191471159
 30
0.0
 11
3957.3767660619719209
 21
67.0619993849939107
 31
0.0
  0
LINE
  5
939C
  8
0
 10
3957.4036573519160811
 20
66.6761713191471159
 30
0.0
 11
3957.4036573519160811
 21
67.0619995882462661
 31
0.0
  0
LINE
  5
939D
  8
0
 10
3957.4313670784231363
 20
66.6761713191471159
 30
0.0
 11
3957.4313670784231363
 21
67.0619997976846207
 31
0.0
  0
LINE
  5
939E
  8
0
 10
3957.4597862309178709
 20
66.6761713191471159
 30
0.0
 11
3957.4597846842248146
 21
67.0620000124733338
 31
0.0
  0
LINE
  5
939F
  8
0
 10
3957.4888016192021496
 20
66.6761713191471159
 30
0.0
 11
3957.4888016192021496
 21
67.0620002317919557
 31
0.0
  0
LINE
  5
93A0
  8
0
 10
3957.5182997907058962
 20
66.6761713191471159
 30
0.0
 11
3957.5182997907058962
 21
67.0620004547479027
 31
0.0
  0
LINE
  5
93A1
  8
0
 10
3957.5481639364711555
 20
66.6761713191471159
 30
0.0
 11
3957.5481639364711555
 21
67.0620006804700068
 31
0.0
  0
LINE
  5
93A2
  8
0
 10
3957.5782762150979579
 20
66.6761713191471159
 30
0.0
 11
3957.5782762150979579
 21
67.0620009080675601
 31
0.0
  0
LINE
  5
93A3
  8
0
 10
3957.6387693683018369
 20
66.6761713191471159
 30
0.0
 11
3957.6387693683018369
 21
67.0620013652928009
 31
0.0
  0
LINE
  5
93A4
  8
0
 10
3957.6689113994211766
 20
66.6761713191471159
 30
0.0
 11
3957.6689113994211766
 21
67.0620015931152267
 31
0.0
  0
LINE
  5
93A5
  8
0
 10
3957.6988250688918924
 20
66.6761713191471159
 30
0.0
 11
3957.6988250688918924
 21
67.0620018192116447
 31
0.0
  0
LINE
  5
93A6
  8
0
 10
3957.7283922537289982
 20
66.6761713191471159
 30
0.0
 11
3957.7283922537289982
 21
67.0620020426892154
 31
0.0
  0
LINE
  5
93A7
  8
0
 10
3957.7612421105218345
 20
66.6761713191471159
 30
0.0
 11
3957.7612405637960364
 21
67.0620022909665039
 31
0.0
  0
LINE
  5
93A8
  8
0
 10
3957.7896843224948498
 20
66.6761713191471159
 30
0.0
 11
3957.7896843224948498
 21
67.0620025059529041
 31
0.0
  0
LINE
  5
93A9
  8
0
 10
3957.8174217081500501
 20
66.6761713191471159
 30
0.0
 11
3957.8174217081500501
 21
67.0620027156003005
 31
0.0
  0
LINE
  5
93AA
  8
0
 10
3957.8443447508329882
 20
66.6761713191471159
 30
0.0
 11
3957.8443447508329882
 21
67.062002919092663
 31
0.0
  0
LINE
  5
93AB
  8
0
 10
3957.8710942121369953
 20
66.6761713191471159
 30
0.0
 11
3957.8710942121369953
 21
67.062003121273051
 31
0.0
  0
LINE
  5
93AC
  8
0
 10
3957.8953258572350933
 20
66.6761713191471159
 30
0.0
 11
3957.8953258572350933
 21
67.0620033044230297
 31
0.0
  0
LINE
  5
93AD
  8
0
 10
3957.9191827802019361
 20
66.6761713191471159
 30
0.0
 11
3957.9191827802019361
 21
67.0620034847407425
 31
0.0
  0
LINE
  5
93AE
  8
0
 10
3957.9418236144788352
 20
66.6761713191471159
 30
0.0
 11
3957.9418236144788352
 21
67.0620036558669028
 31
0.0
  0
LINE
  5
93AF
  8
0
 10
3957.9631589464538592
 20
66.6761713191471159
 30
0.0
 11
3957.9631589464538592
 21
67.0620038171256851
 31
0.0
  0
LINE
  5
93B0
  8
0
 10
3957.9831046143599451
 20
66.6761713191471159
 30
0.0
 11
3957.9831046143599451
 21
67.062003967880969
 31
0.0
  0
LINE
  5
93B1
  8
0
 10
3958.0015819186191948
 20
66.6761713191471159
 30
0.0
 11
3958.0015819186191948
 21
67.0620041075379305
 31
0.0
  0
LINE
  5
93B2
  8
0
 10
3958.0185178979018019
 20
66.6761713191471159
 30
0.0
 11
3958.0185178979018019
 21
67.0620042355451034
 31
0.0
  0
LINE
  5
93B3
  8
0
 10
3958.0338457252441913
 20
66.6761713191471159
 30
0.0
 11
3958.0338457252441913
 21
67.0620043513973769
 31
0.0
  0
LINE
  5
93B4
  8
0
 10
3958.0475049469860096
 20
66.6761713191471159
 30
0.0
 11
3958.0475049469860096
 21
67.0620044546378438
 31
0.0
  0
LINE
  5
93B5
  8
0
 10
3958.0594416146141157
 20
66.6761713191471159
 30
0.0
 11
3958.0594416146141157
 21
67.0620045448587234
 31
0.0
  0
LINE
  5
93B6
  8
0
 10
3958.0696086572947934
 20
66.6761713191471159
 30
0.0
 11
3958.0696086572947934
 21
67.0620046217042471
 31
0.0
  0
LINE
  5
93B7
  8
0
 10
3958.0779658766327884
 20
66.6761713191471159
 30
0.0
 11
3958.0779658766327884
 21
67.0620046848706011
 31
0.0
  0
LINE
  5
93B8
  8
0
 10
3958.0844808811239091
 20
66.6761713191471159
 30
0.0
 11
3958.0844793343972015
 21
67.0620047341012508
 31
0.0
  0
LINE
  5
93B9
  8
0
 10
3958.0891263894400254
 20
66.6761713191471159
 30
0.0
 11
3958.0891263894400254
 21
67.0620047692250694
 31
0.0
  0
LINE
  5
93BA
  8
0
 10
3957.148444105991075
 20
67.0619976592686697
 30
0.0
 11
3957.148444105991075
 21
67.1456050980802104
 31
0.0
  0
LINE
  5
93BB
  8
0
 10
3957.3354566924099345
 20
68.6409776467526456
 30
0.0
 11
3957.3354566924099345
 21
69.208610792513042
 31
0.0
  0
LINE
  5
93BC
  8
0
 10
3957.8866377948102127
 20
69.2083994318289513
 30
0.0
 11
3957.8866377948102127
 21
68.6411890076054334
 31
0.0
  0
LINE
  5
93BD
  8
0
 10
3957.3472856167768441
 20
68.629166616312844
 30
0.0
 11
3957.8748107617670939
 21
68.629166616312844
 31
0.0
  0
ARC
  5
93BE
  8
0
 10
3957.3472677363852199
 20
68.6409776467526456
 30
0.0
 40
0.0118110439749732
 50
180.0000409407512052
 51
270.0867384269657236
  0
LINE
  5
93BF
  8
0
 10
3957.532307086109995
 20
68.3267173083908972
 30
0.0
 11
3957.532307086109995
 21
68.412631181613051
 31
0.0
  0
LINE
  5
93C0
  8
0
 10
3957.6897874011101521
 20
68.3267173083908972
 30
0.0
 11
3957.6897874011101521
 21
68.412631181613051
 31
0.0
  0
LINE
  5
93C1
  8
0
 10
3957.4141968499097857
 20
68.412631181613051
 30
0.0
 11
3957.8078976373108162
 21
68.412631181613051
 31
0.0
  0
LINE
  5
93C2
  8
0
 10
3957.8078976373108162
 20
68.412631181613051
 30
0.0
 11
3957.8078976373108162
 21
68.6094261515962529
 31
0.0
  0
LINE
  5
93C3
  8
0
 10
3957.4141968499097857
 20
68.412631181613051
 30
0.0
 11
3957.4141968499097857
 21
68.6094151804304744
 31
0.0
  0
ARC
  5
93C4
  8
0
 10
3957.3472677160111743
 20
69.208610792513042
 30
0.0
 40
0.0118110235999973
 50
94.8222749457971474
 51
180.0000000000171099
  0
LINE
  5
93C5
  8
0
 10
3957.875821558620828
 20
69.2203800081130538
 30
0.0
 11
3957.3462748204269701
 21
69.2203800081130396
 31
0.0
  0
ARC
  5
93C6
  8
0
 10
3957.3943962932280556
 20
68.6094483777046946
 30
0.0
 40
0.0198005845118725
 50
359.9039389674205722
 51
84.7727863602493841
  0
ARC
  5
93C7
  8
0
 10
3957.8748286421591729
 20
68.6409776467526456
 30
0.0
 40
0.0118110439749732
 50
269.9132615730342764
 51
1.02537348017931
  0
ARC
  5
93C8
  8
0
 10
3957.8748286625341279
 20
69.208610792513042
 30
0.0
 40
0.0118110235999973
 50
358.9746255693053172
 51
85.1777250542028384
  0
ARC
  5
93C9
  8
0
 10
3957.8277017978621188
 20
68.6094449345109183
 30
0.0
 40
0.0198041694575463
 50
95.2312400743182366
 51
180.0543396247850012
  0
ARC
  5
93CA
  8
0
 10
3958.6309903172427767
 20
68.8091902057623201
 30
0.0
 40
0.4825039703048175
 50
270.6502504214790861
 51
311.6675973737188201
  0
LINE
  5
93CB
  8
0
 10
3960.5008085915101219
 20
67.5885166185845634
 30
0.0
 11
3960.5008085915101219
 21
67.883792209041502
 31
0.0
  0
ARC
  5
93CC
  8
0
 10
3960.3824522923109726
 20
67.7361544138130398
 30
0.0
 40
0.1892224408999943
 50
308.7179883573405164
 51
51.2820116426594907
  0
ARC
  5
93CD
  8
0
 10
3959.5735798723098924
 20
67.7361534213131193
 30
0.0
 40
0.9351564003002629
 50
334.893730852342685
 51
352.534208180515293
  0
ARC
  5
93CE
  8
0
 10
3959.5546983858362182
 20
67.7450006753091998
 30
0.0
 40
0.9560078854937575
 50
279.5544596436096185
 51
334.893730852342685
  0
ARC
  5
93CF
  8
0
 10
3959.5735798723098924
 20
67.7360367248462865
 30
0.0
 40
0.9351564003002629
 50
7.4657918194847523
 51
25.1062691476573185
  0
ARC
  5
93D0
  8
0
 10
3959.5546983858362182
 20
67.7271894708501918
 30
0.0
 40
0.9560078854937575
 50
25.1062691476573185
 51
80.5732926734520163
  0
ARC
  5
93D1
  8
0
 10
3958.9495758011757971
 20
67.734223478534247
 30
0.0
 40
1.54180112357326
 50
354.7507881714374207
 51
5.3922229201085639
  0
ARC
  5
93D2
  8
0
 10
3960.3564302078520996
 20
67.6362801510460372
 30
0.0
 40
0.1355212367404308
 50
341.4503592325547174
 51
350.6426394464000964
  0
ARC
  5
93D3
  8
0
 10
3960.4067646014291313
 20
67.8474032545937717
 30
0.0
 40
0.0840036002174884
 50
7.3405873496351663
 51
22.1765690048047617
  0
LINE
  5
93D4
  8
0
 10
3960.4863701712661168
 20
67.8583756783189358
 30
0.0
 11
3960.5008085915101219
 21
67.8574434219950149
 31
0.0
  0
LINE
  5
93D5
  8
0
 10
3960.5008085915101219
 20
67.6148042128130555
 30
0.0
 11
3960.4866875220800466
 21
67.614064158839227
 31
0.0
  0
LINE
  5
93D6
  8
0
 10
3960.4911299296468314
 20
67.7066268547130505
 30
0.0
 11
3960.5008085915101219
 21
67.7066268547130505
 31
0.0
  0
LINE
  5
93D7
  8
0
 10
3960.4910559560239562
 20
67.7656819728130415
 30
0.0
 11
3960.5008085915101219
 21
67.7656819728130415
 31
0.0
  0
LINE
  5
93D8
  8
0
 10
3962.9535638783099785
 20
66.3308507819130426
 30
0.0
 11
3962.9535638783099785
 21
68.7127405457130465
 31
0.0
  0
LINE
  5
93D9
  8
0
 10
3962.3816670825867732
 20
66.3408332775634477
 30
0.0
 11
3962.9535638783099785
 21
66.3308507819130426
 31
0.0
  0
LINE
  5
93DA
  8
0
 10
3962.3236426184112133
 20
66.3998794012630498
 30
0.0
 11
3962.3236426184112133
 21
68.6437119262630517
 31
0.0
  0
ARC
  5
93DB
  8
0
 10
3962.3826977365110906
 20
66.3998794012630498
 30
0.0
 40
0.059055118099997
 50
179.9999999999959073
 51
268.999999999893987
  0
LINE
  5
93DC
  8
0
 10
3962.2640897219948783
 20
66.7641519545464348
 30
0.0
 11
3961.7134063979101484
 21
66.773764167663046
 31
0.0
  0
ARC
  5
93DD
  8
0
 10
3962.2645492872638897
 20
66.7050531241472555
 30
0.0
 40
0.0591006172107849
 50
0.899689401008295
 51
90.4455353760533569
  0
LINE
  5
93DE
  8
0
 10
3961.7134063979101484
 20
66.773764167663046
 30
0.0
 11
3961.7134063979101484
 21
68.2698271598630413
 31
0.0
  0
LINE
  5
93DF
  8
0
 10
3961.1228703822011994
 20
66.8820318842630428
 30
0.0
 11
3961.7134063979101484
 21
66.8820318842630428
 31
0.0
  0
LINE
  5
93E0
  8
0
 10
3961.1031703822018244
 20
66.9017318842630431
 30
0.0
 11
3961.1228703822011994
 21
66.8820318842630428
 31
0.0
  0
LINE
  5
93E1
  8
0
 10
3961.1031703822018244
 20
66.9017318842630431
 30
0.0
 11
3961.1031703822018244
 21
68.14185944326303
 31
0.0
  0
LINE
  5
93E2
  8
0
 10
3961.0362406013728105
 20
67.1005358212630512
 30
0.0
 11
3961.1031703822018244
 21
67.1005358212630512
 31
0.0
  0
LINE
  5
93E3
  8
0
 10
3962.3816670825867732
 20
68.7027580499626396
 30
0.0
 11
3962.9535638783099785
 21
68.7127405457130465
 31
0.0
  0
ARC
  5
93E4
  8
0
 10
3962.3826977365110906
 20
68.6437119262630517
 30
0.0
 40
0.059055118099997
 50
90.999999999871477
 51
180.0000000000032117
  0
LINE
  5
93E5
  8
0
 10
3962.2640897219948783
 20
68.2794393729796525
 30
0.0
 11
3961.7134063979101484
 21
68.2698271598630413
 31
0.0
  0
ARC
  5
93E6
  8
0
 10
3962.2645492872638897
 20
68.3385382033788318
 30
0.0
 40
0.0591006172107849
 50
269.5544646239466147
 51
359.1003105989909159
  0
LINE
  5
93E7
  8
0
 10
3961.1228703822011994
 20
68.1615594432630303
 30
0.0
 11
3961.7134063979101484
 21
68.1615594432630445
 31
0.0
  0
LINE
  5
93E8
  8
0
 10
3961.1031703822018244
 20
68.14185944326303
 30
0.0
 11
3961.1228703822011994
 21
68.1615594432630303
 31
0.0
  0
LINE
  5
93E9
  8
0
 10
3961.0362406013728105
 20
67.9430555062630503
 30
0.0
 11
3961.1031703822018244
 21
67.9430555062630503
 31
0.0
  0
LINE
  5
93EA
  8
0
 10
3961.5165560079990428
 20
67.2757338738587691
 30
0.0
 11
3961.1228551222111491
 21
67.2757338738587691
 31
0.0
  0
LINE
  5
93EB
  8
0
 10
3961.5165560079990428
 20
67.7678588871607559
 30
0.0
 11
3961.122859196716945
 21
67.7678588871607559
 31
0.0
  0
ARC
  5
93EC
  8
0
 10
3961.9199436430558308
 20
67.582985121074671
 30
0.0
 40
0.8542560734233129
 50
197.0357240647120136
 51
201.0800003683885109
  0
ARC
  5
93ED
  8
0
 10
3961.9053896732070825
 20
67.4656357742143058
 30
0.0
 40
0.8388639678961665
 50
158.8828609186888912
 51
163.0022635927911949
  0
LINE
  5
93EE
  8
0
 10
3961.1228555404109102
 20
67.2757338738587691
 30
0.0
 11
3961.1228555404109102
 21
66.8820467260539147
 31
0.0
  0
LINE
  5
93EF
  8
0
 10
3961.1228555404109102
 20
67.7678494199074208
 30
0.0
 11
3961.1228555404109102
 21
68.1615446014721726
 31
0.0
  0
LINE
  5
93F0
  8
0
 10
3961.0559267017101774
 20
68.2263329434130412
 30
0.0
 11
3961.0559267017101774
 21
67.9430555062630503
 31
0.0
  0
LINE
  5
93F1
  8
0
 10
3961.0559267017101774
 20
67.1005358212630512
 30
0.0
 11
3961.0559267017101774
 21
66.7911559258959642
 31
0.0
  0
LINE
  5
93F2
  8
0
 10
3961.0362406013728105
 20
68.2263329434130412
 30
0.0
 11
3961.0362406013728105
 21
66.7912699205400315
 31
0.0
  0
LINE
  5
93F3
  8
0
 10
3960.957501503020012
 20
68.2263329434130412
 30
0.0
 11
3961.0559267017101774
 21
68.2263329434130412
 31
0.0
  0
ARC
  5
93F4
  8
0
 10
3961.0079669500078126
 20
71.6990991678599556
 30
0.0
 40
3.4731328812758022
 50
265.0585274000076765
 51
269.1674493960596806
  0
ARC
  5
93F5
  8
0
 10
3960.8265708697440459
 20
69.6010508901477465
 30
0.0
 40
1.367257501879757
 50
253.8042991463184137
 51
265.0585274000076765
  0
ARC
  5
93F6
  8
0
 10
3960.5871806889699656
 20
68.7768336505594817
 30
0.0
 40
0.5089791573518468
 50
230.1971441625042019
 51
253.8042991463184137
  0
ARC
  5
93F7
  8
0
 10
3960.8040898331428252
 20
67.5217963805097554
 30
0.0
 40
0.7537604443669446
 50
340.9467623555132718
 51
19.0532376444865186
  0
LINE
  5
93F8
  8
0
 10
3956.1630018671730795
 20
76.7897401304413449
 30
0.0
 11
3955.6361207640538851
 21
76.3629856369914393
 31
0.0
  0
ARC
  5
93F9
  8
0
 10
3948.4217488050257998
 20
68.2606724367027056
 30
0.0
 40
11.7261151859510306
 50
2.182095068567611
 51
8.8633418339923669
  0
ARC
  5
93FA
  8
0
 10
3948.2039356956979645
 20
68.2267065751793353
 30
0.0
 40
11.9465607128826594
 50
8.8633418339923669
 51
17.7522938779726793
  0
ARC
  5
93FB
  8
0
 10
3948.5733110632882017
 20
68.3449608662403989
 30
0.0
 40
11.5587176524348791
 50
17.7522938779726793
 51
23.2533040927759984
  0
ARC
  5
93FC
  8
0
 10
3948.0526649129978978
 20
68.121238059890203
 30
0.0
 40
12.1253959632022799
 50
23.2533040927759984
 51
29.0832237890470005
  0
ARC
  5
93FD
  8
0
 10
3948.7095570088999921
 20
68.4866076275869204
 30
0.0
 40
11.3737297163494908
 50
29.0832237890470005
 51
32.5622864265908731
  0
ARC
  5
93FE
  8
0
 10
3948.1566033756707839
 20
68.1334916398319166
 30
0.0
 40
12.02981555014712
 50
32.5622864265908731
 51
37.4562990401666767
  0
ARC
  5
93FF
  8
0
 10
3953.0717799485200885
 20
71.8990864906248817
 30
0.0
 40
5.8379930944714911
 50
37.4562990401666767
 51
46.9740845466771688
  0
ARC
  5
9400
  8
0
 10
3952.9963704840029095
 20
71.8182930372016415
 30
0.0
 40
5.9485108281379171
 50
46.9740845466771688
 51
56.7758146363251086
  0
ARC
  5
9401
  8
0
 10
3956.2125360125392035
 20
76.728584113215959
 30
0.0
 40
0.0787
 50
56.7758146363245473
 51
129.0062117870801899
  0
ARC
  5
9402
  8
0
 10
3962.8426491492159585
 20
78.9509518391624283
 30
0.0
 40
7.7390196817274397
 50
200.6123990027988953
 51
204.743148073371998
  0
ARC
  5
9403
  8
0
 10
3962.9786703169797875
 20
79.0136387338055783
 30
0.0
 40
7.8887908566570548
 50
204.743148073371998
 51
208.1611183861820109
  0
ARC
  5
9404
  8
0
 10
3962.9786703169797875
 20
79.0136387338055783
 30
0.0
 40
7.8887908566570548
 50
209.4789953400334923
 51
210.8360753657468933
  0
ARC
  5
9405
  8
0
 10
3962.9786703169797875
 20
79.0136387338055783
 30
0.0
 40
7.8887908566570548
 50
213.6953772885071885
 51
215.0728486846527119
  0
ARC
  5
9406
  8
0
 10
3962.9786703169797875
 20
79.0136387338055783
 30
0.0
 40
7.8887908566570548
 50
217.9392145148435134
 51
219.1708375620204947
  0
ARC
  5
9407
  8
0
 10
3962.9786703169797875
 20
79.0136387338055783
 30
0.0
 40
7.8887908566570548
 50
220.4918037458388085
 51
226.233936225635091
  0
ARC
  5
9408
  8
0
 10
3962.7859469306968094
 20
78.8124302198058331
 30
0.0
 40
7.6101743285643817
 50
226.233936225635091
 51
227.451728177006288
  0
ARC
  5
9409
  8
0
 10
3955.7122157853341378
 20
76.2690369396273837
 30
0.0
 40
0.1209
 50
129.0062117870810994
 51
200.6123990028009985
  0
ARC
  5
940A
  8
0
 10
3938.5218375087110871
 20
68.0550880215249379
 30
0.0
 40
20.5975538983081599
 50
1.8064998953842031
 51
4.9192602985324454
  0
ARC
  5
940B
  8
0
 10
3939.8778707374231089
 20
68.1718002797918956
 30
0.0
 40
19.2365072905097882
 50
4.9192602985324454
 51
10.4779044237166392
  0
ARC
  5
940C
  8
0
 10
3938.239013196668111
 20
67.868709661550966
 30
0.0
 40
20.9031560122727491
 50
10.4779044237166392
 51
13.2457511977812299
  0
ARC
  5
940D
  8
0
 10
3957.7511221140848647
 20
72.4600988729534805
 30
0.0
 40
0.8581269025079961
 50
13.3481416080797306
 51
69.989020714128614
  0
LINE
  5
940E
  8
0
 10
3956.0755301852591401
 20
75.1379248511326807
 30
0.0
 11
3956.0180183790689625
 21
75.2221898193547673
 31
0.0
  0
LINE
  5
940F
  8
0
 10
3956.0099094108200006
 20
75.2810814581380896
 30
0.0
 11
3956.0261993252970569
 21
75.292192055864362
 31
0.0
  0
ARC
  5
9410
  8
0
 10
3956.8005847399931554
 20
75.7344380628874063
 30
0.0
 40
0.9298992477668251
 50
211.0718828569679033
 51
217.7185357695688026
  0
ARC
  5
9411
  8
0
 10
3956.0796192252341825
 20
75.1823828992118024
 30
0.0
 40
0.022294488615021
 50
229.060763804125088
 51
253.3113763265679097
  0
ARC
  5
9412
  8
0
 10
3956.8093478940008936
 20
75.6926929625966238
 30
0.0
 40
0.907873887875732
 50
211.0255762719932022
 51
217.6184725153547106
  0
LINE
  5
9413
  8
0
 10
3956.0371675480250815
 20
75.2513188454251178
 30
0.0
 11
3956.0534970086569047
 21
75.2624564157122506
 31
0.0
  0
LINE
  5
9414
  8
0
 10
3956.1170675835069233
 20
75.1342546466143659
 30
0.0
 11
3956.1227250339279635
 21
75.1381133320390404
 31
0.0
  0
ARC
  5
9415
  8
0
 10
3956.1059108837612257
 20
75.1506121540891883
 30
0.0
 40
0.0198
 50
217.6184725150600059
 51
304.2960907901123164
  0
ARC
  5
9416
  8
0
 10
3956.0210661105938925
 20
75.2647239506821961
 30
0.0
 40
0.0198
 50
124.2960908874691057
 51
211.0718828571586982
  0
ARC
  5
9417
  8
0
 10
3956.04832424776896
 20
75.2349613379490734
 30
0.0
 40
0.0198
 50
124.2960907839315041
 51
211.0255762722551083
  0
LINE
  5
9418
  8
0
 10
3959.1485346459930952
 20
68.6662503996130482
 30
0.0
 11
3959.4031107672999497
 21
68.6662503996130482
 31
0.0
  0
LINE
  5
9419
  8
0
 10
3959.735978932711987
 20
68.6662503996130482
 30
0.0
 11
3960.0999895308400482
 21
68.6662503996130482
 31
0.0
  0
ARC
  5
941A
  8
0
 10
3959.1485346459930952
 20
68.7056503996130488
 30
0.0
 40
0.0394
 50
181.8064998953825011
 51
270.0
  0
ARC
  5
941B
  8
0
 10
3960.0999895308400482
 20
68.7056503996130488
 30
0.0
 40
0.0394
 50
270.0
 51
2.182095068567611
  0
LINE
  5
941C
  8
0
 10
3960.0606848262459607
 20
68.6587064510977143
 30
0.0
 11
3960.0565629750522021
 21
68.5484491084278318
 31
0.0
  0
LINE
  5
941D
  8
0
 10
3959.1552481767598692
 20
68.6587064510977143
 30
0.0
 11
3959.1579650693752228
 21
68.5860211967778071
 31
0.0
  0
ARC
  5
941E
  8
0
 10
3956.0436956708731486
 20
75.2365733200744558
 30
0.0
 40
0.0294314187129796
 50
177.251351434676593
 51
209.2559896452953865
  0
ARC
  5
941F
  8
0
 10
3956.0917713553258181
 20
75.152352822867357
 30
0.0
 40
0.0217242254970949
 50
221.6165396789612885
 51
290.1739627547032114
  0
ARC
  5
9420
  8
0
 10
3955.3904616321838148
 20
74.8118685011002214
 30
0.0
 40
0.8016516570486698
 50
24.014374875835621
 51
34.1993815610166578
  0
ARC
  5
9421
  8
0
 10
3955.3985015518919681
 20
74.9006900469647547
 30
0.0
 40
0.7397826151714213
 50
28.8508203342804315
 51
31.95224395100389
  0
ARC
  5
9422
  8
0
 10
3957.6183998044789405
 20
75.6146794631368948
 30
0.0
 40
1.552600692586342
 50
210.920807680469693
 51
218.9100840536833914
  0
ARC
  5
9423
  8
0
 10
3956.4204477900179882
 20
74.6543274039403855
 30
0.0
 40
0.0179915687564699
 50
235.5514329960454063
 51
306.3004511854277894
  0
ARC
  5
9424
  8
0
 10
3955.7407246590341856
 20
74.3411492443504329
 30
0.0
 40
0.7522138540484982
 50
23.3948696409124501
 51
30.2656633297431199
  0
ARC
  5
9425
  8
0
 10
3955.7407246590341856
 20
74.3411492443504329
 30
0.0
 40
0.7522138540484982
 50
38.6113494495722804
 51
42.0693374466807626
  0
ARC
  5
9426
  8
0
 10
3956.3045051971371322
 20
74.8249787914179905
 30
0.0
 40
0.0197853554573741
 50
123.915968622771004
 51
204.1908667937931909
  0
ARC
  5
9427
  8
0
 10
3956.6420873098841184
 20
74.3229059331108743
 30
0.0
 40
0.6247967916269707
 50
123.2934878164663957
 51
123.915968622771004
  0
ARC
  5
9428
  8
0
 10
3957.9098443428310929
 20
75.9768454864891254
 30
0.0
 40
2.0045348405178451
 50
211.014111287995604
 51
217.0873861344992974
  0
ARC
  5
9429
  8
0
 10
3956.3266983949679343
 20
74.7824661387486458
 30
0.0
 40
0.0214687462181482
 50
222.1966625744244084
 51
254.7847809736342128
  0
ARC
  5
942A
  8
0
 10
3956.212589369158195
 20
74.9492110523342348
 30
0.0
 40
0.0213351844189662
 50
127.2465203501633937
 51
194.2730760090690865
  0
ARC
  5
942B
  8
0
 10
3956.2520517906050372
 20
74.8973087918754885
 30
0.0
 40
0.0865358542562175
 50
121.345661708849704
 51
127.2465203501642037
  0
ARC
  5
942C
  8
0
 10
3954.4338954094919245
 20
73.7354434150740161
 30
0.0
 40
2.1612858685618952
 50
30.7344873793533004
 51
34.8741472991521704
  0
ARC
  5
942D
  8
0
 10
3956.2886749245290048
 20
74.8249272094817854
 30
0.0
 40
0.0212084472794033
 50
173.3095266611722138
 51
208.8957308796533141
  0
ARC
  5
942E
  8
0
 10
3957.9013848357058123
 20
75.8136530175454197
 30
0.0
 40
1.9128556886541279
 50
211.4827789508948115
 51
217.8507525554227016
  0
ARC
  5
942F
  8
0
 10
3956.403076245308057
 20
74.6579681057155113
 30
0.0
 40
0.0217382942833571
 50
236.1622603953640009
 51
295.1153285818314771
  0
ARC
  5
9430
  8
0
 10
3956.4322014223598671
 20
74.6259525518948124
 30
0.0
 40
0.0192598617724146
 50
148.0656867044214948
 51
208.9961144144101013
  0
ARC
  5
9431
  8
0
 10
3956.9058760603102201
 20
74.8884726998718264
 30
0.0
 40
0.5608173293887236
 50
208.9961144144095044
 51
220.1619012071359975
  0
ARC
  5
9432
  8
0
 10
3956.4903856050350441
 20
74.5420744237664508
 30
0.0
 40
0.0201426344797926
 50
229.43036581965751
 51
278.4266683776272089
  0
ARC
  5
9433
  8
0
 10
3956.7576273393779047
 20
74.9190957447863468
 30
0.0
 40
0.2809627790767801
 50
193.5612188706926133
 51
229.8628429322671991
  0
ARC
  5
9434
  8
0
 10
3956.587111877022835
 20
74.7168684472138409
 30
0.0
 40
0.0164416971460328
 50
229.8628429322459112
 51
272.0654032932498012
  0
ARC
  5
9435
  8
0
 10
3956.5847124392230398
 20
74.7075543098490584
 30
0.0
 40
0.0077202349012422
 50
292.8023333267931889
 51
16.2091281148706408
  0
ARC
  5
9436
  8
0
 10
3956.3235137719038903
 20
74.6352927722095245
 30
0.0
 40
0.2787296994012957
 50
15.4849239052580803
 51
53.0154969451089428
  0
ARC
  5
9437
  8
0
 10
3956.489818484783882
 20
74.8528083336706231
 30
0.0
 40
0.0053151843175963
 50
74.9651515073486365
 51
176.347160658896712
  0
ARC
  5
9438
  8
0
 10
3956.6431501538609155
 20
74.8477527157669158
 30
0.0
 40
0.1295500682841153
 50
189.7434917848893861
 51
236.7768901546066047
  0
ARC
  5
9439
  8
0
 10
3956.4495865692688312
 20
74.7207976356799577
 30
0.0
 40
0.1239832343833169
 50
8.6191403125550092
 51
57.9012416269412711
  0
ARC
  5
943A
  8
0
 10
3956.7966334083348556
 20
74.946953863758651
 30
0.0
 40
0.3208458446216326
 50
196.1096042649508888
 51
229.8505629739366043
  0
ARC
  5
943B
  8
0
 10
3956.6533426706068894
 20
74.9689702586291276
 30
0.0
 40
0.2809627790767801
 50
193.5612188706926133
 51
229.8628429322671991
  0
ARC
  5
943C
  8
0
 10
3956.4828272082509102
 20
74.7667429610566217
 30
0.0
 40
0.0164416971460328
 50
229.8628429322459112
 51
272.0654032932498012
  0
ARC
  5
943D
  8
0
 10
3956.4804277704520246
 20
74.7574288236918392
 30
0.0
 40
0.0077202349012422
 50
292.8023333267931889
 51
16.2091281148706408
  0
ARC
  5
943E
  8
0
 10
3956.2192291031319655
 20
74.6851672860523053
 30
0.0
 40
0.2787296994012957
 50
15.4849239052580803
 51
53.0154969451089428
  0
ARC
  5
943F
  8
0
 10
3956.3855338160128667
 20
74.9026828475134039
 30
0.0
 40
0.0053151843175963
 50
74.9651515073486365
 51
176.347160658896712
  0
ARC
  5
9440
  8
0
 10
3956.5388654850889907
 20
74.8976272296096965
 30
0.0
 40
0.1295500682841153
 50
189.7434917848893861
 51
236.7768901546066047
  0
ARC
  5
9441
  8
0
 10
3956.345301900497816
 20
74.7706721495227384
 30
0.0
 40
0.1239832343833169
 50
8.6191403125550092
 51
57.9012416269412711
  0
ARC
  5
9442
  8
0
 10
3956.6923487395638404
 20
74.9968283776014317
 30
0.0
 40
0.3208458446216326
 50
196.1096042649508888
 51
229.8505629739366043
  0
ARC
  5
9443
  8
0
 10
3956.5890052629320053
 20
75.1638379265257868
 30
0.0
 40
0.2809627790767801
 50
191.4805715952228979
 51
227.7821956567802033
  0
ARC
  5
9444
  8
0
 10
3956.4112601214810638
 20
74.9679347170665835
 30
0.0
 40
0.0164416971460328
 50
227.7821956567786117
 51
269.9847560177960872
  0
ARC
  5
9445
  8
0
 10
3956.4085241049920114
 20
74.958713834767309
 30
0.0
 40
0.0077202349012422
 50
290.7216860513270831
 51
14.1284808393996997
  0
ARC
  5
9446
  8
0
 10
3956.1448741030421843
 20
74.8959830599943075
 30
0.0
 40
0.2787296994012957
 50
13.4042766297853095
 51
50.9348496696504469
  0
ARC
  5
9447
  8
0
 10
3956.3189663293342164
 20
75.107317330165742
 30
0.0
 40
0.0053151843175963
 50
72.8845042318895082
 51
174.2665133834273092
  0
ARC
  5
9448
  8
0
 10
3956.4720133588730278
 20
75.0966981605283337
 30
0.0
 40
0.1295500682841153
 50
187.6628445094173117
 51
234.6962428791273965
  0
ARC
  5
9449
  8
0
 10
3956.2739681360189934
 20
74.9768543315480827
 30
0.0
 40
0.1239832343833169
 50
6.5384930370872851
 51
55.8205943514592988
  0
ARC
  5
944A
  8
0
 10
3956.6289970371840354
 20
75.1902615182625595
 30
0.0
 40
0.3208458446216326
 50
194.0289569894879094
 51
227.7699156984668889
  0
ARC
  5
944B
  8
0
 10
3956.5183616377680664
 20
75.1652531431267334
 30
0.0
 40
0.2809627790767801
 50
193.5612188706926133
 51
229.8628429322671991
  0
ARC
  5
944C
  8
0
 10
3956.3478461754111777
 20
74.9630258455542133
 30
0.0
 40
0.0164416971460328
 50
229.8628429322459112
 51
272.0654032932498012
  0
ARC
  5
944D
  8
0
 10
3956.3454467376132015
 20
74.9537117081894451
 30
0.0
 40
0.0077202349012422
 50
292.8023333267931889
 51
16.2091281148706408
  0
ARC
  5
944E
  8
0
 10
3956.0842480702917783
 20
74.8814501705499111
 30
0.0
 40
0.2787296994012957
 50
15.4849239052580803
 51
53.0154969451089428
  0
ARC
  5
944F
  8
0
 10
3956.2505527831731342
 20
75.0989657320110098
 30
0.0
 40
0.0053151843175963
 50
74.9651515073486365
 51
176.347160658896712
  0
ARC
  5
9450
  8
0
 10
3956.4038844522501677
 20
75.0939101141073024
 30
0.0
 40
0.1295500682841153
 50
189.7434917848893861
 51
236.7768901546066047
  0
ARC
  5
9451
  8
0
 10
3956.2103208676589929
 20
74.9669550340203443
 30
0.0
 40
0.1239832343833169
 50
8.6191403125550092
 51
57.9012416269412711
  0
ARC
  5
9452
  8
0
 10
3956.5573677067241078
 20
75.1931112620990234
 30
0.0
 40
0.3208458446216326
 50
196.1096042649508888
 51
229.8505629739366043
  0
ARC
  5
9453
  8
0
 10
3956.4275846089958577
 20
75.3893044521531976
 30
0.0
 40
0.2809627790767801
 50
189.4778181622596946
 51
225.7794422238281129
  0
ARC
  5
9454
  8
0
 10
3956.243101711305826
 20
75.1997326629921332
 30
0.0
 40
0.0164416971460328
 50
225.7794422238264076
 51
267.9820025848247838
  0
ARC
  5
9455
  8
0
 10
3956.2400451191128923
 20
75.1906130302821509
 30
0.0
 40
0.0077202349012422
 50
288.7189326183528806
 51
12.1257274064344305
  0
ARC
  5
9456
  8
0
 10
3955.9743638828558687
 20
75.1371344894167237
 30
0.0
 40
0.2787296994012957
 50
11.4015231968268491
 51
48.9320962366914003
  0
ARC
  5
9457
  8
0
 10
3956.1557353741368388
 20
75.3422555735464812
 30
0.0
 40
0.0053151843175963
 50
70.8817507989173237
 51
172.2637599504664934
  0
ARC
  5
9458
  8
0
 10
3956.3083178010169831
 20
75.326294275926216
 30
0.0
 40
0.1295500682841153
 50
185.6600910764568937
 51
232.6934894461662964
  0
ARC
  5
9459
  8
0
 10
3956.1062053092691713
 20
75.2134448438532104
 30
0.0
 40
0.1239832343833169
 50
4.535739604125081
 51
53.8178409184975735
  0
ARC
  5
945A
  8
0
 10
3956.4684753933238426
 20
75.4143142895202629
 30
0.0
 40
0.3208458446216326
 50
192.0262035565237966
 51
225.7671622654910095
  0
ARC
  5
945B
  8
0
 10
3956.3884150199651231
 20
75.3522504931614776
 30
0.0
 40
0.2809627790767801
 50
193.5612188706926133
 51
229.8628429322671991
  0
ARC
  5
945C
  8
0
 10
3956.2178995576100533
 20
75.1500231955889717
 30
0.0
 40
0.0164416971460328
 50
229.8628429322459112
 51
272.0654032932498012
  0
ARC
  5
945D
  8
0
 10
3956.2155001198098034
 20
75.1407090582241892
 30
0.0
 40
0.0077202349012422
 50
292.8023333267931889
 51
16.2091281148706408
  0
ARC
  5
945E
  8
0
 10
3955.9543014524911086
 20
75.0684475205846553
 30
0.0
 40
0.2787296994012957
 50
15.4849239052580803
 51
53.0154969451089428
  0
ARC
  5
945F
  8
0
 10
3956.1206061653720099
 20
75.2859630820457539
 30
0.0
 40
0.0053151843175963
 50
74.9651515073486365
 51
176.347160658896712
  0
ARC
  5
9460
  8
0
 10
3956.2739378344481338
 20
75.2809074641420466
 30
0.0
 40
0.1295500682841153
 50
189.7434917848893861
 51
236.7768901546066047
  0
ARC
  5
9461
  8
0
 10
3956.0803742498560496
 20
75.1539523840550885
 30
0.0
 40
0.1239832343833169
 50
8.6191403125550092
 51
57.9012416269412711
  0
ARC
  5
9462
  8
0
 10
3956.4274210889229835
 20
75.3801086121337818
 30
0.0
 40
0.3208458446216326
 50
196.1096042649508888
 51
229.8505629739366043
  0
ARC
  5
9463
  8
0
 10
3956.286373702048877
 20
75.596170736483316
 30
0.0
 40
0.2809627790767801
 50
188.1963611646507957
 51
224.4979852262221982
  0
ARC
  5
9464
  8
0
 10
3956.0976974019959016
 20
75.4107720941365329
 30
0.0
 40
0.0164416971460328
 50
224.4979852262021893
 51
266.7005455872197786
  0
ARC
  5
9465
  8
0
 10
3956.0944376248048684
 20
75.4017230992050855
 30
0.0
 40
0.0077202349012422
 50
287.4374756207375867
 51
10.8442704088262101
  0
ARC
  5
9466
  8
0
 10
3955.8276268532990798
 20
75.3541995698716391
 30
0.0
 40
0.2787296994012957
 50
10.1200661992142695
 51
47.6506392390815421
  0
ARC
  5
9467
  8
0
 10
3956.0135402661080661
 20
75.5552132011053885
 30
0.0
 40
0.0053151843175963
 50
69.6002938013064636
 51
170.9823029528527911
  0
ARC
  5
9468
  8
0
 10
3956.1657275770971864
 20
75.5358435757033959
 30
0.0
 40
0.1295500682841153
 50
184.3786340788452947
 51
231.4120324485488993
  0
ARC
  5
9469
  8
0
 10
3955.9611418940148724
 20
75.4275423664878844
 30
0.0
 40
0.1239832343833169
 50
3.2542826065146282
 51
52.5363839208824714
  0
ARC
  5
946A
  8
0
 10
3956.3278135740511061
 20
75.620259846401467
 30
0.0
 40
0.3208458446216326
 50
190.7447465589125102
 51
224.4857052678852085
  0
ARC
  5
946B
  8
0
 10
3956.3742887243352016
 20
75.5219071619557099
 30
0.0
 40
0.3644591166048671
 50
192.8900155759615132
 51
222.1074570400610924
  0
ARC
  5
946C
  8
0
 10
3955.7487285532529313
 20
75.1962786845233921
 30
0.0
 40
0.3643471213921498
 50
12.8854251033872202
 51
42.1120475126330973
  0
ARC
  5
946D
  8
0
 10
3956.3411391098829881
 20
75.507467790168306
 30
0.0
 40
0.3158229406220995
 50
196.6216064634045892
 51
218.8036547135876049
  0
ARC
  5
946E
  8
0
 10
3956.5832162195511046
 20
75.6333600229368699
 30
0.0
 40
0.5933576520294666
 50
199.5342215097738858
 51
215.7543619817672038
  0
ARC
  5
946F
  8
0
 10
3956.2876939095940543
 20
75.6422954570253978
 30
0.0
 40
0.3644591166048671
 50
192.8900155759615132
 51
222.1074570400610924
  0
ARC
  5
9470
  8
0
 10
3955.662133738511784
 20
75.3166669795930801
 30
0.0
 40
0.3643471213921498
 50
12.8854251033872202
 51
42.1120475126330973
  0
ARC
  5
9471
  8
0
 10
3956.2545442951418408
 20
75.627856085237994
 30
0.0
 40
0.3158229406220995
 50
196.6216064634045892
 51
218.803654713587207
  0
ARC
  5
9472
  8
0
 10
3956.4966214048099573
 20
75.7537483180065436
 30
0.0
 40
0.5933576520294666
 50
199.5342215097738858
 51
215.7543619817672038
  0
ARC
  5
9473
  8
0
 10
3956.1552027484149221
 20
75.9190748429072642
 30
0.0
 40
0.3644591166048671
 50
189.5251826083332105
 51
218.7426240724375077
  0
ARC
  5
9474
  8
0
 10
3955.5116086895391163
 20
75.6307241530535208
 30
0.0
 40
0.3643471213921498
 50
9.5205921357583492
 51
38.7472145450054271
  0
ARC
  5
9475
  8
0
 10
3956.1212627829268058
 20
75.9066060362810759
 30
0.0
 40
0.3158229406220995
 50
193.2567734957767129
 51
215.4388217459701877
  0
ARC
  5
9476
  8
0
 10
3956.3703116377760125
 20
76.0180728438747906
 30
0.0
 40
0.5933576520294666
 50
196.1693885421454979
 51
212.3895290141425107
  0
ARC
  5
9477
  8
0
 10
3956.2472701820570364
 20
75.8002348054418746
 30
0.0
 40
0.3644591166048671
 50
190.9158316037089094
 51
220.1332730678151108
  0
ARC
  5
9478
  8
0
 10
3955.6108636737080815
 20
75.4963496477090246
 30
0.0
 40
0.3643471213921498
 50
10.9112411311389597
 51
40.1378635403797972
  0
ARC
  5
9479
  8
0
 10
3956.2136428188400714
 20
75.7869459816029405
 30
0.0
 40
0.3158229406220995
 50
194.6474224911565045
 51
216.8294707413425044
  0
ARC
  5
947A
  8
0
 10
3956.4599131295558436
 20
75.9044241300229174
 30
0.0
 40
0.5933576520294666
 50
197.5600375375258011
 51
213.7801780095234108
  0
ARC
  5
947B
  8
0
 10
3956.425397913721099
 20
76.1419555408672011
 30
0.0
 40
0.7220203306738338
 50
195.9734661322731029
 51
211.0944628452693905
  0
ARC
  5
947C
  8
0
 10
3955.1078659075687938
 20
75.568147396454691
 30
0.0
 40
0.7275470762190439
 50
16.0312306015988391
 51
31.0366983759528203
  0
ARC
  5
947D
  8
0
 10
3957.0122044670301875
 20
76.4012743787086492
 30
0.0
 40
1.3556881592449701
 50
200.8319626638441093
 51
206.4257252081964964
  0
ARC
  5
947E
  8
0
 10
3954.1609883247078869
 20
75.200421199972098
 30
0.0
 40
1.7243833793028731
 50
20.1984985574088682
 51
26.5187646771755787
  0
ARC
  5
947F
  8
0
 10
3957.3071324584348076
 20
76.5591832421527272
 30
0.0
 40
1.707904983428709
 50
200.1679772104075141
 51
206.5492860241668893
  0
ARC
  5
9480
  8
0
 10
3956.4793561853957726
 20
75.8426242783737621
 30
0.0
 40
0.6418990497016002
 50
197.6145423546979032
 51
214.1092343831300013
  0
ARC
  5
9481
  8
0
 10
3955.364782924641986
 20
75.3023324757016326
 30
0.0
 40
0.61034872756412
 50
17.1850117361210017
 51
34.5387650017151415
  0
ARC
  5
9482
  8
0
 10
3956.9598583891211092
 20
76.0781243487965071
 30
0.0
 40
1.169121866720217
 50
202.6135133495527896
 51
209.2599939693731983
  0
ARC
  5
9483
  8
0
 10
3954.9350314340858858
 20
75.1629556686956164
 30
0.0
 40
1.040747544446313
 50
20.3691982051208207
 51
30.558791643017841
  0
ARC
  5
9484
  8
0
 10
3956.7241776349669635
 20
76.0149549446868349
 30
0.0
 40
0.9495255616485858
 50
199.8782477032787028
 51
211.049742144869299
  0
ARC
  5
9485
  8
0
 10
3956.3460289322611061
 20
74.8190400454169975
 30
0.0
 40
0.0194719123160867
 50
123.1301211248257061
 51
210.9306784190038968
  0
ARC
  5
9486
  8
0
 10
3957.0718791166927986
 20
75.2539804463515907
 30
0.0
 40
0.8656584417554546
 50
210.9306784190036126
 51
218.0329196428749867
  0
ARC
  5
9487
  8
0
 10
3956.4040646245821335
 20
74.7346524830265366
 30
0.0
 40
0.0198299482869226
 50
224.9777085217399133
 51
304.1238313357047218
  0
ARC
  5
9488
  8
0
 10
3956.3631138239397842
 20
74.7996856237251109
 30
0.0
 40
0.096673356398791
 50
302.5931703388126266
 51
309.4195165949939224
  0
ARC
  5
9489
  8
0
 10
3956.1306954355541166
 20
74.6190368289394996
 30
0.0
 40
0.3123308894371545
 50
19.8328828706053493
 51
45.9988660302354404
  0
ARC
  5
948A
  8
0
 10
3955.9671635604631774
 20
75.3893879119621602
 30
0.0
 40
0.6652444975363924
 50
303.6085276576407068
 51
304.8876821816106144
  0
LINE
  5
948B
  8
0
 10
3956.8547719745320137
 20
73.993892585347794
 30
0.0
 11
3956.9126284089970795
 21
73.9098638657822562
 31
0.0
  0
LINE
  5
948C
  8
0
 10
3956.9646335939642086
 20
73.881063844580467
 30
0.0
 11
3956.9808708834711979
 21
73.8922512091032928
 31
0.0
  0
ARC
  5
948D
  8
0
 10
3957.672609397684937
 20
74.4550585732821304
 30
0.0
 40
0.9298992477668251
 50
211.1440907253274872
 51
217.7907436379202011
  0
ARC
  5
948E
  8
0
 10
3956.8977133485018385
 20
73.9816747013849891
 30
0.0
 40
0.022294488615021
 50
175.5512501683093944
 51
199.8018626907517046
  0
ARC
  5
948F
  8
0
 10
3957.6368330094628618
 20
74.4782856331953838
 30
0.0
 40
0.907873887875732
 50
211.2441539795277947
 51
217.8370502228860062
  0
LINE
  5
9490
  8
0
 10
3956.946702882496993
 20
73.9172205693448916
 30
0.0
 11
3956.9629795903629201
 21
73.9284350928500373
 31
0.0
  0
LINE
  5
9491
  8
0
 10
3956.866327312303838
 20
74.033958780866584
 30
0.0
 11
3956.8719664861791898
 21
74.0378441272451226
 31
0.0
  0
ARC
  5
9492
  8
0
 10
3956.8775610974348638
 20
74.0176541167605535
 30
0.0
 40
0.0198
 50
124.5665357047710984
 51
211.2441539798226131
  0
ARC
  5
9493
  8
0
 10
3956.9533998088600129
 20
73.8973685087055969
 30
0.0
 40
0.0198
 50
217.7907436377236081
 51
304.5665356074151759
  0
ARC
  5
9494
  8
0
 10
3956.9354690973627839
 20
73.9335252334497
 30
0.0
 40
0.0198
 50
217.8370502226254075
 51
304.5665357109656952
  0
ARC
  5
9495
  8
0
 10
3956.9353035336289395
 20
73.9286267848070935
 30
0.0
 40
0.0294314187129796
 50
219.6066368495972085
 51
251.6112750602204073
  0
ARC
  5
9496
  8
0
 10
3956.8740858627020316
 20
74.0038382224455233
 30
0.0
 40
0.0217242254970949
 50
138.6886637401877067
 51
207.2460868159238885
  0
ARC
  5
9497
  8
0
 10
3956.3036138371489869
 20
73.472494106825053
 30
0.0
 40
0.8016516570486698
 50
34.6632449338688673
 51
44.8482516190522489
  0
ARC
  5
9498
  8
0
 10
3956.389358574965172
 20
73.4479635696216633
 30
0.0
 40
0.7397826151714213
 50
36.9103825438774606
 51
40.0118061606110018
  0
ARC
  5
9499
  8
0
 10
3957.8678335302638516
 20
75.2490141030863811
 30
0.0
 40
1.552600692586342
 50
209.9525424412107952
 51
217.9418188144169051
  0
ARC
  5
949A
  8
0
 10
3956.5401075532067807
 20
74.4779701118608131
 30
0.0
 40
0.0179915687564699
 50
122.5621753094506943
 51
193.3111934988450002
  0
ARC
  5
949B
  8
0
 10
3958.3464146016558516
 20
76.1995841598297972
 30
0.0
 40
2.4919459707550891
 50
223.2188079285660081
 51
225.1617957377879975
  0
ARC
  5
949C
  8
0
 10
3956.4662226553818982
 20
74.2138027942956739
 30
0.0
 40
0.2237618502945289
 50
21.5493709535417111
 51
32.3625045219081784
  0
ARC
  5
949D
  8
0
 10
3956.6574677495650576
 20
74.3082905161431029
 30
0.0
 40
0.0197853554573741
 50
224.6717597010992051
 51
304.9466578721297196
  0
ARC
  5
949E
  8
0
 10
3956.3109089944850894
 20
74.8042097305048799
 30
0.0
 40
0.6247967916269707
 50
304.9466578721297196
 51
305.5691386784287147
  0
ARC
  5
949F
  8
0
 10
3958.3107289271201807
 20
75.3902508364421919
 30
0.0
 40
2.0045348405178451
 50
211.7752403603755056
 51
217.8485152068878108
  0
ARC
  5
94A0
  8
0
 10
3956.6258183958548216
 20
74.3443208100182744
 30
0.0
 40
0.0214687462181482
 50
174.0778455212538063
 51
206.6659639204698067
  0
ARC
  5
94A1
  8
0
 10
3956.7401961456721438
 20
74.1777601113985554
 30
0.0
 40
0.0213351844189662
 50
234.5895504858177958
 51
301.6161061447249949
  0
ARC
  5
94A2
  8
0
 10
3956.7060163043020111
 20
74.2332836720839424
 30
0.0
 40
0.0865358542562175
 50
301.6161061447244833
 51
307.5169647860304281
  0
ARC
  5
94A3
  8
0
 10
3954.9666861506248097
 20
72.9564303537658532
 30
0.0
 40
2.1612858685618952
 50
33.9884791957431602
 51
38.1281391155376284
  0
ARC
  5
94A4
  8
0
 10
3956.6517111581179051
 20
74.2935439285235475
 30
0.0
 40
0.0212084472794033
 50
219.9668956152380872
 51
255.5530998337021913
  0
ARC
  5
94A5
  8
0
 10
3958.1554657470192069
 20
75.4412085648613981
 30
0.0
 40
1.9128556886541279
 50
211.0118739394663123
 51
217.3798475439984088
  0
ARC
  5
94A6
  8
0
 10
3956.5372390322659157
 20
74.4604544941837503
 30
0.0
 40
0.0217382942833571
 50
133.7472979130527051
 51
192.7003660995277983
  0
ARC
  5
94A7
  8
0
 10
3956.9176312188510565
 20
74.6856897156785067
 30
0.0
 40
0.2809627790767801
 50
198.9997835626344056
 51
235.3014076241865951
  0
ARC
  5
94A8
  8
0
 10
3956.6675212969298627
 20
74.5995710200201074
 30
0.0
 40
0.0164416971460328
 50
156.7972232016315104
 51
198.9997835626375036
  0
ARC
  5
94A9
  8
0
 10
3956.6579685786100526
 20
74.6006917471527231
 30
0.0
 40
0.0077202349012422
 50
52.6534983800131329
 51
136.0602931681042946
  0
ARC
  5
94AA
  8
0
 10
3956.4963792838539121
 20
74.3831248069885618
 30
0.0
 40
0.2787296994012957
 50
15.8471295497706208
 51
53.3777025896241781
  0
ARC
  5
94AB
  8
0
 10
3956.7592304340200826
 20
74.4598030298464693
 30
0.0
 40
0.0053151843175963
 50
252.5154658359801942
 51
353.8974749875399084
  0
ARC
  5
94AC
  8
0
 10
3956.8098071763538428
 20
74.604641398896689
 30
0.0
 40
0.1295500682841153
 50
192.0857363402901115
 51
239.1191347099992015
  0
ARC
  5
94AD
  8
0
 10
3956.6215937704878343
 20
74.4698817332241845
 30
0.0
 40
0.1239832343833169
 50
10.9613848679569994
 51
60.2434861823260874
  0
ARC
  5
94AE
  8
0
 10
3956.9576807969219772
 20
74.7120256133177065
 30
0.0
 40
0.3208458446216326
 50
199.0120635209563034
 51
232.7530222299376987
  0
ARC
  5
94AF
  8
0
 10
3956.9265444982179361
 20
74.5704364609620853
 30
0.0
 40
0.2809627790767801
 50
198.9997835626344056
 51
235.3014076241865951
  0
ARC
  5
94B0
  8
0
 10
3956.6764345762958328
 20
74.4843177653036719
 30
0.0
 40
0.0164416971460328
 50
156.7972232016315104
 51
198.9997835626375036
  0
ARC
  5
94B1
  8
0
 10
3956.6668818579769322
 20
74.4854384924362876
 30
0.0
 40
0.0077202349012422
 50
52.6534983800131329
 51
136.0602931681042946
  0
ARC
  5
94B2
  8
0
 10
3956.5052925632207916
 20
74.2678715522721404
 30
0.0
 40
0.2787296994012957
 50
15.8471295497706208
 51
53.3777025896241781
  0
ARC
  5
94B3
  8
0
 10
3956.7681437133869622
 20
74.3445497751300479
 30
0.0
 40
0.0053151843175963
 50
252.5154658359801942
 51
353.8974749875399084
  0
ARC
  5
94B4
  8
0
 10
3956.8187204557211771
 20
74.4893881441802677
 30
0.0
 40
0.1295500682841153
 50
192.0857363402901115
 51
239.1191347099992015
  0
ARC
  5
94B5
  8
0
 10
3956.6305070498551686
 20
74.3546284785077489
 30
0.0
 40
0.1239832343833169
 50
10.9613848679569994
 51
60.2434861823260874
  0
ARC
  5
94B6
  8
0
 10
3956.966594076290221
 20
74.5967723586012852
 30
0.0
 40
0.3208458446216326
 50
199.0120635209563034
 51
232.7530222299376987
  0
ARC
  5
94B7
  8
0
 10
3957.085100770353165
 20
74.4401574581086294
 30
0.0
 40
0.2809627790767801
 50
201.0804308381026999
 51
237.3820548996694981
  0
ARC
  5
94B8
  8
0
 10
3956.838282381982026
 20
74.3450150072911384
 30
0.0
 40
0.0164416971460328
 50
158.8778704771019079
 51
201.0804308381057126
  0
ARC
  5
94B9
  8
0
 10
3956.8286952723328795
 20
74.3457881729791836
 30
0.0
 40
0.0077202349012422
 50
54.7341456554815409
 51
138.1409404435594865
  0
ARC
  5
94BA
  8
0
 10
3956.6751115323218073
 20
74.1224979841299358
 30
0.0
 40
0.2787296994012957
 50
17.9277768252418603
 51
55.4583498651011695
  0
ARC
  5
94BB
  8
0
 10
3956.9350054961828391
 20
74.2086687712508848
 30
0.0
 40
0.0053151843175963
 50
254.5961131114607099
 51
355.9781222630094248
  0
ARC
  5
94BC
  8
0
 10
3956.9802903682898432
 20
74.3552478979113118
 30
0.0
 40
0.1295500682841153
 50
194.1663836157603953
 51
241.1997819854595946
  0
ARC
  5
94BD
  8
0
 10
3956.7970936555288972
 20
74.2137437705032283
 30
0.0
 40
0.1239832343833169
 50
13.0420321434222899
 51
62.3241334578058499
  0
ARC
  5
94BE
  8
0
 10
3957.1241677888560844
 20
74.46793003943381
 30
0.0
 40
0.3208458446216326
 50
201.0927107964336074
 51
234.8336695054107111
  0
ARC
  5
94BF
  8
0
 10
3957.0609463042501375
 20
74.3737565064460995
 30
0.0
 40
0.2809627790767801
 50
198.9997835626344056
 51
235.3014076241865951
  0
ARC
  5
94C0
  8
0
 10
3956.8108363823280342
 20
74.287637810787686
 30
0.0
 40
0.0164416971460328
 50
156.7972232016315104
 51
198.9997835626375036
  0
ARC
  5
94C1
  8
0
 10
3956.8012836640091336
 20
74.2887585379203017
 30
0.0
 40
0.0077202349012422
 50
52.6534983800131329
 51
136.0602931681042946
  0
ARC
  5
94C2
  8
0
 10
3956.6396943692529931
 20
74.0711915977561546
 30
0.0
 40
0.2787296994012957
 50
15.8471295497706208
 51
53.3777025896241781
  0
ARC
  5
94C3
  8
0
 10
3956.9025455194191636
 20
74.1478698206140621
 30
0.0
 40
0.0053151843175963
 50
252.5154658359801942
 51
353.8974749875399084
  0
ARC
  5
94C4
  8
0
 10
3956.9531222617529238
 20
74.292708189664296
 30
0.0
 40
0.1295500682841153
 50
192.0857363402901115
 51
239.1191347099992015
  0
ARC
  5
94C5
  8
0
 10
3956.7649088558878248
 20
74.1579485239917631
 30
0.0
 40
0.1239832343833169
 50
10.9613848679569994
 51
60.2434861823260874
  0
ARC
  5
94C6
  8
0
 10
3957.1009958823219677
 20
74.4000924040852993
 30
0.0
 40
0.3208458446216326
 50
199.0120635209563034
 51
232.7530222299376987
  0
ARC
  5
94C7
  8
0
 10
3957.2371884315762145
 20
74.2082930041717077
 30
0.0
 40
0.2809627790767801
 50
203.0831842710661022
 51
239.3848083326375047
  0
ARC
  5
94C8
  8
0
 10
3956.9938458056030868
 20
74.104582979725933
 30
0.0
 40
0.0164416971460328
 50
160.8806239100686071
 51
203.0831842710688875
  0
ARC
  5
94C9
  8
0
 10
3956.9842375320258725
 20
74.1050206273815206
 30
0.0
 40
0.0077202349012422
 50
56.7368990884495688
 51
140.143693876521013
  0
ARC
  5
94CA
  8
0
 10
3956.8385510480420635
 20
73.8764994642120314
 30
0.0
 40
0.2787296994012957
 50
19.9305302582032802
 51
57.461103298053807
  0
ARC
  5
94CB
  8
0
 10
3957.0952747997039296
 20
73.9717002642998835
 30
0.0
 40
0.0053151843175963
 50
256.5988665444288017
 51
357.9808756959708944
  0
ARC
  5
94CC
  8
0
 10
3957.1354094319622163
 20
74.1197724470613366
 30
0.0
 40
0.1295500682841153
 50
196.1691370487193922
 51
243.2025354184393962
  0
ARC
  5
94CD
  8
0
 10
3956.9572698440160821
 20
73.971952486140836
 30
0.0
 40
0.1239832343833169
 50
15.0447855763879694
 51
64.3268868907526468
  0
ARC
  5
94CE
  8
0
 10
3957.2752610029911011
 20
74.237413916141179
 30
0.0
 40
0.3208458446216326
 50
203.0954642293866073
 51
236.8364229383597035
  0
ARC
  5
94CF
  8
0
 10
3957.18850275706518
 20
74.1851206568748864
 30
0.0
 40
0.2809627790767801
 50
198.9997835626344056
 51
235.3014076241865951
  0
ARC
  5
94D0
  8
0
 10
3956.9383928351439863
 20
74.0990019612164872
 30
0.0
 40
0.0164416971460328
 50
156.7972232016315104
 51
198.9997835626375036
  0
ARC
  5
94D1
  8
0
 10
3956.9288401168241762
 20
74.1001226883490887
 30
0.0
 40
0.0077202349012422
 50
52.6534983800131329
 51
136.0602931681042946
  0
ARC
  5
94D2
  8
0
 10
3956.7672508220680356
 20
73.8825557481849415
 30
0.0
 40
0.2787296994012957
 50
15.8471295497706208
 51
53.3777025896241781
  0
ARC
  5
94D3
  8
0
 10
3957.0301019722342062
 20
73.959233971042849
 30
0.0
 40
0.0053151843175963
 50
252.5154658359801942
 51
353.8974749875399084
  0
ARC
  5
94D4
  8
0
 10
3957.0806787145679664
 20
74.1040723400930688
 30
0.0
 40
0.1295500682841153
 50
192.0857363402901115
 51
239.1191347099992015
  0
ARC
  5
94D5
  8
0
 10
3956.8924653087028673
 20
73.9693126744205642
 30
0.0
 40
0.1239832343833169
 50
10.9613848679569994
 51
60.2434861823260874
  0
ARC
  5
94D6
  8
0
 10
3957.2285523351361007
 20
74.2114565545140863
 30
0.0
 40
0.3208458446216326
 50
199.0120635209563034
 51
232.7530222299376987
  0
ARC
  5
94D7
  8
0
 10
3957.373397832216142
 20
74.0014322921097119
 30
0.0
 40
0.2809627790767801
 50
204.3646412686711074
 51
240.6662653302279864
  0
ARC
  5
94D8
  8
0
 10
3957.132435414468091
 20
73.8923061448333556
 30
0.0
 40
0.0164416971460328
 50
162.1620809076783871
 51
204.3646412686736937
  0
ARC
  5
94D9
  8
0
 10
3957.1228197564710172
 20
73.8925288057237992
 30
0.0
 40
0.0077202349012422
 50
58.0183560860645784
 51
141.4251508741465102
  0
ARC
  5
94DA
  8
0
 10
3956.9822803056081284
 20
73.6608066954641743
 30
0.0
 40
0.2787296994012957
 50
21.2119872558096283
 51
58.7425602956648802
  0
ARC
  5
94DB
  8
0
 10
3957.2368108008308809
 20
73.7617249990855868
 30
0.0
 40
0.0053151843175963
 50
257.880323542034489
 51
359.2623326935818113
  0
ARC
  5
94DC
  8
0
 10
3957.2736239417868092
 20
73.9106577109632639
 30
0.0
 40
0.1295500682841153
 50
197.450594046328888
 51
244.4839924160488067
  0
ARC
  5
94DD
  8
0
 10
3957.0988347196312134
 20
73.7588908454818011
 30
0.0
 40
0.1239832343833169
 50
16.3262425739942003
 51
65.6083438883633647
  0
ARC
  5
94DE
  8
0
 10
3957.4108096280119753
 20
74.0313973675045105
 30
0.0
 40
0.3208458446216326
 50
204.3769212269997126
 51
238.1178799359742868
  0
ARC
  5
94DF
  8
0
 10
3957.3311244645769875
 20
74.1171333764923475
 30
0.0
 40
0.3644591166048671
 50
206.7551694548253067
 51
235.9726109189313945
  0
ARC
  5
94E0
  8
0
 10
3956.801824449140895
 20
73.6510851744582169
 30
0.0
 40
0.3643471213921498
 50
26.7505789822511488
 51
55.977201391489892
  0
ARC
  5
94E1
  8
0
 10
3957.3057026689020859
 20
74.0914210311954378
 30
0.0
 40
0.3158229406220995
 50
210.0589717812999879
 51
232.2410200314760971
  0
ARC
  5
94E2
  8
0
 10
3957.5104189710991704
 20
74.2718134282397244
 30
0.0
 40
0.5933576520294666
 50
213.10826451311911
 51
229.3284049851058057
  0
ARC
  5
94E3
  8
0
 10
3957.4075570471650281
 20
73.9941659881747995
 30
0.0
 40
0.3644591166048671
 50
206.7551694548253067
 51
235.9726109189313945
  0
ARC
  5
94E4
  8
0
 10
3956.878257031729845
 20
73.5281177861406547
 30
0.0
 40
0.3643471213921498
 50
26.7505789822511488
 51
55.977201391489892
  0
ARC
  5
94E5
  8
0
 10
3957.3821352514910359
 20
73.9684536428778898
 30
0.0
 40
0.3158229406220995
 50
210.0589717812999879
 51
232.2410200314760971
  0
ARC
  5
94E6
  8
0
 10
3957.5868515536881205
 20
74.1488460399221765
 30
0.0
 40
0.5933576520294666
 50
213.1082645131193942
 51
229.3284049851058057
  0
ARC
  5
94E7
  8
0
 10
3957.6183987167428313
 20
73.7731040174938641
 30
0.0
 40
0.3644591166048671
 50
210.1200024224575031
 51
239.3374438865506022
  0
ARC
  5
94E8
  8
0
 10
3957.1173652686261448
 20
73.2767927070976555
 30
0.0
 40
0.3643471213921498
 50
30.1154119498849617
 51
59.3420343591355035
  0
ARC
  5
94E9
  8
0
 10
3957.5945298989140611
 20
73.7459439009360551
 30
0.0
 40
0.3158229406220995
 50
213.4238047489212136
 51
235.6058529991165926
  0
ARC
  5
94EA
  8
0
 10
3957.7883053881628257
 20
73.9380408583897122
 30
0.0
 40
0.5933576520294666
 50
216.4730974807416999
 51
232.6932379527507067
  0
ARC
  5
94EB
  8
0
 10
3957.5446149480872009
 20
73.894802824902996
 30
0.0
 40
0.3644591166048671
 50
208.7293534270698103
 51
237.9467948911787971
  0
ARC
  5
94EC
  8
0
 10
3957.0316840829082139
 20
73.4107972872218824
 30
0.0
 40
0.3643471213921498
 50
28.7247629545054401
 51
57.9513853637471783
  0
ARC
  5
94ED
  8
0
 10
3957.5200940110539705
 20
73.8682299808135241
 30
0.0
 40
0.3158229406220995
 50
212.0331557535407967
 51
234.2152040037325946
  0
ARC
  5
94EE
  8
0
 10
3957.7184744314758973
 20
74.0555676174212465
 30
0.0
 40
0.5933576520294666
 50
215.0824484853586114
 51
231.3025889573671066
  0
ARC
  5
94EF
  8
0
 10
3957.9166438473780545
 20
73.9509193244463745
 30
0.0
 40
0.7220203306738338
 50
217.7681636496170938
 51
232.8891603626267113
  0
ARC
  5
94F0
  8
0
 10
3956.9063333586400404
 20
72.9289510812141231
 30
0.0
 40
0.7275470762190439
 50
37.8259281189374121
 51
52.8313958932820569
  0
ARC
  5
94F1
  8
0
 10
3958.370120874811164
 20
74.40473291641743
 30
0.0
 40
1.3556881592449701
 50
222.4369012866972071
 51
228.0306638310480878
  0
ARC
  5
94F2
  8
0
 10
3956.2436669184921811
 20
72.1623089861635947
 30
0.0
 40
1.7243833793028731
 50
42.34386181772269
 51
48.6641279374733386
  0
ARC
  5
94F3
  8
0
 10
3958.6455256438230208
 20
74.6067990886211732
 30
0.0
 40
1.707904983428709
 50
222.3133404707205898
 51
228.6946492844778902
  0
ARC
  5
94F4
  8
0
 10
3957.6652509731561622
 20
74.1043227118019843
 30
0.0
 40
0.6418990497016002
 50
214.7533921117523903
 51
231.2480841401855969
  0
ARC
  5
94F5
  8
0
 10
3956.7593897937949805
 20
73.2595716778576502
 30
0.0
 40
0.61034872756412
 50
34.3238614931833297
 51
51.6776147587706021
  0
ARC
  5
94F6
  8
0
 10
3958.0581778845989902
 20
74.4675734423140909
 30
0.0
 40
1.169121866720217
 50
219.6026325255139113
 51
226.2491131453344053
  0
ARC
  5
94F7
  8
0
 10
3956.4744198053072068
 20
72.9089945199779379
 30
0.0
 40
1.040747544446313
 50
38.3038348518618008
 51
48.4934282897716002
  0
ARC
  5
94F8
  8
0
 10
3957.9142708855538331
 20
74.2705288607588727
 30
0.0
 40
0.9495255616485858
 50
217.8128843500161906
 51
228.9843787916165923
  0
ARC
  5
94F9
  8
0
 10
3956.6669022497021615
 20
74.3491620158697515
 30
0.0
 40
0.0194719123160867
 50
217.9319480758857992
 51
305.7325053700722037
  0
ARC
  5
94FA
  8
0
 10
3958.2665603663867842
 20
75.5071911483721294
 30
0.0
 40
1.994285765067662
 50
212.8401956743103938
 51
215.9214592536006876
  0
ARC
  5
94FB
  8
0
 10
3956.6091203854948617
 20
74.4337235818328935
 30
0.0
 40
0.0198299482869226
 50
124.7387951591973945
 51
203.8849179731408867
  0
ARC
  5
94FC
  8
0
 10
3956.6550109245581552
 20
74.3720767174617379
 30
0.0
 40
0.096673356398791
 50
119.4431098999120024
 51
126.2694561560709019
  0
ARC
  5
94FD
  8
0
 10
3956.4027051491898419
 20
74.220438694416174
 30
0.0
 40
0.3123308894371545
 50
22.8637604646459813
 51
49.0297436242834834
  0
ARC
  5
94FE
  8
0
 10
3957.0622554074570871
 20
73.7901168124447366
 30
0.0
 40
0.6652444975363924
 50
123.9749443132878071
 51
125.254098837253693
  0
ARC
  5
94FF
  8
0
 10
3956.7854115489049036
 20
74.776007128548784
 30
0.0
 40
0.2809627790767801
 50
198.9997835626344056
 51
235.3014076241865951
  0
ARC
  5
9500
  8
0
 10
3956.5353016269818909
 20
74.6898884328903847
 30
0.0
 40
0.0164416971460328
 50
156.7972232016315104
 51
198.9997835626375036
  0
ARC
  5
9501
  8
0
 10
3956.5257489086629903
 20
74.6910091600230146
 30
0.0
 40
0.0077202349012422
 50
52.6534983800131329
 51
136.0602931681042946
  0
ARC
  5
9502
  8
0
 10
3956.3641596139068497
 20
74.4734422198588533
 30
0.0
 40
0.2787296994012957
 50
15.8471295497706208
 51
53.3777025896241781
  0
ARC
  5
9503
  8
0
 10
3956.6270107640730203
 20
74.5501204427167607
 30
0.0
 40
0.0053151843175963
 50
252.5154658359801942
 51
353.8974749875399084
  0
ARC
  5
9504
  8
0
 10
3956.6775875064067804
 20
74.6949588117669805
 30
0.0
 40
0.1295500682841153
 50
192.0857363402901115
 51
239.1191347099992015
  0
ARC
  5
9505
  8
0
 10
3956.4893741005421361
 20
74.560199146094476
 30
0.0
 40
0.1239832343833169
 50
10.9613848679569994
 51
60.2434861823260874
  0
ARC
  5
9506
  8
0
 10
3956.8254611269758243
 20
74.802343026187998
 30
0.0
 40
0.3208458446216326
 50
199.0120635209563034
 51
232.7530222299376987
  0
ARC
  5
9507
  8
0
 10
3960.2311229715028276
 20
69.1435741769690395
 30
0.0
 40
6.6634910416966582
 50
124.2790873933105047
 51
124.3915956941680037
  0
ARC
  5
9508
  8
0
 10
3956.4781293904561608
 20
74.6264081216650936
 30
0.0
 40
0.0192131362734796
 50
124.3915956941643941
 51
209.6675565609440071
  0
ARC
  5
9509
  8
0
 10
3957.0173001847570049
 20
74.9335412124361255
 30
0.0
 40
0.6397257315317093
 50
209.6675565609440071
 51
219.463268699117009
  0
ARC
  5
950A
  8
0
 10
3956.5364375949047826
 20
74.5418279025849699
 30
0.0
 40
0.0197805352789023
 50
228.8113710710011048
 51
304.4338393085018879
  0
ARC
  5
950B
  8
0
 10
3956.1843283373641498
 20
75.0640076024696441
 30
0.0
 40
0.6495835601224033
 50
304.0055036493424154
 51
305.1683573345820832
  0
ARC
  5
950C
  8
0
 10
3956.2842332736058779
 20
74.4300116207363516
 30
0.0
 40
0.2929421624298435
 50
20.5824755650118689
 51
48.5681233777043673
  0
ARC
  5
950D
  8
0
 10
3956.8868093846781449
 20
74.8432485791771853
 30
0.0
 40
0.4802005848511439
 50
210.1316547036146005
 51
218.5758709285931047
  0
ARC
  5
950E
  8
0
 10
3956.0763307078018443
 20
74.2892624060646369
 30
0.0
 40
0.5040650757458672
 50
30.3318836568508416
 51
38.3756419753694473
  0
ARC
  5
950F
  8
0
 10
3956.7256945338699552
 20
74.7344517012488012
 30
0.0
 40
0.2884017890431422
 50
205.7811320720902017
 51
222.8643444792047887
  0
ARC
  5
9510
  8
0
 10
3933.4925392035729601
 20
59.3157965647073269
 30
0.0
 40
27.8415569075170808
 50
33.7022279380517418
 51
37.4583098559008931
  0
ARC
  5
9511
  8
0
 10
3927.0604105201541643
 20
54.2699044079077808
 30
0.0
 40
35.9979947801445519
 50
31.6310495579525188
 51
34.7031057637625366
  0
ARC
  5
9512
  8
0
 10
3955.6563164273188704
 20
76.1054068441826246
 30
0.0
 40
0.0098311666960679
 50
155.5906120236772949
 51
199.0611560060465024
  0
ARC
  5
9513
  8
0
 10
3950.3773989703859115
 20
71.6849610063046612
 30
0.0
 40
6.8810470060604407
 50
33.964176430125427
 51
40.0158371927479308
  0
ARC
  5
9514
  8
0
 10
3907.2053613572420545
 20
40.9997578020195874
 30
0.0
 40
59.8452129047005172
 50
33.036116383917161
 51
35.238384556882437
  0
ARC
  5
9515
  8
0
 10
3953.4845665225539051
 20
71.0155040151385037
 30
0.0
 40
4.6849676026789853
 50
28.7243968903791789
 51
33.8544250849532915
  0
ARC
  5
9516
  8
0
 10
3957.5161962463498639
 20
73.2285880261874951
 30
0.0
 40
0.085920352516585
 50
14.5269734526312
 51
26.6190205048154205
  0
ARC
  5
9517
  8
0
 10
3957.5985183120228612
 20
73.2697867567604106
 30
0.0
 40
0.0196652724071931
 50
244.8392516156264946
 51
272.4813264611507861
  0
LINE
  5
9518
  8
0
 10
3958.0447733163400699
 20
73.2664181349224037
 30
0.0
 11
3957.8310432704829509
 21
73.14638499150972
 31
0.0
  0
ARC
  5
9519
  8
0
 10
3957.3960419202699086
 20
72.8586723403393819
 30
0.0
 40
0.4243271068595248
 50
45.336010725472832
 51
54.9280277489281374
  0
ARC
  5
951A
  8
0
 10
3957.7771900865909629
 20
73.2606459085457118
 30
0.0
 40
0.130008094914564
 50
230.4011027353928114
 51
254.7988735553444997
  0
ARC
  5
951B
  8
0
 10
3957.7732679801019913
 20
73.2491914047014063
 30
0.0
 40
0.1179285494355744
 50
255.1785271055198052
 51
299.3351756899022007
  0
ARC
  5
951C
  8
0
 10
3958.5632466647530237
 20
73.6912556553695026
 30
0.0
 40
1.0419365512816421
 50
207.8557543888086911
 51
230.6068999847373107
  0
ARC
  5
951D
  8
0
 10
3958.5295991142979801
 20
73.6958896782447823
 30
0.0
 40
1.024572690472906
 50
232.2257160705142098
 51
255.4029111553595897
  0
ARC
  5
951E
  8
0
 10
3958.2984817135870799
 20
72.8219555034034727
 30
0.0
 40
0.1206492843565471
 50
257.0217272411517229
 51
330.6611511069637004
  0
ARC
  5
951F
  8
0
 10
3958.3035708953671019
 20
72.8190950487080215
 30
0.0
 40
0.1148113076297917
 50
330.661151106964212
 51
16.7418506180370699
  0
ARC
  5
9520
  8
0
 10
3957.845890144275927
 20
72.6889626486167089
 30
0.0
 40
0.5906221618283853
 50
16.0411206986205883
 51
68.38479120907283
  0
ARC
  5
9521
  8
0
 10
3958.5045333809698604
 20
73.5489250547204279
 30
0.0
 40
0.5396197520119218
 50
211.5693101513421936
 51
215.1765206615631882
  0
ARC
  5
9522
  8
0
 10
3910.4606365153158549
 20
43.0249133149566134
 30
0.0
 40
56.9123785169217626
 50
33.4071084729036514
 51
36.3702966463711803
  0
ARC
  5
9523
  8
0
 10
3959.889163434666898
 20
75.6258211249247267
 30
0.0
 40
2.299093880334933
 50
213.4071084729035874
 51
228.9428249384033052
  0
ARC
  5
9524
  8
0
 10
3956.6687751225158536
 20
72.0276826128124554
 30
0.0
 40
2.5301241935501682
 50
31.2359387609804102
 51
47.4696111238629825
  0
ARC
  5
9525
  8
0
 10
3954.9562938319868408
 20
71.1233472801382334
 30
0.0
 40
4.464793814385339
 50
22.3636829220407698
 51
29.7627249464441199
  0
ARC
  5
9526
  8
0
 10
3948.2002505599848519
 20
68.2268319921006281
 30
0.0
 40
11.8152704126919108
 50
2.3290096787128052
 51
22.88786355240115
  0
ARC
  5
9527
  8
0
 10
3959.9647363258832229
 20
68.7049327179738896
 30
0.0
 40
0.0410755349084962
 50
289.6547961810995275
 51
2.8531903090761821
  0
ARC
  5
9529
  8
0
 10
3957.611048189271969
 20
66.081900073386123
 30
0.0
 40
3.1496287460270551
 50
85.1777422384709553
 51
94.8222577615290589
  0
LINE
  5
952A
  8
0
 10
3959.5694656892110288
 20
66.7911559258959642
 30
0.0
 11
3961.0559267017101774
 21
66.7911559258959642
 31
0.0
  0
LINE
  5
952B
  8
0
 10
3960.0606848262459607
 20
68.6587064510977143
 30
0.0
 11
3959.7741717346830228
 21
68.6587064510977143
 31
0.0
  0
LINE
  5
952C
  8
0
 10
3959.3655974487501226
 20
68.6587064510977143
 30
0.0
 11
3959.1552481767598692
 21
68.6587064510977143
 31
0.0
  0
LINE
  5
952D
  8
0
 10
3959.9977655119391784
 20
68.6587064510977143
 30
0.0
 11
3959.9977655119391784
 21
68.6662503996130482
 31
0.0
  0
LINE
  5
952E
  8
0
 10
3959.2182114305228424
 20
68.6587064510977143
 30
0.0
 11
3959.2182114305228424
 21
68.6662503996130482
 31
0.0
  0
ENDSEC
  0
EOF
