  0
SECTION
  2
HEADER
  9
$ACADVER
  1
AC1009
  9
$INSBASE
 10
7968.63384343783855
 20
1949.2995720761900884
 30
0.0
  9
$EXTMIN
 10
7963.6259933406408891
 20
1940.6525888987951021
 30
-0.0000000000000058
  9
$EXTMAX
 10
7983.0589415530739643
 20
1949.44217888119897
 30
0.0000000000000104
  9
$LIMMIN
 10
0.0
 20
0.0
  9
$LIMMAX
 10
11.6929133858000007
 20
8.2677165353999982
  9
$ORTHOMODE
 70
     0
  9
$REGENMODE
 70
     1
  9
$FILLMODE
 70
     1
  9
$QTEXTMODE
 70
     0
  9
$MIRRTEXT
 70
     0
  9
$DRAGMODE
 70
     2
  9
$LTSCALE
 40
0.6431102362
  9
$OSMODE
 70
     7
  9
$ATTMODE
 70
     1
  9
$TEXTSIZE
 40
0.2
  9
$TRACEWID
 40
0.05
  9
$TEXTSTYLE
  7
STANDARD
  9
$CLAYER
  8
0
  9
$CELTYPE
  6
BYLAYER
  9
$CECOLOR
 62
   256
  9
$DIMSCALE
 40
1.0
  9
$DIMASZ
 40
0.1875
  9
$DIMEXO
 40
0.0625
  9
$DIMDLI
 40
0.4443307087
  9
$DIMRND
 40
0.0
  9
$DIMDLE
 40
0.0
  9
$DIMEXE
 40
0.125
  9
$DIMTP
 40
0.01
  9
$DIMTM
 40
0.01
  9
$DIMTXT
 40
2.0
  9
$DIMCEN
 40
0.1052362205
  9
$DIMTSZ
 40
0.0
  9
$DIMTOL
 70
     1
  9
$DIMLIM
 70
     0
  9
$DIMTIH
 70
     1
  9
$DIMTOH
 70
     1
  9
$DIMSE1
 70
     0
  9
$DIMSE2
 70
     0
  9
$DIMTAD
 70
     0
  9
$DIMZIN
 70
     0
  9
$DIMBLK
  1

  9
$DIMASO
 70
     1
  9
$DIMSHO
 70
     1
  9
$DIMPOST
  1
\X
  9
$DIMAPOST
  1

  9
$DIMALT
 70
     1
  9
$DIMALTD
 70
     2
  9
$DIMALTF
 40
25.3999999999999986
  9
$DIMLFAC
 40
1.0
  9
$DIMTOFL
 70
     0
  9
$DIMTVP
 40
0.0
  9
$DIMTIX
 70
     0
  9
$DIMSOXD
 70
     0
  9
$DIMSAH
 70
     0
  9
$DIMBLK1
  1

  9
$DIMBLK2
  1

  9
$DIMSTYLE
  2
STANDARD
  9
$DIMCLRD
 70
     0
  9
$DIMCLRE
 70
     0
  9
$DIMCLRT
 70
     0
  9
$DIMTFAC
 40
1.0
  9
$DIMGAP
 40
0.09
  9
$LUNITS
 70
     2
  9
$LUPREC
 70
     4
  9
$SKETCHINC
 40
0.1
  9
$FILLETRAD
 40
0.0
  9
$AUNITS
 70
     0
  9
$AUPREC
 70
     0
  9
$MENU
  1
.
  9
$ELEVATION
 40
0.0
  9
$PELEVATION
 40
0.0
  9
$THICKNESS
 40
0.0
  9
$LIMCHECK
 70
     0
  9
$BLIPMODE
 70
     0
  9
$CHAMFERA
 40
0.0
  9
$CHAMFERB
 40
0.0
  9
$SKPOLY
 70
     0
  9
$TDCREATE
 40
2458060.468368056230247
  9
$TDUPDATE
 40
2459496.7891550930216908
  9
$TDINDWG
 40
0.4169978009
  9
$TDUSRTIMER
 40
0.4169978009
  9
$USRTIMER
 70
     1
  9
$ANGBASE
 50
0.0
  9
$ANGDIR
 70
     0
  9
$PDMODE
 70
     0
  9
$PDSIZE
 40
0.3125
  9
$PLINEWID
 40
0.0
  9
$COORDS
 70
     1
  9
$SPLFRAME
 70
     0
  9
$SPLINETYPE
 70
     6
  9
$SPLINESEGS
 70
     8
  9
$ATTDIA
 70
     1
  9
$ATTREQ
 70
     1
  9
$HANDLING
 70
     1
  9
$HANDSEED
  5
12905
  9
$SURFTAB1
 70
     6
  9
$SURFTAB2
 70
     6
  9
$SURFTYPE
 70
     6
  9
$SURFU
 70
     6
  9
$SURFV
 70
     6
  9
$UCSNAME
  2

  9
$UCSORG
 10
0.0
 20
0.0
 30
0.0
  9
$UCSXDIR
 10
1.0
 20
0.0
 30
0.0
  9
$UCSYDIR
 10
0.0
 20
1.0
 30
0.0
  9
$PUCSNAME
  2

  9
$PUCSORG
 10
0.0
 20
0.0
 30
0.0
  9
$PUCSXDIR
 10
1.0
 20
0.0
 30
0.0
  9
$PUCSYDIR
 10
0.0
 20
1.0
 30
0.0
  9
$USERI1
 70
     0
  9
$USERI2
 70
     0
  9
$USERI3
 70
     0
  9
$USERI4
 70
     0
  9
$USERI5
 70
     0
  9
$USERR1
 40
0.0
  9
$USERR2
 40
0.0
  9
$USERR3
 40
0.0
  9
$USERR4
 40
0.0
  9
$USERR5
 40
0.0
  9
$WORLDVIEW
 70
     1
  9
$SHADEDGE
 70
     3
  9
$SHADEDIF
 70
    70
  9
$TILEMODE
 70
     1
  9
$MAXACTVP
 70
    64
  9
$PLIMCHECK
 70
     0
  9
$PEXTMIN
 10
1.0000000000000000E+20
 20
1.0000000000000000E+20
 30
1.0000000000000000E+20
  9
$PEXTMAX
 10
-1.0000000000000000E+20
 20
-1.0000000000000000E+20
 30
-1.0000000000000000E+20
  9
$PLIMMIN
 10
0.0
 20
0.0
  9
$PLIMMAX
 10
12.0
 20
9.0
  9
$UNITMODE
 70
     0
  9
$VISRETAIN
 70
     1
  9
$PLINEGEN
 70
     0
  9
$PSLTSCALE
 70
     1
  0
ENDSEC
  0
SECTION
  2
TABLES
  0
TABLE
  2
VPORT
 70
     1
  0
VPORT
  2
*ACTIVE
 70
     0
 10
0.0
 20
0.0
 11
1.0
 21
1.0
 12
3158.0441276031069719
 22
1697.2387596224180015
 13
0.0
 23
0.0
 14
1.0
 24
1.0
 15
0.0
 25
0.0
 16
0.0
 26
0.0
 36
9.5192988075487186
 17
4815.2983398437490905
 27
247.8086242675780966
 37
0.0
 40
8.8531397641814067
 41
2.2118055555555549
 42
50.0
 43
0.0
 44
0.0
 50
0.0
 51
0.0
 71
     0
 72
   100
 73
     1
 74
     1
 75
     0
 76
     0
 77
     0
 78
     0
  0
ENDTAB
  0
TABLE
  2
LTYPE
 70
     2
  0
LTYPE
  2
CONTINUOUS
 70
     0
  3
Solid line
 72
    65
 73
     0
 40
0.0
  0
LTYPE
  2
PHANTOM2
 70
     0
  3
___ _ _ ___ _ _ ___ _ _ ___ _ _
 72
    65
 73
     6
 40
1.25
 49
0.625
 49
-0.125
 49
0.125
 49
-0.125
 49
0.125
 49
-0.125
  0
ENDTAB
  0
TABLE
  2
LAYER
 70
     2
  0
LAYER
  2
0
 70
     0
 62
   255
  6
CONTINUOUS
  0
LAYER
  2
DEFPOINTS
 70
     0
 62
     7
  6
CONTINUOUS
  0
ENDTAB
  0
TABLE
  2
STYLE
 70
     1
  0
STYLE
  2
STANDARD
 70
     0
 40
0.0
 41
0.8
 50
0.0
 71
     0
 42
0.2
  3
txt
  4

  0
ENDTAB
  0
TABLE
  2
VIEW
 70
     0
  0
ENDTAB
  0
TABLE
  2
UCS
 70
     0
  0
ENDTAB
  0
TABLE
  2
APPID
 70
    11
  0
APPID
  2
ACAD
 70
     0
  0
APPID
  2
ACAD_MLEADERVER
 70
     0
  0
APPID
  2
ACAD_EXEMPT_FROM_CAD_STANDARDS
 70
     0
  0
APPID
  2
ACAD_NAV_VCDISPLAY
 70
     0
  0
APPID
  2
ACAECLAYERSTANDARD
 70
     0
  0
APPID
  2
ACCMTRANSPARENCY
 70
     0
  0
APPID
  2
ACAD_DSTYLE_DIMJAG
 70
     0
  0
APPID
  2
ACAD_DSTYLE_DIMTALN
 70
     0
  0
APPID
  2
ACDBATTR
 70
     0
  0
APPID
  2
ACADANNOTATIVE
 70
     0
  0
APPID
  2
DCO15
 70
     0
  0
ENDTAB
  0
TABLE
  2
DIMSTYLE
 70
     1
  0
DIMSTYLE
  2
STANDARD
 70
     0
  3

  4

  5

  6

  7

 40
1.0
 41
0.1875
 42
0.0625
 43
0.38
 44
0.125
 45
0.0
 46
0.0
 47
0.01
 48
0.01
140
0.15625
141
0.09
142
0.0
143
25.3999999999999986
144
1.0
145
0.0
146
1.0
147
0.09
 71
     1
 72
     0
 73
     1
 74
     1
 75
     0
 76
     0
 77
     0
 78
     4
170
     0
171
     2
172
     0
173
     0
174
     0
175
     0
176
     0
177
     0
178
     0
  0
ENDTAB
  0
ENDSEC
  0
SECTION
  2
BLOCKS
  0
BLOCK
  8
0
  2
$MODEL_SPACE
 70
     0
 10
0.0
 20
0.0
 30
0.0
  3
$MODEL_SPACE
  1

  0
ENDBLK
  5
21
  8
0
  0
BLOCK
 67
     1
  8
0
  2
$PAPER_SPACE
 70
     0
 10
0.0
 20
0.0
 30
0.0
  3
$PAPER_SPACE
  1

  0
ENDBLK
  5
1D
 67
     1
  8
0
  0
ENDSEC
  0
SECTION
  2
ENTITIES
  0
ATTDEF
  5
3930
  8
DEFPOINTS
 10
7968.6338705806256257
 20
1949.3029137347500637
 30
0.0
 40
0.001
  1
K-72640T-4
  3

  2
MODELNUMBER
 70
     0
1001
ACDBATTR
1070
     0
1070
     1
  0
ATTDEF
  5
3931
  8
DEFPOINTS
 10
7968.6338705806256257
 20
1949.301247068083967
 30
0.0
 40
0.001
  1
SYMBOL
  3

  2
TRADENAME
 70
     0
1001
ACDBATTR
1070
     0
1070
     1
  0
ATTDEF
  5
3932
  8
DEFPOINTS
 10
7968.6338705806256257
 20
1949.2995804014169607
 30
0.0
 40
0.001
  1
BATH AND SHOWER FAUCET
  3

  2
PRODUCT
 70
     0
1001
ACDBATTR
1070
     0
1070
     1
  0
ARC
  5
12728
  8
0
 10
7981.5097070119154523
 20
1947.3635550797409905
 30
0.0
 40
1.8045596772778449
 50
176.5560744657620091
 51
179.9977789998332014
  0
ARC
  5
12729
  8
0
 10
7977.6095831287493638
 20
1947.6436773274620009
 30
0.0
 40
2.105836181738082
 50
355.32265059828012
 51
357.5624755524826242
  0
ARC
  5
1272A
  8
0
 10
7979.8025413344867047
 20
1947.546535534809891
 30
0.0
 40
0.089349561499446
 50
156.5981878408672117
 51
175.1330644969534944
  0
ARC
  5
1272B
  8
0
 10
7980.3272644185735771
 20
1947.3153159724649868
 30
0.0
 40
0.662755929099528
 50
94.1714448271882105
 51
156.2703627690266899
  0
ARC
  5
1272C
  8
0
 10
7979.5859113730957688
 20
1947.4160146253159382
 30
0.0
 40
0.130237799504155
 50
333.5900177065977914
 51
336.2803960008060926
  0
ARC
  5
1272D
  8
0
 10
7979.5588432516378816
 20
1947.601894813114086
 30
0.0
 40
0.2830129450586563
 50
273.9154952654313888
 51
300.5173023085677073
  0
ARC
  5
1272E
  8
0
 10
7980.2703864189352316
 20
1941.56111672459906
 30
0.0
 40
5.7998820842764509
 50
96.8546073629365907
 51
107.5078848835723022
  0
ARC
  5
1272F
  8
0
 10
7978.9659844361849537
 20
1945.5516049365169238
 30
0.0
 40
1.602428827599109
 50
105.9526974659008971
 51
122.235102338599404
  0
ARC
  5
12730
  8
0
 10
7978.3774945220957306
 20
1946.4733508420029011
 30
0.0
 40
0.5088943841355811
 50
121.5449570436980054
 51
151.7168504679426064
  0
ARC
  5
12731
  8
0
 10
7978.4549398571643906
 20
1946.5003349558980972
 30
0.0
 40
0.5675376253294676
 50
157.8320464929018101
 51
171.0310199160738023
  0
ARC
  5
12732
  8
0
 10
7978.8756755703252566
 20
1946.4064861112419749
 30
0.0
 40
0.9981281635624834
 50
169.4746976307669115
 51
179.8204983612866101
  0
ARC
  5
12733
  8
0
 10
7978.8429308070817569
 20
1946.4096286647979923
 30
0.0
 40
0.9653785021202237
 50
180.000921615404792
 51
196.8960968508085045
  0
ARC
  5
12734
  8
0
 10
7979.4423536982658334
 20
1948.4473517423250541
 30
0.0
 40
2.8716400174260688
 50
244.7147959327616036
 51
252.9685656646190068
  0
ARC
  5
12735
  8
0
 10
7978.5500400584833187
 20
1946.55042147488507
 30
0.0
 40
0.7753277274860939
 50
224.5717362919909021
 51
244.4634264196475897
  0
ARC
  5
12736
  8
0
 10
7978.2478259396475551
 20
1946.2526917866071017
 30
0.0
 40
0.3510915421987248
 50
200.6190423782948073
 51
224.5717362919909021
  0
ARC
  5
12737
  8
0
 10
7980.2623278050523368
 20
1953.8865883739060791
 30
0.0
 40
7.92222497037507
 50
262.2699665164889211
 51
270.1209744189209232
  0
ARC
  5
12738
  8
0
 10
7979.5895323915092376
 20
1949.4917646557819353
 30
0.0
 40
3.4776637963267838
 50
246.2408706702919972
 51
263.5148293715977843
  0
ARC
  5
12739
  8
0
 10
7978.4289187079111798
 20
1946.8540386498459611
 30
0.0
 40
0.5960825634492763
 50
212.062723546132986
 51
246.5050967419680035
  0
ARC
  5
1273A
  8
0
 10
7978.1029238862629427
 20
1946.6207432201940719
 30
0.0
 40
0.1975133742093645
 50
183.193540672746991
 51
204.8914308072718882
  0
ARC
  5
1273B
  8
0
 10
7978.1552860722013065
 20
1946.6189733164360405
 30
0.0
 40
0.2497395779053267
 50
172.8797810631677976
 51
182.1188192578939891
  0
ARC
  5
1273C
  8
0
 10
7979.0484025753758033
 20
1947.3635550797409905
 30
0.0
 40
1.8045596772778449
 50
0.0022210001667626
 51
3.4439255342379802
  0
ARC
  5
1273D
  8
0
 10
7982.9484708023019266
 20
1947.6436733210500734
 30
0.0
 40
2.1057803841488889
 50
182.4374799660058954
 51
184.6773642411610865
  0
ARC
  5
1273E
  8
0
 10
7980.7555674799878034
 20
1947.5465352721389536
 30
0.0
 40
0.0893503750718257
 50
4.8670601278474184
 51
23.4017699138143591
  0
ARC
  5
1273F
  8
0
 10
7980.2308451687158595
 20
1947.3153159724649868
 30
0.0
 40
0.662755929099528
 50
23.7296372309732995
 51
85.8285551728118037
  0
ARC
  5
12740
  8
0
 10
7980.9721982141945773
 20
1947.4160146253159382
 30
0.0
 40
0.130237799504155
 50
203.7196039991939926
 51
206.4099822934020949
  0
ARC
  5
12741
  8
0
 10
7980.999266335651555
 20
1947.601894813114086
 30
0.0
 40
0.2830129450586563
 50
239.4826976914322927
 51
266.0845047345686112
  0
ARC
  5
12742
  8
0
 10
7980.287723168354205
 20
1941.56111672459906
 30
0.0
 40
5.7998820842764509
 50
72.4921151164276836
 51
83.1453926370634235
  0
ARC
  5
12743
  8
0
 10
7981.5921251511035734
 20
1945.5516049365169238
 30
0.0
 40
1.602428827599109
 50
57.7648976614006031
 51
74.0473025340990745
  0
ARC
  5
12744
  8
0
 10
7982.1806150651927965
 20
1946.4733508420029011
 30
0.0
 40
0.5088943841355811
 50
28.2831495320574007
 51
58.4550429563019733
  0
ARC
  5
12745
  8
0
 10
7982.103169730126865
 20
1946.5003349558980972
 30
0.0
 40
0.5675376253294676
 50
8.9689800839262084
 51
22.1679535070981899
  0
ARC
  5
12746
  8
0
 10
7981.5921163073180651
 20
1946.3938914575599028
 30
0.0
 40
1.0892346547280909
 50
0.8270184247199942
 51
10.3088151394926104
  0
ARC
  5
12747
  8
0
 10
7981.6834906278709241
 20
1946.4167535839219454
 30
0.0
 40
0.9977724175561428
 50
343.2412831229815993
 51
359.5899656195635998
  0
ARC
  5
12748
  8
0
 10
7981.2352127620706597
 20
1948.168091140928027
 30
0.0
 40
2.5681363425707402
 50
286.0277346819751756
 51
295.5365735803524103
  0
ARC
  5
12749
  8
0
 10
7982.0080695288061179
 20
1946.55042147488507
 30
0.0
 40
0.7753277274860939
 50
295.5365735803524103
 51
315.4282637080090126
  0
ARC
  5
1274A
  8
0
 10
7982.3102836476418815
 20
1946.2526917866071017
 30
0.0
 40
0.3510915421987248
 50
315.4282637080090126
 51
339.380957621705079
  0
ARC
  5
1274B
  8
0
 10
7980.2957817822380093
 20
1953.8865883739060791
 30
0.0
 40
7.92222497037507
 50
269.8790255810791905
 51
277.7300334835110789
  0
ARC
  5
1274C
  8
0
 10
7980.9685771957811085
 20
1949.4917646557819353
 30
0.0
 40
3.4776637963267838
 50
276.4851706284022157
 51
293.7591293297080028
  0
ARC
  5
1274D
  8
0
 10
7982.1291908793800758
 20
1946.8540386498459611
 30
0.0
 40
0.5960825634492763
 50
293.4949032580319113
 51
327.937276453867014
  0
ARC
  5
1274E
  8
0
 10
7982.4551857010274034
 20
1946.6207432201940719
 30
0.0
 40
0.1975133742092139
 50
335.1085691927162884
 51
356.8064593272659977
  0
ARC
  5
1274F
  8
0
 10
7982.4028235150890396
 20
1946.6189733164360405
 30
0.0
 40
0.2497395779053267
 50
357.8811807421059825
 51
7.1202189368321802
  0
LINE
  5
12750
  8
0
 10
7972.7480166659879615
 20
1949.2995720761900884
 30
0.0
 11
7970.4229222570902493
 21
1949.2995720761900884
 31
0.0
  0
LINE
  5
12751
  8
0
 10
7966.8447646185877602
 20
1949.2995720761900884
 30
0.0
 11
7964.5196702096891386
 21
1949.2995720761900884
 31
0.0
  0
LINE
  5
12752
  8
0
 10
7967.6213940050192832
 20
1946.5756670109399238
 30
0.0
 11
7970.8574837047872279
 21
1946.8798818181899151
 31
0.0
  0
LINE
  5
12753
  8
0
 10
7972.3193395521229832
 20
1947.0173063756299143
 30
0.0
 11
7979.3729091739860451
 21
1947.6803906909669877
 31
0.0
  0
LINE
  5
12754
  8
0
 10
7972.9959311849033838
 20
1946.5272173562220814
 30
0.0
 11
7978.3485103743587388
 21
1947.0302881109980717
 31
0.0
  0
LINE
  5
12755
  8
0
 10
7964.5196702096891386
 20
1949.2011468791149582
 30
0.0
 11
7964.5196702096891386
 21
1949.2995720761900884
 31
0.0
  0
CIRCLE
  5
12756
  8
0
 10
7966.6653395010380336
 20
1946.2109893990389082
 30
0.0
 40
0.4133858267500001
  0
CIRCLE
  5
12757
  8
0
 10
7966.6653395010380336
 20
1946.2109893990389082
 30
0.0
 40
0.31102362205
  0
ARC
  5
12758
  8
0
 10
7964.5792433540918864
 20
1949.2011468791149582
 30
0.0
 40
0.059573144403027
 50
179.9999998316058054
 51
216.2761647426549985
  0
ARC
  5
12759
  8
0
 10
7963.0236072611960481
 20
1948.0594146104269839
 30
0.0
 40
1.8700786964426579
 50
0.5968413914459828
 51
36.27616474265497
  0
ARC
  5
1275A
  8
0
 10
7964.9132684898731895
 20
1948.0790996350870046
 30
0.0
 40
0.0196850611084188
 50
180.5968413914459063
 51
269.9145137720619232
  0
LINE
  5
1275B
  8
0
 10
7964.9132391194543743
 20
1948.0594145958900754
 30
0.0
 11
7966.4511957088243435
 21
1948.0594145958900754
 31
0.0
  0
LINE
  5
1275C
  8
0
 10
7965.0511665224894386
 20
1947.4098082966900165
 30
0.0
 11
7965.0511662726876239
 21
1947.823194123390067
 31
0.0
  0
LINE
  5
1275D
  8
0
 10
7965.0511662726876239
 20
1947.823194123390067
 30
0.0
 11
7964.9724261151877727
 21
1947.8892649604899816
 31
0.0
  0
LINE
  5
1275E
  8
0
 10
7964.9724261151877727
 20
1947.8892649604899816
 30
0.0
 11
7964.9724261151877727
 21
1948.0594145958900754
 31
0.0
  0
LINE
  5
1275F
  8
0
 10
7965.0511665224894386
 20
1947.4098082966900165
 30
0.0
 11
7966.3132683057892791
 21
1947.4098082966900165
 31
0.0
  0
LINE
  5
12760
  8
0
 10
7964.9692548213552072
 20
1947.3724067307400674
 30
0.0
 11
7966.395180006922601
 21
1947.3724067307400674
 31
0.0
  0
LINE
  5
12761
  8
0
 10
7964.9692548213888585
 20
1947.3724067316888977
 30
0.0
 11
7964.9605236553888972
 21
1947.1235838371890168
 31
0.0
  0
ARC
  5
12762
  8
0
 10
7964.7637344547201792
 20
1947.1307100309040834
 30
0.0
 40
0.1969181864035382
 50
267.6445492991525725
 51
357.9260930476241924
  0
ARC
  5
12763
  8
0
 10
7965.0139028638577656
 20
1952.7773993187759061
 30
0.0
 40
5.8491454799448288
 50
265.1113229171605212
 51
267.469355696850414
  0
ARC
  5
12764
  8
0
 10
7964.4821892881072927
 20
1946.5874270746319326
 30
0.0
 40
0.3636283431607057
 50
84.7536883472518667
 51
89.5031516871825943
  0
ARC
  5
12765
  8
0
 10
7964.4852194122640867
 20
1946.8629414465628997
 30
0.0
 40
0.0881003853646548
 50
89.919948803685628
 51
153.3798037585463874
  0
ARC
  5
12766
  8
0
 10
7966.7055445514934036
 20
1946.0035501921490777
 30
0.0
 40
2.4685543313157958
 50
158.6461461716124859
 51
164.7702100312615983
  0
ARC
  5
12767
  8
0
 10
7968.1017585219005923
 20
1945.6075112629639534
 30
0.0
 40
3.9197992295066069
 50
164.5457304511998871
 51
177.6202598278640892
  0
ARC
  5
12768
  8
0
 10
7968.9936105122560548
 20
1945.5396095531079936
 30
0.0
 40
4.8138001106200621
 50
177.2535282816155018
 51
182.2044787248163971
  0
ARC
  5
12769
  8
0
 10
7966.3233166120589885
 20
1945.4265947712960951
 30
0.0
 40
2.1411596145009342
 50
181.9311099613227896
 51
184.1475838198261954
  0
ARC
  5
1276A
  8
0
 10
7964.2770316214582635
 20
1945.2784536542449132
 30
0.0
 40
0.0895196349938789
 50
184.3050526643137061
 51
251.823534053531489
  0
ARC
  5
1276B
  8
0
 10
7964.3241492224024114
 20
1945.4470426561028944
 30
0.0
 40
0.2645099147031933
 50
253.5185463333284019
 51
259.5950860546955141
  0
ARC
  5
1276C
  8
0
 10
7945.2660206635628128
 20
1842.1892837337200035
 30
0.0
 40
104.7372856181562071
 50
78.3890127067743236
 51
79.5425569550345131
  0
ARC
  5
1276D
  8
0
 10
7965.0409541693861684
 20
1939.5185398433141017
 30
0.0
 40
5.4241066766991848
 50
69.8299441075770773
 51
76.0774311265420948
  0
ARC
  5
1276E
  8
0
 10
7966.3348804899806055
 20
1943.0410083211259007
 30
0.0
 40
1.671503646760421
 50
61.8615666203976176
 51
69.8299441075770773
  0
ARC
  5
1276F
  8
0
 10
7965.9744540283336391
 20
1942.9565625173379431
 30
0.0
 40
1.936011231322166
 50
43.4428838875851682
 51
53.6055961124950073
  0
ARC
  5
12770
  8
0
 10
7971.5208121580926672
 20
1948.0908502715219583
 30
0.0
 40
5.6221333162694762
 50
222.5659402613894997
 51
225.0155003006431969
  0
ARC
  5
12771
  8
0
 10
7966.074937915253031
 20
1942.8989680232321007
 30
0.0
 40
1.908510375795851
 50
9.5596333487466012
 51
39.554351631233942
  0
ARC
  5
12772
  8
0
 10
7962.9399143307955455
 20
1942.4610122651390611
 30
0.0
 40
5.073508556253997
 50
0.7146592046293334
 51
8.5570681861578315
  0
ARC
  5
12773
  8
0
 10
8114.7025291271429523
 20
1943.6880070915699434
 30
0.0
 40
146.6941168035286864
 50
180.4545280361103039
 51
180.8584677079614949
  0
ARC
  5
12774
  8
0
 10
7945.2148698682985923
 20
1941.3114656400430249
 30
0.0
 40
22.8107079690788908
 50
0.0179200692266581
 51
0.448843993805764
  0
ARC
  5
12775
  8
0
 10
7968.6218403017219316
 20
1941.3437827938089413
 30
0.0
 40
0.5967951317859451
 50
182.4184104550820109
 51
210.609688158711009
  0
ARC
  5
12776
  8
0
 10
7968.7167636799740649
 20
1941.3835712517739012
 30
0.0
 40
0.6986112631098845
 50
217.3348924021373989
 51
240.3966710794663868
  0
ARC
  5
12777
  8
0
 10
7968.6338442481901438
 20
1945.1555536403900533
 30
0.0
 40
0.8917215095999985
 50
0.0021947528021814
 51
180.0
  0
ARC
  5
12778
  8
0
 10
7965.780478676142593
 20
1944.2785108542159378
 30
0.0
 40
2.219303046324741
 50
8.3926026004222312
 51
27.2687807074891317
  0
ARC
  5
12779
  8
0
 10
7961.7761839701397548
 20
1943.720275684904891
 30
0.0
 40
6.2622766244536274
 50
5.8626874813766854
 51
8.0980752454307474
  0
ARC
  5
1277A
  8
0
 10
7961.3409055571537465
 20
1943.7158035025890968
 30
0.0
 40
6.6958546975309217
 50
2.5796247814208
 51
5.52030142875949
  0
ARC
  5
1277B
  8
0
 10
7674.2213251420880624
 20
1935.6266371304539007
 30
0.0
 40
293.9284329778017764
 50
1.43601009156093
 51
1.6357973989482759
  0
ARC
  5
1277C
  8
0
 10
7868.2769646936167192
 20
1939.0390359234629614
 30
0.0
 40
99.8587768844088544
 50
1.6363848492038231
 51
2.2690362107964108
  0
ARC
  5
1277D
  8
0
 10
7931.6301833189972967
 20
1940.8999187964159319
 30
0.0
 40
36.4782902985319026
 50
0.2068720618612546
 51
1.5563070818416289
  0
ARC
  5
1277E
  8
0
 10
7968.2360762524785969
 20
1941.0280511548710365
 30
0.0
 40
0.1278904076754903
 50
178.3977994903968067
 51
189.6557421320241019
  0
ARC
  5
1277F
  8
0
 10
7968.1608941317590507
 20
1941.0133128958430007
 30
0.0
 40
0.0513372411632536
 50
187.5131476031098998
 51
250.6531131068936986
  0
ARC
  5
12780
  8
0
 10
7968.1805580635782462
 20
1941.0599042016970088
 30
0.0
 40
0.1018596879491488
 50
248.8987274991058882
 51
264.6683563745011156
  0
ARC
  5
12781
  8
0
 10
7969.2820680126596926
 20
1952.0967208116469465
 30
0.0
 40
11.1935051439037405
 50
264.3039163304476915
 51
265.2929801284952873
  0
ARC
  5
12782
  8
0
 10
7968.5281281370007491
 20
1945.1928494435289849
 30
0.0
 40
0.7868897402204644
 50
182.7166359856792042
 51
216.4132555664783979
  0
ARC
  5
12783
  8
0
 10
7968.7442972489898239
 20
1945.3404290428909462
 30
0.0
 40
1.048500760101968
 50
215.8911962253050945
 51
222.5172792632127994
  0
ARC
  5
12784
  8
0
 10
7968.6009006120430058
 20
1945.2152648401679471
 30
0.0
 40
0.8671370208545
 50
168.248229159967309
 51
214.758662419424013
  0
ARC
  5
12785
  8
0
 10
7968.5682294653979625
 20
1945.185510753032986
 30
0.0
 40
0.8233528176851365
 50
214.3537741505874976
 51
223.8073015518087061
  0
ARC
  5
12786
  8
0
 10
7968.6382155630672059
 20
1945.2148443052890343
 30
0.0
 40
0.9037840576823505
 50
136.0824513277532049
 51
168.7039387660576892
  0
LINE
  5
12787
  8
0
 10
7965.2578591860883535
 20
1947.4098082966900165
 30
0.0
 11
7965.2578591860883535
 21
1947.3724067307400674
 31
0.0
  0
LINE
  5
12788
  8
0
 10
7966.8447646185877602
 20
1949.2011468791149582
 30
0.0
 11
7966.8447646185877602
 21
1949.2995720761900884
 31
0.0
  0
ARC
  5
12789
  8
0
 10
7966.7851914741859218
 20
1949.2011468791149582
 30
0.0
 40
0.059573144403027
 50
323.7238352573450015
 51
0.0000001683941368
  0
ARC
  5
1278A
  8
0
 10
7968.3408275670808507
 20
1948.0594146104269839
 30
0.0
 40
1.8700786964426579
 50
143.7238352573450015
 51
179.4031586085540084
  0
ARC
  5
1278B
  8
0
 10
7966.4511663384064377
 20
1948.0790996350870046
 30
0.0
 40
0.0196850611084188
 50
270.0854862279380768
 51
359.4031586085540084
  0
LINE
  5
1278C
  8
0
 10
7966.3132683057892791
 20
1947.4098082966900165
 30
0.0
 11
7966.3132685555892749
 21
1947.823194123390067
 31
0.0
  0
LINE
  5
1278D
  8
0
 10
7966.3132685555892749
 20
1947.823194123390067
 30
0.0
 11
7966.3920087130891261
 21
1947.8892649604899816
 31
0.0
  0
LINE
  5
1278E
  8
0
 10
7966.3920087130891261
 20
1947.8892649604899816
 30
0.0
 11
7966.3920087130891261
 21
1948.0594145958900754
 31
0.0
  0
LINE
  5
1278F
  8
0
 10
7966.3951800068880402
 20
1947.3724067316888977
 30
0.0
 11
7966.4039111728889111
 21
1947.1235838371890168
 31
0.0
  0
ARC
  5
12790
  8
0
 10
7966.5964793646344333
 20
1947.1517447023879868
 30
0.0
 40
0.194616399104962
 50
188.3198692331195048
 51
269.5662360688040735
  0
LINE
  5
12791
  8
0
 10
7966.1065756421885453
 20
1947.4098082966900165
 30
0.0
 11
7966.1065756421885453
 21
1947.3724067307400674
 31
0.0
  0
ARC
  5
12792
  8
0
 10
7966.6018319722043088
 20
1944.7678346532070464
 30
0.0
 40
2.1893098683941301
 50
87.506769823617006
 51
90.1786404155889016
  0
ARC
  5
12793
  8
0
 10
7966.6710434700607948
 20
1945.8206486751660123
 30
0.0
 40
1.1347218920834561
 50
59.4643835892322485
 51
88.6857264251793396
  0
ARC
  5
12794
  8
0
 10
7959.8172428973030037
 20
1934.0121807630089279
 30
0.0
 40
14.7880652584101195
 50
58.5342217321843989
 51
59.837508830099857
  0
ARC
  5
12795
  8
0
 10
7969.4296240141529779
 20
1949.7431070309949064
 30
0.0
 40
3.6472417038876479
 50
238.7301666917852003
 51
242.5783794386593968
  0
ARC
  5
12796
  8
0
 10
7968.3562610184371806
 20
1947.739049849596995
 30
0.0
 40
1.374359696509357
 50
243.8217996425873082
 51
261.7605141087170182
  0
LINE
  5
12797
  8
0
 10
7972.7480166659879615
 20
1949.2011468791149582
 30
0.0
 11
7972.7480166659879615
 21
1949.2995720761900884
 31
0.0
  0
ARC
  5
12798
  8
0
 10
7972.6884435215870326
 20
1949.2011468791149582
 30
0.0
 40
0.059573144403027
 50
323.7238352573450015
 51
0.0000001683941368
  0
ARC
  5
12799
  8
0
 10
7974.2440796144801425
 20
1948.0594146104269839
 30
0.0
 40
1.8700786964426579
 50
143.7238352573450015
 51
179.4031586085540084
  0
ARC
  5
1279A
  8
0
 10
7972.35441838580482
 20
1948.0790996350870046
 30
0.0
 40
0.0196850611084188
 50
270.0854862279380768
 51
359.4031586085540084
  0
LINE
  5
1279B
  8
0
 10
7972.3544477562236352
 20
1948.0594145958900754
 30
0.0
 11
7970.8164911668536661
 21
1948.0594145958900754
 31
0.0
  0
LINE
  5
1279C
  8
0
 10
7972.2165203531885709
 20
1947.4098082966900165
 30
0.0
 11
7972.2165206029876572
 21
1947.823194123390067
 31
0.0
  0
LINE
  5
1279D
  8
0
 10
7972.2165206029876572
 20
1947.823194123390067
 30
0.0
 11
7972.2952607604893274
 21
1947.8892649604899816
 31
0.0
  0
LINE
  5
1279E
  8
0
 10
7972.2952607604893274
 20
1947.8892649604899816
 30
0.0
 11
7972.2952607604893274
 21
1948.0594145958900754
 31
0.0
  0
LINE
  5
1279F
  8
0
 10
7972.2165203531885709
 20
1947.4098082966900165
 30
0.0
 11
7970.9544185698878209
 21
1947.4098082966900165
 31
0.0
  0
LINE
  5
127A0
  8
0
 10
7972.2984320543218928
 20
1947.3724067307400674
 30
0.0
 11
7970.8747663509993799
 21
1947.3724067307400674
 31
0.0
  0
LINE
  5
127A1
  8
0
 10
7972.298432054289151
 20
1947.3724067316888977
 30
0.0
 11
7972.3089100654888171
 21
1947.0738099227889961
 31
0.0
  0
ARC
  5
127A2
  8
0
 10
7972.7157289618717186
 20
1938.3367138287389935
 30
0.0
 40
6.649729990104281
 50
105.1241151780681946
 51
109.225468967958605
  0
ARC
  5
127A3
  8
0
 10
7971.4614871801986737
 20
1941.9987539904109326
 30
0.0
 40
2.7790004006588331
 50
109.6701334129182044
 51
116.4953613393576006
  0
ARC
  5
127A4
  8
0
 10
7971.0268353388128162
 20
1942.8774312277400895
 30
0.0
 40
1.7987035022462561
 50
116.5909113499888008
 51
129.359355057186491
  0
ARC
  5
127A5
  8
0
 10
7970.7186150452207585
 20
1943.2106027180871024
 30
0.0
 40
1.3459041737434501
 50
128.209046227315298
 51
137.8199902243146937
  0
ARC
  5
127A6
  8
0
 10
7971.1927489604231596
 20
1942.8989680232321007
 30
0.0
 40
1.908510375795851
 50
140.4456483687660011
 51
170.440366651253413
  0
ARC
  5
127A7
  8
0
 10
7974.3277725448815545
 20
1942.4610122651390611
 30
0.0
 40
5.073508556253997
 50
171.4429318138421081
 51
179.2853407953707006
  0
ARC
  5
127A8
  8
0
 10
7992.0528170073803267
 20
1941.3114656400430249
 30
0.0
 40
22.8107079690788908
 50
179.5511560061941907
 51
179.9820799307732955
  0
ARC
  5
127A9
  8
0
 10
7968.6458465739560779
 20
1941.3437827938089413
 30
0.0
 40
0.5967951317859451
 50
329.3903791381699762
 51
357.5815895449179038
  0
ARC
  5
127AA
  8
0
 10
7968.5509231957030352
 20
1941.3835712517739012
 30
0.0
 40
0.6986112631098845
 50
299.6033289205336132
 51
322.6651075978625727
  0
ARC
  5
127AB
  8
0
 10
7971.4872081995354165
 20
1944.2785108542159378
 30
0.0
 40
2.219303046324741
 50
152.7312192925109002
 51
171.6073973995777067
  0
ARC
  5
127AC
  8
0
 10
7975.4915029055373452
 20
1943.720275684904891
 30
0.0
 40
6.2622766244536274
 50
171.901924754569194
 51
174.137312518623304
  0
ARC
  5
127AD
  8
0
 10
7975.926781318524263
 20
1943.7158035025890968
 30
0.0
 40
6.6958546975309217
 50
174.4796985712405046
 51
177.4203752185792098
  0
ARC
  5
127AE
  8
0
 10
8262.9298303310006304
 20
1935.6298633470630648
 30
0.0
 40
293.8118569685570947
 50
178.3641827835928098
 51
178.5640493589970959
  0
ARC
  5
127AF
  8
0
 10
7969.0315740754504077
 20
1941.0280555396188902
 30
0.0
 40
0.1279271731211526
 50
350.3450673839651017
 51
1.599775328083701
  0
ARC
  5
127B0
  8
0
 10
7969.1067927439189589
 20
1941.0133128958430007
 30
0.0
 40
0.0513372411632536
 50
289.3468868931063867
 51
352.4868523968900718
  0
ARC
  5
127B1
  8
0
 10
7969.0871288120997633
 20
1941.0599042016970088
 30
0.0
 40
0.1018596879491488
 50
275.3316436254988844
 51
291.1012725008940834
  0
ARC
  5
127B2
  8
0
 10
7968.1293392913166826
 20
1950.51797289163801
 30
0.0
 40
9.6082977590152847
 50
274.6254278779109086
 51
275.777675663156117
  0
ARC
  5
127B3
  8
0
 10
7968.7395587386772604
 20
1945.1928494435289849
 30
0.0
 40
0.7868897402204644
 50
323.5867444335215737
 51
357.2858539542949075
  0
ARC
  5
127B4
  8
0
 10
7968.5233896266881857
 20
1945.3404290428909462
 30
0.0
 40
1.048500760101968
 50
317.4827207367870869
 51
324.1088037746948771
  0
ARC
  5
127B5
  8
0
 10
7968.6667862636340942
 20
1945.2152648401679471
 30
0.0
 40
0.8671370208545
 50
325.241337580575987
 51
11.7517708400326892
  0
ARC
  5
127B6
  8
0
 10
7968.699457410280047
 20
1945.185510753032986
 30
0.0
 40
0.8233528176851365
 50
316.1926984481913223
 51
325.646225849412474
  0
ARC
  5
127B7
  8
0
 10
7968.6294713126117131
 20
1945.2148443052890343
 30
0.0
 40
0.9037840576823505
 50
11.2960612339423303
 51
43.917548672246852
  0
LINE
  5
127B8
  8
0
 10
7972.0098276895878371
 20
1947.4098082966900165
 30
0.0
 11
7972.0098276895878371
 21
1947.3724067307400674
 31
0.0
  0
LINE
  5
127B9
  8
0
 10
7970.4229222570902493
 20
1949.2011468791149582
 30
0.0
 11
7970.4229222570902493
 21
1949.2995720761900884
 31
0.0
  0
ARC
  5
127BA
  8
0
 10
7970.4824954014920877
 20
1949.2011468791149582
 30
0.0
 40
0.059573144403027
 50
179.9999998316058054
 51
216.2761647426549985
  0
ARC
  5
127BB
  8
0
 10
7968.9268593085971588
 20
1948.0594146104269839
 30
0.0
 40
1.8700786964426579
 50
0.5968413914459828
 51
36.27616474265497
  0
ARC
  5
127BC
  8
0
 10
7970.8165205372715718
 20
1948.0790996350870046
 30
0.0
 40
0.0196850611084188
 50
180.5968413914459063
 51
269.9145137720619232
  0
LINE
  5
127BD
  8
0
 10
7970.9544185698878209
 20
1947.4098082966900165
 30
0.0
 11
7970.9544183200887346
 21
1947.823194123390067
 31
0.0
  0
LINE
  5
127BE
  8
0
 10
7970.9544183200887346
 20
1947.823194123390067
 30
0.0
 11
7970.8756781625888834
 21
1947.8892649604899816
 31
0.0
  0
LINE
  5
127BF
  8
0
 10
7970.8756781625888834
 20
1947.8892649604899816
 30
0.0
 11
7970.8756781625888834
 21
1948.0594145958900754
 31
0.0
  0
LINE
  5
127C0
  8
0
 10
7971.1611112334885547
 20
1947.4098082966900165
 30
0.0
 11
7971.1611112334885547
 21
1947.3724067307400674
 31
0.0
  0
ARC
  5
127C1
  8
0
 10
7968.6969910896114015
 20
1950.6054266949179237
 30
0.0
 40
4.2606145552280381
 50
262.7499215577220752
 51
277.2500784422779248
  0
ARC
  5
127C2
  8
0
 10
7822.5651581031434034
 20
1943.6880070915699434
 30
0.0
 40
146.6941168035286864
 50
359.1415322920385051
 51
359.5454719638897245
  0
ARC
  5
127C3
  8
0
 10
8068.9907225366687271
 20
1939.0390359234629614
 30
0.0
 40
99.8587768844088544
 50
177.7309637892035994
 51
178.3636151507961074
  0
ARC
  5
127C4
  8
0
 10
8005.63750391128724
 20
1940.8999187964159319
 30
0.0
 40
36.4782902985319026
 50
178.4436929181584048
 51
179.7931279381386958
  0
ARC
  5
127C5
  8
0
 10
7968.63384343783855
 20
1944.8108440984710796
 30
0.0
 40
3.879306396410342
 50
266.0042252791478745
 51
273.9957747208521255
  0
ARC
  5
127C6
  8
0
 10
7968.63384343783855
 20
1941.2367052570880332
 30
0.0
 40
0.5299544670982711
 50
240.3475511232234112
 51
299.6524488767765888
  0
ARC
  5
127C7
  8
0
 10
7972.3981951141422542
 20
1939.7756600070169952
 30
0.0
 40
5.178235126290037
 50
100.579040449084701
 51
105.8865116291487993
  0
ARC
  5
127C8
  8
0
 10
7944.5804920637101532
 20
2098.2677001203292093
 30
0.0
 40
155.7368156245194939
 50
279.9341105154755951
 51
280.4185341606968223
  0
ARC
  5
127C9
  8
0
 10
7970.268789682077113
 20
1959.4651193307020094
 30
0.0
 40
14.57819061499921
 50
279.7736042270802272
 51
280.9432779292386044
  0
ARC
  5
127CA
  8
0
 10
7972.5056224853251479
 20
1947.0809050001259948
 30
0.0
 40
0.1968403318428034
 50
182.0656643946684881
 51
278.6455587079943825
  0
ARC
  5
127CB
  8
0
 10
7976.5399047465216427
 20
1921.4893465724319412
 30
0.0
 40
25.7107541023739792
 50
98.3602843692185473
 51
98.960844526386964
  0
ARC
  5
127CC
  8
0
 10
7972.8156292447838496
 20
1946.83514450102507
 30
0.0
 40
0.0927989067923638
 50
30.16682861439552
 51
98.675570187611541
  0
ARC
  5
127CD
  8
0
 10
7970.9557460952619294
 20
1946.1842078794200006
 30
0.0
 40
2.0617094251970669
 50
14.7086379369846405
 51
19.7760983546845317
  0
ARC
  5
127CE
  8
0
 10
7968.5681562697718618
 20
1945.4958000993669884
 30
0.0
 40
4.5462371155100341
 50
359.2184173157900773
 51
15.4601736783834003
  0
ARC
  5
127CF
  8
0
 10
7970.1539471433343351
 20
1945.4504881045891125
 30
0.0
 40
2.9600703831435031
 50
355.5617144213999268
 51
359.676707340974076
  0
ARC
  5
127D0
  8
0
 10
7973.0181862892850404
 20
1945.2388435205969017
 30
0.0
 40
0.0886827528551501
 50
281.7667418828871746
 51
348.6709024708765128
  0
ARC
  5
127D1
  8
0
 10
8027.7580860443767961
 20
1949.0873352469150177
 30
0.0
 40
48.4406017945373435
 50
180.249688695834692
 51
180.971444137209204
  0
ARC
  5
127D2
  8
0
 10
7983.8060825056318208
 20
1948.3420620639569734
 30
0.0
 40
4.4822800887775998
 50
180.971444137209204
 51
193.4154545968501964
  0
LINE
  5
127D3
  8
0
 10
7980.8688958517886931
 20
1948.089246404889991
 30
0.0
 11
7979.6892077289876397
 21
1948.089246404889991
 31
0.0
  0
ARC
  5
127D4
  8
0
 10
7979.6892077289876397
 20
1948.0695613653711007
 30
0.0
 40
0.0196850395191319
 50
90.0
 51
179.7000102915820037
  0
LINE
  5
127D5
  8
0
 10
7979.6766895855889743
 20
1948.084753365458937
 30
0.0
 11
7979.6766895855889743
 21
1947.3445845555550022
 31
0.0
  0
LINE
  5
127D6
  8
0
 10
7979.6695229592878604
 20
1948.0696644319889401
 30
0.0
 11
7979.6657015234532082
 21
1947.3398306285801027
 31
0.0
  0
LINE
  5
127D7
  8
0
 10
7979.6688155697893308
 20
1947.4216193346899217
 30
0.0
 11
7979.6695229592878604
 21
1948.0696644319889401
 31
0.0
  0
LINE
  5
127D8
  8
0
 10
7980.3873194748894093
 20
1949.1893358556899329
 30
0.0
 11
7980.1707839393902759
 21
1949.1893358556899329
 31
0.0
  0
LINE
  5
127D9
  8
0
 10
7980.1609415540888222
 20
1949.1794931092899787
 30
0.0
 11
7980.1609415540888222
 21
1949.0023287899900879
 31
0.0
  0
LINE
  5
127DA
  8
0
 10
7980.1707840157887404
 20
1948.9924854619900998
 30
0.0
 11
7980.3873192631899656
 21
1948.9924854619900998
 31
0.0
  0
ARC
  5
127DB
  8
0
 10
7980.1707840737926745
 20
1949.1794933359840343
 30
0.0
 40
0.0098425197060276
 50
90.0007823960537934
 51
180.001319647880905
  0
ARC
  5
127DC
  8
0
 10
7980.1707840738126833
 20
1949.0023279817460207
 30
0.0
 40
0.009842519756933
 50
179.9952950130436875
 51
269.9996622291882886
  0
LINE
  5
127DD
  8
0
 10
7980.1806265933892064
 20
1948.9924854619900998
 30
0.0
 11
7980.1806265933892064
 21
1949.1893358556899329
 31
0.0
  0
LINE
  5
127DE
  8
0
 10
7980.3774769870879027
 20
1948.9924854619900998
 30
0.0
 11
7980.3774769870879027
 21
1949.1893358556899329
 31
0.0
  0
LINE
  5
127DF
  8
0
 10
7980.1806265933892064
 20
1949.1735878241900082
 30
0.0
 11
7980.3774769870879027
 21
1949.1735878241900082
 31
0.0
  0
LINE
  5
127E0
  8
0
 10
7980.1806265933892064
 20
1949.1716063649889747
 30
0.0
 11
7980.3774769870879027
 21
1949.1716063649889747
 31
0.0
  0
LINE
  5
127E1
  8
0
 10
7980.1806265933892064
 20
1949.1666457556889327
 30
0.0
 11
7980.3774769870879027
 21
1949.1666457556889327
 31
0.0
  0
LINE
  5
127E2
  8
0
 10
7980.1806265933892064
 20
1949.1236753510900144
 30
0.0
 11
7980.3774769870879027
 21
1949.1236753510900144
 31
0.0
  0
LINE
  5
127E3
  8
0
 10
7980.1806265933892064
 20
1949.0144131855900014
 30
0.0
 11
7980.3774769870879027
 21
1949.0144131855900014
 31
0.0
  0
LINE
  5
127E4
  8
0
 10
7980.3971620264892408
 20
1949.1794941381899662
 30
0.0
 11
7980.3971620264892408
 21
1949.0023278039889192
 31
0.0
  0
ARC
  5
127E5
  8
0
 10
7980.3873195067653796
 20
1949.1794933359340121
 30
0.0
 40
0.0098425197558943
 50
0.0046701327439067
 51
90.0001855629391372
  0
ARC
  5
127E6
  8
0
 10
7980.3873195067817505
 20
1949.0023279816939521
 30
0.0
 40
0.0098425197078866
 50
269.9985819797843192
 51
359.9989655352761133
  0
ARC
  5
127E7
  8
0
 10
7968.2549395561591155
 20
1954.2833449944159838
 30
0.0
 40
7.9649553857482349
 50
277.0656569013059993
 51
279.6213859660030039
  0
ARC
  5
127E8
  8
0
 10
7977.0696695246451782
 20
1902.0008436230129973
 30
0.0
 40
45.0554163068340401
 50
98.4307929138385163
 51
99.5608688536321864
  0
ARC
  5
127E9
  8
0
 10
7969.3723805102399638
 20
1953.7333466636639514
 30
0.0
 40
7.246643790698192
 50
278.6629708947115773
 51
280.6134790858860129
  0
ARC
  5
127EA
  8
0
 10
7970.6671627137438918
 20
1946.7935500116959702
 30
0.0
 40
0.1871790758409862
 50
282.3152122554690209
 51
358.295685048989526
  0
LINE
  5
127EB
  8
0
 10
7970.8542589858889187
 20
1946.7879830212889374
 30
0.0
 11
7970.8747663509993799
 21
1947.3724067307400674
 31
0.0
  0
ARC
  5
127EC
  8
0
 10
7968.63384343783855
 20
1945.229387978323075
 30
0.0
 40
0.8905779373669233
 50
43.4386446556218573
 51
136.5613553443780859
  0
ARC
  5
127ED
  8
0
 10
7980.8688958515886043
 20
1948.0695613653711007
 30
0.0
 40
0.0196850395191319
 50
0.2999897084179406
 51
90.0
  0
LINE
  5
127EE
  8
0
 10
7980.8814139949890887
 20
1948.084753365458937
 30
0.0
 11
7980.8814139949890887
 21
1947.3445845555550022
 31
0.0
  0
LINE
  5
127EF
  8
0
 10
7980.888580621289293
 20
1948.0696644319889401
 30
0.0
 11
7980.8924020571257643
 21
1947.3398306285801027
 31
0.0
  0
LINE
  5
127F0
  8
0
 10
7980.8892880107887322
 20
1947.4216193346899217
 30
0.0
 11
7980.888580621289293
 21
1948.0696644319889401
 31
0.0
  0
ARC
  5
127F1
  8
0
 10
7932.8000175362021764
 20
1949.0873352469150177
 30
0.0
 40
48.4406017945373435
 50
359.0285558627908244
 51
359.7503113041652227
  0
ARC
  5
127F2
  8
0
 10
7976.7520210749453327
 20
1948.3420620639569734
 30
0.0
 40
4.4822800887775998
 50
346.5845563612537035
 51
359.0285558627908244
  0
LINE
  5
127F4
  8
0
 10
7979.3179442217851829
 20
1949.2995720761900884
 30
0.0
 11
7981.2401593587937896
 21
1949.2995720761900884
 31
0.0
  0
ARC
  5
127F5
  8
0
 10
7980.2793949001379588
 20
1952.8850957791710243
 30
0.0
 40
7.3985698058607454
 50
261.2521712424120892
 51
278.7478287575879108
  0
ARC
  5
127F6
  8
0
 10
7979.8062657066348038
 20
1949.6152317394569309
 30
0.0
 40
4.0948944281807549
 50
252.886228224582311
 51
260.8369561766995162
  0
ARC
  5
127F7
  8
0
 10
7978.7426364843549891
 20
1945.8163071553449299
 30
0.0
 40
0.1750488438686352
 50
252.5989694903437055
 51
276.4209336560880956
  0
ARC
  5
127F8
  8
0
 10
7978.6989449935826997
 20
1945.6806490290550755
 30
0.0
 40
0.0325521833373356
 50
202.3540957033087864
 51
254.574754784439591
  0
ARC
  5
127F9
  8
0
 10
7978.6930672387288723
 20
1945.6773621049699159
 30
0.0
 40
0.0258785272095461
 50
180.0749966295803119
 51
200.5727751198988926
  0
LINE
  5
127FA
  8
0
 10
7978.6671887336888176
 20
1945.6773282315900815
 30
0.0
 11
7978.6671887336888176
 21
1945.6819552391768866
 31
0.0
  0
ARC
  5
127FB
  8
0
 10
7978.7570516667456104
 20
1945.6945271052720727
 30
0.0
 40
0.0524253778120042
 50
275.6494856249370855
 51
301.5729793750758176
  0
LINE
  5
127FC
  8
0
 10
7979.0897778818471124
 20
1945.5835068511639747
 30
0.0
 11
7979.090277688788774
 21
1945.5594380414900115
 31
0.0
  0
ARC
  5
127FD
  8
0
 10
7979.161103340327827
 20
1945.7045960121909047
 30
0.0
 40
0.1789619530092974
 50
258.7519731231868718
 51
281.7140185853796197
  0
ARC
  5
127FE
  8
0
 10
7979.136788272380727
 20
1945.5943687868859797
 30
0.0
 40
0.0661508247264675
 50
238.6000225490359128
 51
260.7856449677826731
  0
ARC
  5
127FF
  8
0
 10
7979.1171331282048413
 20
1945.5603258824819477
 30
0.0
 40
0.0268701114236618
 50
181.8935091774588955
 51
236.552552404205386
  0
ARC
  5
12800
  8
0
 10
7979.1895191081548546
 20
1945.558585124432966
 30
0.0
 40
0.0302776059670089
 50
285.1605058819196756
 51
348.7465199857489893
  0
LINE
  5
12801
  8
0
 10
7979.2192145795897886
 20
1945.5526764528899548
 30
0.0
 11
7979.2204789421921305
 21
1945.5626934782831086
 31
0.0
  0
ARC
  5
12802
  8
0
 10
7979.1030584481850383
 20
1945.6213529110309537
 30
0.0
 40
0.0450281782352957
 50
231.3876657655528959
 51
252.9902029968066017
  0
ARC
  5
12803
  8
0
 10
7979.5431833347111024
 20
1945.6326688774850027
 30
0.0
 40
0.1428319328992042
 50
250.0063531000488979
 51
288.4290549217370199
  0
ARC
  5
12804
  8
0
 10
7979.5072020899342533
 20
1945.5267942739269529
 30
0.0
 40
0.0311274729776683
 50
187.0749796917008894
 51
245.6073293628786871
  0
ARC
  5
12805
  8
0
 10
7979.5769496535922372
 20
1945.5236184415700791
 30
0.0
 40
0.0288029998493783
 50
293.2875859351477175
 51
347.3460867021457261
  0
LINE
  5
12806
  8
0
 10
7979.4763116271888066
 20
1945.5229603613900053
 30
0.0
 11
7979.4759503959776339
 21
1945.5302694091230933
 31
0.0
  0
LINE
  5
12807
  8
0
 10
7979.7525034955888259
 20
1945.479417594789993
 30
0.0
 11
7979.7550927972588397
 21
1945.5051137053610546
 31
0.0
  0
LINE
  5
12808
  8
0
 10
7979.6219421075738865
 20
1945.5157824054499542
 30
0.0
 11
7979.6234364840893249
 21
1945.4829630136889591
 31
0.0
  0
ARC
  5
12809
  8
0
 10
7979.6905957494363975
 20
1945.6204480648270874
 30
0.0
 40
0.1691108151483747
 50
254.2128734134821002
 51
285.4411725025323108
  0
ARC
  5
1280A
  8
0
 10
7979.6570377837006163
 20
1945.4939222979890019
 30
0.0
 40
0.0382871413118663
 50
230.1157984329468036
 51
251.0222626068674003
  0
ARC
  5
1280B
  8
0
 10
7979.6486962620519989
 20
1945.4839403581900115
 30
0.0
 40
0.0252786784666126
 50
182.2157675469009916
 51
230.1157984329867077
  0
ARC
  5
1280C
  8
0
 10
7979.7248860376830635
 20
1945.483160866649996
 30
0.0
 40
0.0278699850275044
 50
292.6556057306589764
 51
352.2811651799424908
  0
ARC
  5
1280D
  8
0
 10
7979.8661930123607817
 20
1945.629242593689014
 30
0.0
 40
0.1436655552184904
 50
251.8599808602814107
 51
285.8142927867650087
  0
ARC
  5
1280E
  8
0
 10
7979.8898824810848964
 20
1945.5384268071679799
 30
0.0
 40
0.0498696686796331
 50
288.0625052256010008
 51
300.5550776973234974
  0
ARC
  5
1280F
  8
0
 10
7979.8355301822975889
 20
1945.5284884542470536
 30
0.0
 40
0.0384372158277077
 50
224.5200864722625056
 51
248.5340344975282107
  0
ARC
  5
12810
  8
0
 10
7980.0257877116428062
 20
1945.5982372390719775
 30
0.0
 40
0.1512099842689137
 50
251.4004457303244067
 51
287.3904839567932754
  0
ARC
  5
12811
  8
0
 10
7980.061101774571398
 20
1945.4804514077950444
 30
0.0
 40
0.0282934125652889
 50
290.4381008416527266
 51
354.0485929123620963
  0
LINE
  5
12812
  8
0
 10
7980.0892426909877031
 20
1945.4775178062889154
 30
0.0
 11
7980.0901821267825653
 21
1945.4889385484671038
 31
0.0
  0
ARC
  5
12813
  8
0
 10
7979.9880510191896974
 20
1945.4809037167131009
 30
0.0
 40
0.0280175978319005
 50
184.71047774106259
 51
248.0078342440907875
  0
LINE
  5
12814
  8
0
 10
7979.9601280539882282
 20
1945.4786028901889949
 30
0.0
 11
7979.9591577460623739
 21
1945.4934490836731129
 31
0.0
  0
ARC
  5
12815
  8
0
 10
7980.7525240936420232
 20
1949.6152317394569309
 30
0.0
 40
4.0948944281807549
 50
279.1630438233004838
 51
287.1137717754177174
  0
ARC
  5
12816
  8
0
 10
7981.8161533159218379
 20
1945.8163071553449299
 30
0.0
 40
0.1750488438686352
 50
263.5790663439117907
 51
287.4010305096563229
  0
ARC
  5
12817
  8
0
 10
7981.8598448066932178
 20
1945.6806490290550755
 30
0.0
 40
0.0325521833373356
 50
285.4252452155603805
 51
337.6459042966911852
  0
ARC
  5
12818
  8
0
 10
7981.8657225615497737
 20
1945.6773621049699159
 30
0.0
 40
0.0258785272095461
 50
339.4272248801009937
 51
359.9250033704195744
  0
LINE
  5
12819
  8
0
 10
7981.8916010665889189
 20
1945.6773282315900815
 30
0.0
 11
7981.8916010665889189
 21
1945.6819552391768866
 31
0.0
  0
ARC
  5
1281A
  8
0
 10
7981.8017381335321261
 20
1945.6945271052720727
 30
0.0
 40
0.0524253778120042
 50
238.4270206249242108
 51
264.3505143750628008
  0
LINE
  5
1281B
  8
0
 10
7981.4690119184306241
 20
1945.5835068511639747
 30
0.0
 11
7981.4685121114889625
 21
1945.5594380414900115
 31
0.0
  0
ARC
  5
1281C
  8
0
 10
7981.397686459949
 20
1945.7045960121909047
 30
0.0
 40
0.1789619530092974
 50
258.2859814146203803
 51
281.2480268768131282
  0
ARC
  5
1281D
  8
0
 10
7981.422001527897919
 20
1945.5943687868859797
 30
0.0
 40
0.0661508247264675
 50
279.2143550322173269
 51
301.3999774509640019
  0
ARC
  5
1281E
  8
0
 10
7981.4416566720719857
 20
1945.5603258824819477
 30
0.0
 40
0.0268701114236618
 50
303.4474475957944719
 51
358.1064908225412182
  0
ARC
  5
1281F
  8
0
 10
7981.3692706921228819
 20
1945.558585124432966
 30
0.0
 40
0.0302776059670089
 50
191.2534800142508971
 51
254.8394941180802959
  0
LINE
  5
12820
  8
0
 10
7981.3395752206888574
 20
1945.5526764528899548
 30
0.0
 11
7981.3383104917802484
 21
1945.5626963803740637
 31
0.0
  0
ARC
  5
12821
  8
0
 10
7981.4557313520917887
 20
1945.6213529110309537
 30
0.0
 40
0.0450281782352957
 50
287.0097970031933983
 51
308.6123342344470188
  0
ARC
  5
12822
  8
0
 10
7981.0156064655666341
 20
1945.6326688774850027
 30
0.0
 40
0.1428319328992042
 50
251.5709450782630086
 51
289.9936468999511021
  0
ARC
  5
12823
  8
0
 10
7981.0515877103443927
 20
1945.5267942739269529
 30
0.0
 40
0.0311274729776683
 50
294.3926706371212845
 51
352.9250203082991106
  0
ARC
  5
12824
  8
0
 10
7980.9818401466864088
 20
1945.5236184415700791
 30
0.0
 40
0.0288029998493783
 50
192.6539132978543023
 51
246.712414064852311
  0
LINE
  5
12825
  8
0
 10
7981.0824781730889299
 20
1945.5229603613900053
 30
0.0
 11
7981.0828394043001026
 21
1945.5302694091230933
 31
0.0
  0
LINE
  5
12826
  8
0
 10
7980.8062863046880011
 20
1945.479417594789993
 30
0.0
 11
7980.8036970030179873
 21
1945.5051137053610546
 31
0.0
  0
LINE
  5
12827
  8
0
 10
7980.9368476927047595
 20
1945.5157824054499542
 30
0.0
 11
7980.9353533161902305
 21
1945.4829630136889591
 31
0.0
  0
ARC
  5
12828
  8
0
 10
7980.8681940508422485
 20
1945.6204480648270874
 30
0.0
 40
0.1691108151483747
 50
254.5588274974676892
 51
285.7871265865178998
  0
ARC
  5
12829
  8
0
 10
7980.9017520165771202
 20
1945.4939222979890019
 30
0.0
 40
0.0382871413118663
 50
288.977737393132486
 51
309.8842015670531964
  0
ARC
  5
1282A
  8
0
 10
7980.9100935382257376
 20
1945.4839403581900115
 30
0.0
 40
0.0252786784666126
 50
309.8842015670132923
 51
357.7842324530989799
  0
ARC
  5
1282B
  8
0
 10
7980.833903762594673
 20
1945.483160866649996
 30
0.0
 40
0.0278699850275044
 50
187.7188348200573955
 51
247.3443942693409952
  0
ARC
  5
1282C
  8
0
 10
7980.6925967879169548
 20
1945.629242593689014
 30
0.0
 40
0.1436655552184904
 50
254.1857072132349913
 51
288.1400191397186745
  0
ARC
  5
1282D
  8
0
 10
7980.6689073191928401
 20
1945.5384268071679799
 30
0.0
 40
0.0498696686796331
 50
239.4449223026765026
 51
251.9374947743989992
  0
ARC
  5
1282E
  8
0
 10
7980.7232596179783286
 20
1945.5284884542470536
 30
0.0
 40
0.0384372158277077
 50
291.465965502471704
 51
315.4799135277374944
  0
ARC
  5
1282F
  8
0
 10
7980.5330020886340208
 20
1945.5982372390719775
 30
0.0
 40
0.1512099842689137
 50
252.6095160432066962
 51
288.5995542696755933
  0
ARC
  5
12830
  8
0
 10
7980.4976880257063385
 20
1945.4804514077950444
 30
0.0
 40
0.0282934125652889
 50
185.9514070876379037
 51
249.5618991583473019
  0
LINE
  5
12831
  8
0
 10
7980.4695471092900334
 20
1945.4775178062889154
 30
0.0
 11
7980.4686076734951712
 21
1945.4889385484671038
 31
0.0
  0
ARC
  5
12832
  8
0
 10
7980.5707387810889486
 20
1945.4809037167131009
 30
0.0
 40
0.0280175978319005
 50
291.9921657559091841
 51
355.2895222589373248
  0
LINE
  5
12833
  8
0
 10
7980.5986617462885988
 20
1945.4786028901889949
 30
0.0
 11
7980.5996320542162721
 21
1945.4934490836731129
 31
0.0
  0
ARC
  5
12834
  8
0
 10
7980.279053352011033
 20
1945.6205716370629943
 30
0.0
 40
0.1947943485801698
 50
258.5075167726146219
 51
281.4913278586723209
  0
ARC
  5
12835
  8
0
 10
7980.2477793846146596
 20
1945.4629797445129498
 30
0.0
 40
0.0341393071526735
 50
192.8393094188967041
 51
257.2460781822269951
  0
LINE
  5
12836
  8
0
 10
7980.2144941979886426
 20
1945.4553921707899917
 30
0.0
 11
7980.2121976336693479
 21
1945.4868311301549966
 31
0.0
  0
ARC
  5
12837
  8
0
 10
7980.3101149778976833
 20
1945.4631884734160394
 30
0.0
 40
0.0343900358326228
 50
283.0156528930759237
 51
346.899088361823317
  0
LINE
  5
12838
  8
0
 10
7980.343609418889173
 20
1945.4553901019889963
 30
0.0
 11
7980.3459054936456596
 21
1945.486824925081919
 31
0.0
  0
LINE
  5
12839
  8
0
 10
7981.2401593587937896
 20
1948.8762371083239486
 30
0.0
 11
7981.2401593587937896
 21
1949.2995720761900884
 31
0.0
  0
LINE
  5
1283A
  8
0
 10
7979.3179442217851829
 20
1948.8762371083239486
 30
0.0
 11
7979.3179442217851829
 21
1949.2995720761900884
 31
0.0
  0
ARC
  5
1283B
  8
0
 10
7979.6806265933892064
 20
1947.4216193202889826
 30
0.0
 40
0.0118110236000176
 50
179.9999301450156111
 51
250.5287797085391901
  0
LINE
  5
1283C
  8
0
 10
7964.9724261151877727
 20
1947.8892649604899816
 30
0.0
 11
7966.3920087130891261
 21
1947.8892649604899816
 31
0.0
  0
LINE
  5
1283D
  8
0
 10
7966.3132685555892749
 20
1947.823194123390067
 30
0.0
 11
7965.0511662726876239
 21
1947.823194123390067
 31
0.0
  0
LINE
  5
1283E
  8
0
 10
7970.9544183200887346
 20
1947.823194123390067
 30
0.0
 11
7972.2165206029876572
 21
1947.823194123390067
 31
0.0
  0
LINE
  5
1283F
  8
0
 10
7972.2952607604893274
 20
1947.8892649604899816
 30
0.0
 11
7970.8756781625888834
 21
1947.8892649604899816
 31
0.0
  0
ENDSEC
  0
EOF
