  0
SECTION
  2
HEADER
  9
$ACADVER
  1
AC1009
  9
$INSBASE
 10
0.0926736988568422
 20
2.4558690548274118
 30
0.0
  9
$EXTMIN
 10
-10.4082633895431602
 20
-0.1276468857725892
 30
0.0
  9
$EXTMAX
 10
10.5936107872568392
 20
3.956806143027408
 30
0.0
  9
$LIMMIN
 10
0.0
 20
0.0
  9
$LIMMAX
 10
22.0
 20
17.0
  9
$ORTHOMODE
 70
     0
  9
$REGENMODE
 70
     1
  9
$FILLMODE
 70
     1
  9
$QTEXTMODE
 70
     0
  9
$MIRRTEXT
 70
     0
  9
$DRAGMODE
 70
     2
  9
$LTSCALE
 40
1.2099999999999991
  9
$OSMODE
 70
  3839
  9
$ATTMODE
 70
     1
  9
$TEXTSIZE
 40
0.2
  9
$TRACEWID
 40
0.05
  9
$TEXTSTYLE
  7
STANDARD
  9
$CLAYER
  8
0
  9
$CELTYPE
  6
BYLAYER
  9
$CECOLOR
 62
   256
  9
$DIMSCALE
 40
1.0
  9
$DIMASZ
 40
0.1875
  9
$DIMEXO
 40
0.0625
  9
$DIMDLI
 40
0.8359999999999999
  9
$DIMRND
 40
0.0
  9
$DIMDLE
 40
0.0
  9
$DIMEXE
 40
0.125
  9
$DIMTP
 40
0.01
  9
$DIMTM
 40
0.01
  9
$DIMTXT
 40
0.15625
  9
$DIMCEN
 40
0.198
  9
$DIMTSZ
 40
0.0
  9
$DIMTOL
 70
     1
  9
$DIMLIM
 70
     0
  9
$DIMTIH
 70
     1
  9
$DIMTOH
 70
     1
  9
$DIMSE1
 70
     0
  9
$DIMSE2
 70
     0
  9
$DIMTAD
 70
     0
  9
$DIMZIN
 70
     0
  9
$DIMBLK
  1

  9
$DIMASO
 70
     1
  9
$DIMSHO
 70
     1
  9
$DIMPOST
  1

  9
$DIMAPOST
  1

  9
$DIMALT
 70
     0
  9
$DIMALTD
 70
     2
  9
$DIMALTF
 40
25.3999999999999986
  9
$DIMLFAC
 40
1.0
  9
$DIMTOFL
 70
     0
  9
$DIMTVP
 40
0.0
  9
$DIMTIX
 70
     0
  9
$DIMSOXD
 70
     0
  9
$DIMSAH
 70
     0
  9
$DIMBLK1
  1

  9
$DIMBLK2
  1

  9
$DIMSTYLE
  2
STANDARD
  9
$DIMCLRD
 70
     0
  9
$DIMCLRE
 70
     0
  9
$DIMCLRT
 70
     0
  9
$DIMTFAC
 40
1.0
  9
$DIMGAP
 40
0.09
  9
$LUNITS
 70
     2
  9
$LUPREC
 70
     4
  9
$SKETCHINC
 40
0.1
  9
$FILLETRAD
 40
0.0
  9
$AUNITS
 70
     0
  9
$AUPREC
 70
     0
  9
$MENU
  1
.
  9
$ELEVATION
 40
0.0
  9
$PELEVATION
 40
0.0
  9
$THICKNESS
 40
0.0
  9
$LIMCHECK
 70
     0
  9
$BLIPMODE
 70
     0
  9
$CHAMFERA
 40
0.0
  9
$CHAMFERB
 40
0.0
  9
$SKPOLY
 70
     0
  9
$TDCREATE
 40
2457564.4407523148693144
  9
$TDUPDATE
 40
2459058.3256365740671754
  9
$TDINDWG
 40
0.2399942361
  9
$TDUSRTIMER
 40
0.2399942361
  9
$USRTIMER
 70
     1
  9
$ANGBASE
 50
0.0
  9
$ANGDIR
 70
     0
  9
$PDMODE
 70
     0
  9
$PDSIZE
 40
0.3125
  9
$PLINEWID
 40
0.0
  9
$COORDS
 70
     1
  9
$SPLFRAME
 70
     0
  9
$SPLINETYPE
 70
     6
  9
$SPLINESEGS
 70
     8
  9
$ATTDIA
 70
     1
  9
$ATTREQ
 70
     1
  9
$HANDLING
 70
     1
  9
$HANDSEED
  5
12D3
  9
$SURFTAB1
 70
     6
  9
$SURFTAB2
 70
     6
  9
$SURFTYPE
 70
     6
  9
$SURFU
 70
     6
  9
$SURFV
 70
     6
  9
$UCSNAME
  2

  9
$UCSORG
 10
0.0
 20
0.0
 30
0.0
  9
$UCSXDIR
 10
1.0
 20
0.0
 30
0.0
  9
$UCSYDIR
 10
0.0
 20
1.0
 30
0.0
  9
$PUCSNAME
  2

  9
$PUCSORG
 10
0.0
 20
0.0
 30
0.0
  9
$PUCSXDIR
 10
1.0
 20
0.0
 30
0.0
  9
$PUCSYDIR
 10
0.0
 20
1.0
 30
0.0
  9
$USERI1
 70
     0
  9
$USERI2
 70
     0
  9
$USERI3
 70
     0
  9
$USERI4
 70
     0
  9
$USERI5
 70
     0
  9
$USERR1
 40
0.0
  9
$USERR2
 40
0.0
  9
$USERR3
 40
0.0
  9
$USERR4
 40
0.0
  9
$USERR5
 40
0.0
  9
$WORLDVIEW
 70
     1
  9
$SHADEDGE
 70
     3
  9
$SHADEDIF
 70
    70
  9
$TILEMODE
 70
     1
  9
$MAXACTVP
 70
    64
  9
$PLIMCHECK
 70
     0
  9
$PEXTMIN
 10
1.0000000000000000E+20
 20
1.0000000000000000E+20
 30
1.0000000000000000E+20
  9
$PEXTMAX
 10
-1.0000000000000000E+20
 20
-1.0000000000000000E+20
 30
-1.0000000000000000E+20
  9
$PLIMMIN
 10
0.0
 20
0.0
  9
$PLIMMAX
 10
12.0
 20
9.0
  9
$UNITMODE
 70
     0
  9
$VISRETAIN
 70
     1
  9
$PLINEGEN
 70
     0
  9
$PSLTSCALE
 70
     1
  0
ENDSEC
  0
SECTION
  2
TABLES
  0
TABLE
  2
VPORT
 70
     1
  0
VPORT
  2
*ACTIVE
 70
     0
 10
0.0
 20
0.0
 11
1.0
 21
1.0
 12
0.0
 22
0.0
 13
0.0
 23
0.0
 14
1.0
 24
1.0
 15
0.0
 25
0.0
 16
-0.0000000000000197
 26
0.0
 36
88.8159920549952915
 17
0.0926737785339356
 27
1.913962624967098
 37
0.0
 40
21.3934652955396807
 41
3.314341846758349
 42
50.0
 43
0.0
 44
0.0
 50
0.0
 51
0.0
 71
     0
 72
   100
 73
     1
 74
     1
 75
     0
 76
     0
 77
     0
 78
     0
  0
ENDTAB
  0
TABLE
  2
LTYPE
 70
     1
  0
LTYPE
  2
CONTINUOUS
 70
     0
  3
Solid line
 72
    65
 73
     0
 40
0.0
  0
ENDTAB
  0
TABLE
  2
LAYER
 70
     2
  0
LAYER
  2
0
 70
     0
 62
     7
  6
CONTINUOUS
  0
LAYER
  2
DEFPOINTS
 70
     0
 62
     7
  6
CONTINUOUS
  0
ENDTAB
  0
TABLE
  2
STYLE
 70
     1
  0
STYLE
  2
STANDARD
 70
     0
 40
0.0
 41
0.8
 50
0.0
 71
     0
 42
0.2
  3
txt
  4

  0
ENDTAB
  0
TABLE
  2
VIEW
 70
     0
  0
ENDTAB
  0
TABLE
  2
UCS
 70
     0
  0
ENDTAB
  0
TABLE
  2
APPID
 70
     8
  0
APPID
  2
ACAD
 70
     0
  0
APPID
  2
ACAD_MLEADERVER
 70
     0
  0
APPID
  2
ACAD_NAV_VCDISPLAY
 70
     0
  0
APPID
  2
ACAD_EXEMPT_FROM_CAD_STANDARDS
 70
     0
  0
APPID
  2
ACDBATTR
 70
     0
  0
APPID
  2
ACADANNOTATIVE
 70
     0
  0
APPID
  2
ACAD_DSTYLE_DIMJAG
 70
     0
  0
APPID
  2
ACAD_DSTYLE_DIMTALN
 70
     0
  0
ENDTAB
  0
TABLE
  2
DIMSTYLE
 70
     1
  0
DIMSTYLE
  2
STANDARD
 70
     0
  3

  4

  5

  6

  7

 40
1.0
 41
0.1875
 42
0.0625
 43
0.38
 44
0.125
 45
0.0
 46
0.0
 47
0.01
 48
0.01
140
0.15625
141
0.09
142
0.0
143
25.3999999999999986
144
1.0
145
0.0
146
1.0
147
0.09
 71
     1
 72
     0
 73
     1
 74
     1
 75
     0
 76
     0
 77
     0
 78
     4
170
     0
171
     2
172
     0
173
     0
174
     0
175
     0
176
     0
177
     0
178
     0
  0
ENDTAB
  0
ENDSEC
  0
SECTION
  2
BLOCKS
  0
BLOCK
  8
0
  2
$MODEL_SPACE
 70
     0
 10
0.0
 20
0.0
 30
0.0
  3
$MODEL_SPACE
  1

  0
ENDBLK
  5
21
  8
0
  0
BLOCK
 67
     1
  8
0
  2
$PAPER_SPACE
 70
     0
 10
0.0
 20
0.0
 30
0.0
  3
$PAPER_SPACE
  1

  0
ENDBLK
  5
1D
 67
     1
  8
0
  0
BLOCK
  8
0
  2
_FILLED
 70
     0
 10
0.0
 20
0.0
 30
0.0
  3
_FILLED
  1

  0
SOLID
  5
F8A
  8
0
  6
BYBLOCK
 62
     0
 10
0.0
 20
0.0
 30
0.0
 11
-1.0
 21
0.1666666667
 31
0.0
 12
-1.0
 22
-0.1666666667
 32
0.0
 13
-1.0
 23
-0.1666666667
 33
0.0
  0
ENDBLK
  5
F8B
  8
0
  6
BYBLOCK
 62
     0
  0
ENDSEC
  0
SECTION
  2
ENTITIES
  0
ATTDEF
  5
E44
  8
DEFPOINTS
 10
0.0931370120220692
 20
2.4542544987524688
 30
0.0
 40
0.001
  1
K-72567T
  3

  2
MODELNUMBER
 70
     0
1001
ACDBATTR
1070
     0
1070
     1
  0
ATTDEF
  5
E45
  8
DEFPOINTS
 10
0.0931370120220692
 20
2.4525878320858041
 30
0.0
 40
0.001
  1
ARTIFACTS
  3

  2
TRADENAME
 70
     0
1001
ACDBATTR
1070
     0
1070
     1
  0
ATTDEF
  5
E46
  8
DEFPOINTS
 10
0.0931370120220692
 20
2.4509211654191381
 30
0.0
 40
0.001
  1
TOWEL BAR
  3

  2
PRODUCT
 70
     0
1001
ACDBATTR
1070
     0
1070
     1
  0
ARC
  5
1031
  8
0
 10
9.0926736988568457
 20
2.4558690548274118
 30
0.0
 40
0.5826771654
 50
300.4480393228047888
 51
239.5519607022019954
  0
ARC
  5
1032
  8
0
 10
9.0926736988568457
 20
2.4558690548274118
 30
0.0
 40
0.4000991824000001
 50
317.561831726723824
 51
222.4381683198027133
  0
ARC
  5
1033
  8
0
 10
8.2749000808104576
 20
1.273683334044978
 30
0.0
 40
0.522563197333666
 50
270.5549186385400731
 51
359.0951143354635064
  0
ARC
  5
1034
  8
0
 10
8.2646162108606909
 20
1.284007813868836
 30
0.0
 40
1.123426490279587
 50
270.2663706982094141
 51
359.2611263979865726
  0
ARC
  5
1035
  8
0
 10
9.092673699016899
 20
2.4558684870873169
 30
0.0
 40
0.295275663919843
 50
0.0405677587005611
 51
179.9594598948783073
  0
LINE
  5
1036
  8
0
 10
8.5414494752456314
 20
2.2309228154845719
 30
0.0
 11
8.5412186100456289
 21
2.2708645832845731
 31
0.0
  0
LINE
  5
1037
  8
0
 10
8.530173710945629
 20
2.6760212238845722
 30
0.0
 11
8.530173710945629
 21
2.6076688488953712
 31
0.0
  0
LINE
  5
1038
  8
0
 10
8.530173710945629
 20
2.307039472284572
 30
0.0
 11
8.530173710945629
 21
2.2348837798845711
 31
0.0
  0
LINE
  5
1039
  8
0
 10
8.5412409268348135
 20
2.6439015654493798
 30
0.0
 11
8.5414494752456314
 21
2.6799821882845709
 31
0.0
  0
LINE
  5
103A
  8
0
 10
9.6438979466456303
 20
2.6799821882845709
 30
0.0
 11
9.6441064943352863
 21
2.643901567266643
 31
0.0
  0
LINE
  5
103B
  8
0
 10
9.655173710945629
 20
2.2348837798845711
 30
0.0
 11
9.655173710945629
 21
2.3036528685352651
 31
0.0
  0
LINE
  5
103C
  8
0
 10
9.655173710945629
 20
2.6076688485223301
 30
0.0
 11
9.655173710945629
 21
2.6760212238845722
 31
0.0
  0
LINE
  5
103D
  8
0
 10
9.64410894517545
 20
2.2674273294408751
 30
0.0
 11
9.6438979466456303
 21
2.2309228154845719
 31
0.0
  0
LINE
  5
103E
  8
0
 10
8.5441328520456317
 20
2.6864604330845721
 30
0.0
 11
8.5694443557028386
 21
2.712066242527531
 31
0.0
  0
LINE
  5
103F
  8
0
 10
8.8508917855456311
 20
3.0091657052845728
 30
0.0
 11
8.8029009745478426
 21
2.9611748942867839
 31
0.0
  0
LINE
  5
1040
  8
0
 10
8.5871596751372312
 20
2.7454335948761739
 30
0.0
 11
8.5389605075456281
 21
2.6972344272845721
 31
0.0
  0
LINE
  5
1041
  8
0
 10
8.8362731348905363
 20
2.9788925698222211
 30
0.0
 11
8.8616657797456302
 21
3.0039933607845728
 31
0.0
  0
LINE
  5
1042
  8
0
 10
8.5389605075456281
 20
2.213670576484573
 30
0.0
 11
8.5908231102456298
 21
2.1618079737845708
 31
0.0
  0
LINE
  5
1043
  8
0
 10
8.5720323592456271
 20
2.1962206647845708
 30
0.0
 11
8.5441328520456317
 21
2.2244445706845721
 31
0.0
  0
LINE
  5
1044
  8
0
 10
9.6412145698456282
 20
2.2244445706845721
 30
0.0
 11
9.6154964865712387
 21
2.1984274541797331
 31
0.0
  0
LINE
  5
1045
  8
0
 10
9.5976250817101203
 20
2.1649087438490611
 30
0.0
 11
9.64638691434563
 21
2.213670576484573
 31
0.0
  0
LINE
  5
1046
  8
0
 10
9.3236816421456297
 20
3.0039933607845728
 30
0.0
 11
9.3519055380456315
 21
2.976093858984572
 31
0.0
  0
LINE
  5
1047
  8
0
 10
9.64638691434563
 20
2.6972344272845721
 30
0.0
 11
9.5981877465178194
 21
2.7454335951123849
 31
0.0
  0
LINE
  5
1048
  8
0
 10
9.3863182390456323
 20
2.9573031025845711
 30
0.0
 11
9.3344557753456279
 21
3.0091655663845742
 31
0.0
  0
LINE
  5
1049
  8
0
 10
9.6159030648566972
 20
2.712066245039376
 30
0.0
 11
9.6412145698456282
 21
2.6864604330845721
 31
0.0
  0
LINE
  5
104A
  8
0
 10
8.9037753862830691
 20
3.0068687159086589
 30
0.0
 11
8.8681440245456322
 21
3.0066767375845731
 31
0.0
  0
LINE
  5
104B
  8
0
 10
9.313242432945632
 20
3.0179525018845719
 30
0.0
 11
9.2454506296062675
 21
3.0179525018845719
 31
0.0
  0
LINE
  5
104C
  8
0
 10
8.9398967921841859
 20
3.0179525018845719
 30
0.0
 11
8.8721049889456332
 21
3.0179525018845719
 31
0.0
  0
LINE
  5
104D
  8
0
 10
9.3172033973456294
 20
3.0066767375845731
 30
0.0
 11
9.2815721140433212
 21
3.006868688994476
 31
0.0
  0
ARC
  5
104E
  8
0
 10
8.5601737109456302
 20
2.2348837798845711
 30
0.0
 40
0.03
 50
179.9999999997999964
 51
224.9999999999998863
  0
ARC
  5
104F
  8
0
 10
8.5601737109456302
 20
2.6760212238845722
 30
0.0
 40
0.03
 50
134.9999999996998952
 51
180.0
  0
ARC
  5
1050
  8
0
 10
8.8721049889456332
 20
2.9879525018845738
 30
0.0
 40
0.03
 50
89.9999999997999112
 51
135.0
  0
ARC
  5
1051
  8
0
 10
9.6251737109456315
 20
2.2348837798845711
 30
0.0
 40
0.03
 50
314.9999999996999236
 51
0.0
  0
ARC
  5
1052
  8
0
 10
9.313242432945632
 20
2.9879525018845738
 30
0.0
 40
0.03
 50
44.9996246539999021
 51
90.0
  0
ARC
  5
1053
  8
0
 10
8.5518443041384486
 20
2.6794713772997678
 30
0.0
 40
0.0104073721055285
 50
137.8133035484995901
 51
177.1867060604764106
  0
ARC
  5
1054
  8
0
 10
8.8686548361869946
 20
2.9962819073731728
 30
0.0
 40
0.0104073735234567
 50
92.8133048915854744
 51
132.1866942548608961
  0
ARC
  5
1055
  8
0
 10
9.3166925860584051
 20
2.9962819079616452
 30
0.0
 40
0.0104073728495987
 50
47.8133050141324034
 51
87.186704594843107
  0
ARC
  5
1056
  8
0
 10
9.6335031164342411
 20
2.6794713766432108
 30
0.0
 40
0.0104073735234478
 50
2.8133048915732339
 51
42.1866942548827524
  0
ARC
  5
1057
  8
0
 10
9.6335031172488108
 20
2.231433626788526
 30
0.0
 40
0.0104073726932974
 50
317.8133041099380875
 51
357.1866967436142772
  0
ARC
  5
1058
  8
0
 10
9.6197603290483116
 20
2.6737789077850889
 30
0.0
 40
0.0354843007005149
 50
3.6230352703784301
 51
41.3769959534408827
  0
ARC
  5
1059
  8
0
 10
8.5518443048690678
 20
2.2314336269939048
 30
0.0
 40
0.0104073729297234
 50
182.8133043244667135
 51
222.1867036663184933
  0
LINE
  5
105A
  8
0
 10
8.7973981090102775
 20
2.4560774118264699
 30
0.0
 11
8.7973981090102811
 21
1.2654307141650341
 31
0.0
  0
LINE
  5
105B
  8
0
 10
9.3879492889226483
 20
2.456077554337182
 30
0.0
 11
9.3879492889226501
 21
1.2695207577926411
 31
0.0
  0
ARC
  5
105C
  8
0
 10
9.0926736990568457
 20
2.4558690548274109
 30
0.0
 40
1.1520582460999971
 50
284.8507874294467115
 51
255.1492125612529094
  0
ARC
  5
105D
  8
0
 10
9.0926736990568457
 20
2.4558690548274109
 30
0.0
 40
1.202159972
 50
284.2185287476546023
 51
255.7814712434582134
  0
ARC
  5
105E
  8
0
 10
9.0926736990568457
 20
2.4558690548274109
 30
0.0
 40
1.500937088199997
 50
279.6812947027664791
 51
255.6658920213739066
  0
LINE
  5
105F
  8
0
 10
-6.6947278759431619
 20
0.888939920927414
 30
0.0
 11
6.8800752736568418
 21
0.888939920927414
 31
0.0
  0
LINE
  5
1060
  8
0
 10
7.6109557243568453
 20
0.8183634701274131
 30
0.0
 11
7.6022818522568443
 21
0.8072763723274141
 31
0.0
  0
LINE
  5
1061
  8
0
 10
7.6022818522568443
 20
0.8072763723274141
 30
0.0
 11
7.5920935330568433
 21
0.7975625704274157
 31
0.0
  0
LINE
  5
1062
  8
0
 10
7.962752439056846
 20
0.7511446453274156
 30
0.0
 11
8.2799611084644376
 21
0.7511446453274156
 31
0.0
  0
LINE
  5
1063
  8
0
 10
7.6436436054568437
 20
0.8357903146274142
 30
0.0
 11
7.7501540138568457
 21
0.8357903146274142
 31
0.0
  0
LINE
  5
1064
  8
0
 10
6.9096028327568417
 20
0.9716170863274119
 30
0.0
 11
6.9921253819568463
 21
0.9716170863274119
 31
0.0
  0
ARC
  5
1065
  8
0
 10
7.4544475479568417
 20
0.9647187147274136
 30
0.0
 40
0.2165354331
 50
252.4347470725998051
 51
309.4700055112999735
  0
ARC
  5
1066
  8
0
 10
7.3243588232568442
 20
0.9924788479274146
 30
0.0
 40
0.157480315
 50
184.6555494410997937
 51
213.9156878927998946
  0
ARC
  5
1067
  8
0
 10
7.8562442459394921
 20
0.8256740933484971
 30
0.0
 40
0.1065714562702516
 50
1.974304259573384
 51
174.5530369569387119
  0
ARC
  5
1068
  8
0
 10
7.1026517876568418
 20
0.9744243654274162
 30
0.0
 40
0.0649606299
 50
4.6555494411999652
 51
153.0280652282000062
  0
ARC
  5
1069
  8
0
 10
6.9921253819568463
 20
1.030672204427413
 30
0.0
 40
0.0590551181
 50
270.0
 51
333.0280652283998961
  0
ARC
  5
106A
  8
0
 10
7.6436436054568437
 20
0.796420235927415
 30
0.0
 40
0.0393700787
 50
90.0
 51
146.1267076103999898
  0
ARC
  5
106B
  8
0
 10
7.5007856546568439
 20
1.1111028908274161
 30
0.0
 40
0.3700787402
 50
213.9156878927998946
 51
252.4347470725998051
  0
ARC
  5
106C
  8
0
 10
6.9096031553555974
 20
0.9420892046304283
 30
0.0
 40
0.0295278816987477
 50
90.000625969289473
 51
180.0000000058491878
  0
LINE
  5
106D
  8
0
 10
6.8800752736568462
 20
0.9420892046274137
 30
0.0
 11
6.8800752736568462
 21
-0.0303510950756012
 31
0.0
  0
LINE
  5
106E
  8
0
 10
7.0447570037568461
 20
1.0038875192670409
 30
0.0
 11
7.0447570037568461
 21
-0.0921494097122144
 31
0.0
  0
LINE
  5
106F
  8
0
 10
7.1673980901568441
 20
0.9796969123459087
 30
0.0
 11
7.1673980901568441
 21
-0.0679588027910816
 31
0.0
  0
LINE
  5
1070
  8
0
 10
7.7501540138568457
 20
0.8357903153835595
 30
0.0
 11
7.7501540138568457
 21
0.0759477941737545
 31
0.0
  0
LINE
  5
1071
  8
0
 10
7.962752439056846
 20
0.8293456176148987
 30
0.0
 11
7.962752439056846
 21
0.0823924919399284
 31
0.0
  0
LINE
  5
1072
  8
0
 10
-6.6947278759431619
 20
0.0227981886274131
 30
0.0
 11
6.8800752736568418
 21
0.0227981886274131
 31
0.0
  0
LINE
  5
1073
  8
0
 10
7.6109557243568453
 20
0.093374639427414
 30
0.0
 11
7.6022818522568443
 21
0.104461737227413
 31
0.0
  0
LINE
  5
1074
  8
0
 10
7.6022818522568443
 20
0.104461737227413
 30
0.0
 11
7.5920935330568433
 21
0.1141755391274115
 31
0.0
  0
LINE
  5
1075
  8
0
 10
7.962752439056846
 20
0.1605934642274116
 30
0.0
 11
8.2698390531566055
 21
0.1605934642274116
 31
0.0
  0
LINE
  5
1076
  8
0
 10
7.6436436054568437
 20
0.075947794927413
 30
0.0
 11
7.7501540138568457
 21
0.075947794927413
 31
0.0
  0
LINE
  5
1077
  8
0
 10
6.9096028327568417
 20
-0.0598789767725849
 30
0.0
 11
6.9921253819568463
 21
-0.0598789767725849
 31
0.0
  0
ARC
  5
1078
  8
0
 10
7.4544475479568417
 20
-0.0529806051725865
 30
0.0
 40
0.2165354331
 50
50.5299944887000478
 51
107.565252927399996
  0
ARC
  5
1079
  8
0
 10
7.3243588232568442
 20
-0.0807407383725876
 30
0.0
 40
0.157480315
 50
146.0843121071999917
 51
175.3444505589000073
  0
ARC
  5
107A
  8
0
 10
7.8562442459394921
 20
0.08606401620633
 30
0.0
 40
0.1065714562702516
 50
185.4469630430612028
 51
358.0256957404266132
  0
ARC
  5
107B
  8
0
 10
7.1026517876568418
 20
-0.0626862558725891
 30
0.0
 40
0.0649606299
 50
206.9719347717997948
 51
355.3444505587997924
  0
ARC
  5
107C
  8
0
 10
6.9921253819568463
 20
-0.1189340948725865
 30
0.0
 40
0.0590551181
 50
26.9719347715999902
 51
90.0
  0
ARC
  5
107D
  8
0
 10
7.6436436054568437
 20
0.1153178736274123
 30
0.0
 40
0.0393700787
 50
213.8732923896000102
 51
270.0
  0
ARC
  5
107E
  8
0
 10
7.5007856546568439
 20
-0.1993647812725898
 30
0.0
 40
0.3700787402
 50
107.565252927399996
 51
146.0843121071999917
  0
ARC
  5
107F
  8
0
 10
6.9096031553555974
 20
-0.0303510950756012
 30
0.0
 40
0.0295278816987477
 50
179.9999999941508122
 51
269.9993740307104986
  0
ARC
  5
1080
  8
0
 10
9.0926736990568457
 20
2.4558690548274109
 30
0.0
 40
0.6485390184592533
 50
297.0838191578935721
 51
242.9161808241701976
  0
ARC
  5
1081
  8
0
 10
-8.9073263011431614
 20
2.4558690548274118
 30
0.0
 40
0.5826771654
 50
300.4480392977978909
 51
239.5519606771950976
  0
ARC
  5
1082
  8
0
 10
-8.9073263011431614
 20
2.4558690548274118
 30
0.0
 40
0.4000991824000001
 50
317.5618316801973151
 51
222.4381682732762044
  0
ARC
  5
1083
  8
0
 10
-8.0895526830967732
 20
1.273683334044978
 30
0.0
 40
0.522563197333666
 50
180.9048856645364083
 51
269.4450813614599838
  0
ARC
  5
1084
  8
0
 10
-8.0792688131470065
 20
1.284007813868836
 30
0.0
 40
1.123426490279587
 50
180.7388736020133138
 51
269.7336293017904154
  0
ARC
  5
1085
  8
0
 10
-8.9073263013032147
 20
2.4558684870873169
 30
0.0
 40
0.295275663919843
 50
0.0405401051216258
 51
179.9594322412993961
  0
LINE
  5
1086
  8
0
 10
-8.356102077531947
 20
2.2309228154845719
 30
0.0
 11
-8.3558712123319445
 21
2.2708645832845731
 31
0.0
  0
LINE
  5
1087
  8
0
 10
-8.3448263132319447
 20
2.6760212238845722
 30
0.0
 11
-8.3448263132319447
 21
2.6076688488953712
 31
0.0
  0
LINE
  5
1088
  8
0
 10
-8.3448263132319447
 20
2.307039472284572
 30
0.0
 11
-8.3448263132319447
 21
2.2348837798845711
 31
0.0
  0
LINE
  5
1089
  8
0
 10
-8.3558935291211291
 20
2.6439015654493798
 30
0.0
 11
-8.356102077531947
 21
2.6799821882845709
 31
0.0
  0
LINE
  5
108A
  8
0
 10
-9.4585505489319441
 20
2.6799821882845709
 30
0.0
 11
-9.4587590966216002
 21
2.643901567266643
 31
0.0
  0
LINE
  5
108B
  8
0
 10
-9.4698263132319447
 20
2.2348837798845711
 30
0.0
 11
-9.4698263132319447
 21
2.3036528685352651
 31
0.0
  0
LINE
  5
108C
  8
0
 10
-9.4698263132319447
 20
2.6076688485223301
 30
0.0
 11
-9.4698263132319447
 21
2.6760212238845722
 31
0.0
  0
LINE
  5
108D
  8
0
 10
-9.4587615474617657
 20
2.2674273294408751
 30
0.0
 11
-9.4585505489319441
 21
2.2309228154845719
 31
0.0
  0
LINE
  5
108E
  8
0
 10
-8.3587854543319473
 20
2.6864604330845721
 30
0.0
 11
-8.3840969579891542
 21
2.712066242527531
 31
0.0
  0
LINE
  5
108F
  8
0
 10
-8.6655443878319467
 20
3.0091657052845728
 30
0.0
 11
-8.6175535768341582
 21
2.9611748942867839
 31
0.0
  0
LINE
  5
1090
  8
0
 10
-8.4018122774235486
 20
2.7454335948761739
 30
0.0
 11
-8.3536131098319437
 21
2.6972344272845721
 31
0.0
  0
LINE
  5
1091
  8
0
 10
-8.6509257371768502
 20
2.9788925698222211
 30
0.0
 11
-8.6763183820319476
 21
3.0039933607845728
 31
0.0
  0
LINE
  5
1092
  8
0
 10
-8.3536131098319437
 20
2.213670576484573
 30
0.0
 11
-8.4054757125319455
 21
2.1618079737845708
 31
0.0
  0
LINE
  5
1093
  8
0
 10
-8.3866849615319445
 20
2.1962206647845708
 30
0.0
 11
-8.3587854543319473
 21
2.2244445706845721
 31
0.0
  0
LINE
  5
1094
  8
0
 10
-9.4558671721319456
 20
2.2244445706845721
 30
0.0
 11
-9.4301490888575543
 21
2.1984274541797331
 31
0.0
  0
LINE
  5
1095
  8
0
 10
-9.4122776839964342
 20
2.1649087438490611
 30
0.0
 11
-9.4610395166319456
 21
2.213670576484573
 31
0.0
  0
LINE
  5
1096
  8
0
 10
-9.1383342444319453
 20
3.0039933607845728
 30
0.0
 11
-9.1665581403319472
 21
2.976093858984572
 31
0.0
  0
LINE
  5
1097
  8
0
 10
-9.4610395166319456
 20
2.6972344272845721
 30
0.0
 11
-9.412840348804135
 21
2.7454335951123849
 31
0.0
  0
LINE
  5
1098
  8
0
 10
-9.2009708413319462
 20
2.9573031025845711
 30
0.0
 11
-9.1491083776319435
 21
3.0091655663845742
 31
0.0
  0
LINE
  5
1099
  8
0
 10
-9.4305556671430146
 20
2.712066245039376
 30
0.0
 11
-9.4558671721319456
 21
2.6864604330845721
 31
0.0
  0
LINE
  5
109A
  8
0
 10
-8.7184279885693847
 20
3.0068687159086589
 30
0.0
 11
-8.6827966268319479
 21
3.0066767375845731
 31
0.0
  0
LINE
  5
109B
  8
0
 10
-9.1278950352319477
 20
3.0179525018845719
 30
0.0
 11
-9.0601032318925832
 21
3.0179525018845719
 31
0.0
  0
LINE
  5
109C
  8
0
 10
-8.7545493944705015
 20
3.0179525018845719
 30
0.0
 11
-8.6867575912319488
 21
3.0179525018845719
 31
0.0
  0
LINE
  5
109D
  8
0
 10
-9.1318559996319451
 20
3.0066767375845731
 30
0.0
 11
-9.0962247163296368
 21
3.006868688994476
 31
0.0
  0
ARC
  5
109E
  8
0
 10
-8.3748263132319458
 20
2.2348837798845711
 30
0.0
 40
0.03
 50
315.0000000000002274
 51
0.0000000001999933
  0
ARC
  5
109F
  8
0
 10
-8.3748263132319458
 20
2.6760212238845722
 30
0.0
 40
0.03
 50
0.0
 51
45.0000000003000835
  0
ARC
  5
10A0
  8
0
 10
-8.6867575912319488
 20
2.9879525018845738
 30
0.0
 40
0.03
 50
45.0000000000000995
 51
90.0000000002000746
  0
ARC
  5
10A1
  8
0
 10
-9.4398263132319471
 20
2.2348837798845711
 30
0.0
 40
0.03
 50
180.0
 51
225.0000000003001048
  0
ARC
  5
10A2
  8
0
 10
-9.1278950352319477
 20
2.9879525018845738
 30
0.0
 40
0.03
 50
90.0
 51
135.0003753460001121
  0
ARC
  5
10A3
  8
0
 10
-8.3664969064247643
 20
2.6794713772997678
 30
0.0
 40
0.0104073721055285
 50
2.8132939395235481
 51
42.1866964515003531
  0
ARC
  5
10A4
  8
0
 10
-8.6833074384733102
 20
2.9962819073731728
 30
0.0
 40
0.0104073735234567
 50
47.8133057451389689
 51
87.1866951084146251
  0
ARC
  5
10A5
  8
0
 10
-9.1313451883447208
 20
2.9962819079616452
 30
0.0
 40
0.0104073728495987
 50
92.813295405156893
 51
132.18669498586749
  0
ARC
  5
10A6
  8
0
 10
-9.4481557187205567
 20
2.6794713766432108
 30
0.0
 40
0.0104073735234478
 50
137.8133057451171908
 51
177.1866951084267043
  0
ARC
  5
10A7
  8
0
 10
-9.4481557195351265
 20
2.231433626788526
 30
0.0
 40
0.0104073726932974
 50
182.8133032563856943
 51
222.1866958900617988
  0
ARC
  5
10A8
  8
0
 10
-9.4344129313346272
 20
2.6737789077850889
 30
0.0
 40
0.0354843007005149
 50
138.6230040465592026
 51
176.3769647296215908
  0
ARC
  5
10A9
  8
0
 10
-8.3664969071553834
 20
2.2314336269939048
 30
0.0
 40
0.0104073729297234
 50
317.8132963336814782
 51
357.1866956755333149
  0
LINE
  5
10AA
  8
0
 10
-8.6120507112965932
 20
2.4560774118264699
 30
0.0
 11
-8.6120507112965967
 21
1.2654307141650341
 31
0.0
  0
LINE
  5
10AB
  8
0
 10
-9.2026018912089622
 20
2.456077554337182
 30
0.0
 11
-9.2026018912089675
 21
1.2695207577926411
 31
0.0
  0
ARC
  5
10AC
  8
0
 10
-8.9073263013431614
 20
2.4558690548274109
 30
0.0
 40
1.1520582460999971
 50
284.8507874387470906
 51
255.1492125705530896
  0
ARC
  5
10AD
  8
0
 10
-8.9073263013431614
 20
2.4558690548274109
 30
0.0
 40
1.202159972
 50
284.2185287565417866
 51
255.7814712523455114
  0
ARC
  5
10AE
  8
0
 10
-8.9073263013431614
 20
2.4558690548274109
 30
0.0
 40
1.500937088199997
 50
284.3341079786259797
 51
260.3187052972334072
  0
LINE
  5
10AF
  8
0
 10
-7.4256083266431601
 20
0.8183634701274131
 30
0.0
 11
-7.416934454543159
 21
0.8072763723274141
 31
0.0
  0
LINE
  5
10B0
  8
0
 10
-7.416934454543159
 20
0.8072763723274141
 30
0.0
 11
-7.4067461353431581
 21
0.7975625704274157
 31
0.0
  0
LINE
  5
10B1
  8
0
 10
-7.7774050413431608
 20
0.7511446453274156
 30
0.0
 11
-8.0946137107507532
 21
0.7511446453274156
 31
0.0
  0
LINE
  5
10B2
  8
0
 10
-7.4582962077431603
 20
0.8357903146274142
 30
0.0
 11
-7.5648066161431622
 21
0.8357903146274142
 31
0.0
  0
LINE
  5
10B3
  8
0
 10
-6.7242554350431583
 20
0.9716170863274119
 30
0.0
 11
-6.8067779842431611
 21
0.9716170863274119
 31
0.0
  0
ARC
  5
10B4
  8
0
 10
-7.2691001502431583
 20
0.9647187147274136
 30
0.0
 40
0.2165354331
 50
230.5299944886999981
 51
287.5652529274001949
  0
ARC
  5
10B5
  8
0
 10
-7.1390114255431589
 20
0.9924788479274146
 30
0.0
 40
0.157480315
 50
326.0843121071999917
 51
355.344450558900121
  0
ARC
  5
10B6
  8
0
 10
-7.6708968482258078
 20
0.8256740933484971
 30
0.0
 40
0.1065714562702516
 50
5.4469630430613369
 51
178.0256957404266132
  0
ARC
  5
10B7
  8
0
 10
-6.9173043899431583
 20
0.9744243654274162
 30
0.0
 40
0.0649606299
 50
26.9719347717999511
 51
175.3444505587999913
  0
ARC
  5
10B8
  8
0
 10
-6.8067779842431611
 20
1.030672204427413
 30
0.0
 40
0.0590551181
 50
206.9719347715999902
 51
270.0
  0
ARC
  5
10B9
  8
0
 10
-7.4582962077431603
 20
0.796420235927415
 30
0.0
 40
0.0393700787
 50
33.8732923896000173
 51
90.0
  0
ARC
  5
10BA
  8
0
 10
-7.3154382569431604
 20
1.1111028908274161
 30
0.0
 40
0.3700787402
 50
287.5652529274001949
 51
326.0843121071999917
  0
ARC
  5
10BB
  8
0
 10
-6.7242557576419131
 20
0.9420892046304283
 30
0.0
 40
0.0295278816987477
 50
359.9999999941508122
 51
89.9993740307104133
  0
LINE
  5
10BC
  8
0
 10
-6.694727875943161
 20
0.9420892046274137
 30
0.0
 11
-6.694727875943161
 21
-0.0303510950756012
 31
0.0
  0
LINE
  5
10BD
  8
0
 10
-6.8594096060431609
 20
1.0038875192670409
 30
0.0
 11
-6.8594096060431609
 21
-0.0921494097122144
 31
0.0
  0
LINE
  5
10BE
  8
0
 10
-6.9820506924431589
 20
0.9796969123459087
 30
0.0
 11
-6.9820506924431589
 21
-0.0679588027910816
 31
0.0
  0
LINE
  5
10BF
  8
0
 10
-7.5648066161431622
 20
0.8357903153835595
 30
0.0
 11
-7.5648066161431622
 21
0.0759477941737545
 31
0.0
  0
LINE
  5
10C0
  8
0
 10
-7.7774050413431608
 20
0.8293456176148987
 30
0.0
 11
-7.7774050413431608
 21
0.0823924919399284
 31
0.0
  0
LINE
  5
10C1
  8
0
 10
-7.4256083266431601
 20
0.093374639427414
 30
0.0
 11
-7.416934454543159
 21
0.104461737227413
 31
0.0
  0
LINE
  5
10C2
  8
0
 10
-7.416934454543159
 20
0.104461737227413
 30
0.0
 11
-7.4067461353431581
 21
0.1141755391274115
 31
0.0
  0
LINE
  5
10C3
  8
0
 10
-7.7774050413431608
 20
0.1605934642274116
 30
0.0
 11
-8.0844916554429211
 21
0.1605934642274116
 31
0.0
  0
LINE
  5
10C4
  8
0
 10
-7.4582962077431603
 20
0.075947794927413
 30
0.0
 11
-7.5648066161431622
 21
0.075947794927413
 31
0.0
  0
LINE
  5
10C5
  8
0
 10
-6.7242554350431583
 20
-0.0598789767725849
 30
0.0
 11
-6.8067779842431611
 21
-0.0598789767725849
 31
0.0
  0
ARC
  5
10C6
  8
0
 10
-7.2691001502431583
 20
-0.0529806051725865
 30
0.0
 40
0.2165354331
 50
72.4347470725998335
 51
129.4700055112998029
  0
ARC
  5
10C7
  8
0
 10
-7.1390114255431589
 20
-0.0807407383725876
 30
0.0
 40
0.157480315
 50
4.6555494410999918
 51
33.9156878927999514
  0
ARC
  5
10C8
  8
0
 10
-7.6708968482258078
 20
0.08606401620633
 30
0.0
 40
0.1065714562702516
 50
181.9743042595733016
 51
354.5530369569386835
  0
ARC
  5
10C9
  8
0
 10
-6.9173043899431583
 20
-0.0626862558725891
 30
0.0
 40
0.0649606299
 50
184.655549441200094
 51
333.0280652282000915
  0
ARC
  5
10CA
  8
0
 10
-6.8067779842431611
 20
-0.1189340948725865
 30
0.0
 40
0.0590551181
 50
90.0
 51
153.0280652283998961
  0
ARC
  5
10CB
  8
0
 10
-7.4582962077431603
 20
0.1153178736274123
 30
0.0
 40
0.0393700787
 50
270.0
 51
326.1267076103998761
  0
ARC
  5
10CC
  8
0
 10
-7.3154382569431604
 20
-0.1993647812725898
 30
0.0
 40
0.3700787402
 50
33.9156878927999514
 51
72.4347470725998335
  0
ARC
  5
10CD
  8
0
 10
-6.7242557576419131
 20
-0.0303510950756012
 30
0.0
 40
0.0295278816987477
 50
270.0006259692896151
 51
0.0000000058491673
  0
ARC
  5
10CE
  8
0
 10
-8.9073263013431614
 20
2.4558690548274109
 30
0.0
 40
0.6485390184592533
 50
297.0838191758297739
 51
242.9161808421063995
  0
ENDSEC
  0
EOF
