  0
SECTION
  2
HEADER
  9
$ACADVER
  1
AC1009
  9
$INSBASE
 10
4210.8605451127641572
 20
215.2356533307668087
 30
0.0
  9
$EXTMIN
 10
4208.562208288813963
 20
207.0728533307668044
 30
0.0
  9
$EXTMAX
 10
4213.158881936715261
 20
215.2406286924810956
 30
0.0
  9
$LIMMIN
 10
0.0
 20
0.0
  9
$LIMMAX
 10
11.6929133858000007
 20
8.2677165353999982
  9
$ORTHOMODE
 70
     0
  9
$REGENMODE
 70
     1
  9
$FILLMODE
 70
     1
  9
$QTEXTMODE
 70
     0
  9
$MIRRTEXT
 70
     0
  9
$DRAGMODE
 70
     2
  9
$LTSCALE
 40
0.6431102362
  9
$OSMODE
 70
  3839
  9
$ATTMODE
 70
     1
  9
$TEXTSIZE
 40
0.2
  9
$TRACEWID
 40
0.05
  9
$TEXTSTYLE
  7
STANDARD
  9
$CLAYER
  8
0
  9
$CELTYPE
  6
BYLAYER
  9
$CECOLOR
 62
   256
  9
$DIMSCALE
 40
1.0
  9
$DIMASZ
 40
0.1875
  9
$DIMEXO
 40
0.0625
  9
$DIMDLI
 40
0.4443307087
  9
$DIMRND
 40
0.0
  9
$DIMDLE
 40
0.0
  9
$DIMEXE
 40
0.125
  9
$DIMTP
 40
0.01
  9
$DIMTM
 40
0.01
  9
$DIMTXT
 40
2.0
  9
$DIMCEN
 40
0.1052362205
  9
$DIMTSZ
 40
0.0
  9
$DIMTOL
 70
     1
  9
$DIMLIM
 70
     0
  9
$DIMTIH
 70
     1
  9
$DIMTOH
 70
     1
  9
$DIMSE1
 70
     0
  9
$DIMSE2
 70
     0
  9
$DIMTAD
 70
     0
  9
$DIMZIN
 70
     0
  9
$DIMBLK
  1

  9
$DIMASO
 70
     1
  9
$DIMSHO
 70
     1
  9
$DIMPOST
  1
\X
  9
$DIMAPOST
  1

  9
$DIMALT
 70
     1
  9
$DIMALTD
 70
     2
  9
$DIMALTF
 40
25.3999999999999986
  9
$DIMLFAC
 40
1.0
  9
$DIMTOFL
 70
     0
  9
$DIMTVP
 40
0.0
  9
$DIMTIX
 70
     0
  9
$DIMSOXD
 70
     0
  9
$DIMSAH
 70
     0
  9
$DIMBLK1
  1

  9
$DIMBLK2
  1

  9
$DIMSTYLE
  2
STANDARD
  9
$DIMCLRD
 70
     0
  9
$DIMCLRE
 70
     0
  9
$DIMCLRT
 70
     0
  9
$DIMTFAC
 40
1.0
  9
$DIMGAP
 40
0.09
  9
$LUNITS
 70
     2
  9
$LUPREC
 70
     4
  9
$SKETCHINC
 40
0.1
  9
$FILLETRAD
 40
0.0
  9
$AUNITS
 70
     0
  9
$AUPREC
 70
     0
  9
$MENU
  1
.
  9
$ELEVATION
 40
0.0
  9
$PELEVATION
 40
0.0
  9
$THICKNESS
 40
0.0
  9
$LIMCHECK
 70
     0
  9
$BLIPMODE
 70
     0
  9
$CHAMFERA
 40
0.0
  9
$CHAMFERB
 40
0.0
  9
$SKPOLY
 70
     0
  9
$TDCREATE
 40
2458060.468368056230247
  9
$TDUPDATE
 40
2459121.5137615739367902
  9
$TDINDWG
 40
0.5863496528
  9
$TDUSRTIMER
 40
0.5863496528
  9
$USRTIMER
 70
     1
  9
$ANGBASE
 50
0.0
  9
$ANGDIR
 70
     0
  9
$PDMODE
 70
     0
  9
$PDSIZE
 40
0.3125
  9
$PLINEWID
 40
0.0
  9
$COORDS
 70
     1
  9
$SPLFRAME
 70
     0
  9
$SPLINETYPE
 70
     6
  9
$SPLINESEGS
 70
     8
  9
$ATTDIA
 70
     1
  9
$ATTREQ
 70
     1
  9
$HANDLING
 70
     1
  9
$HANDSEED
  5
B481
  9
$SURFTAB1
 70
     6
  9
$SURFTAB2
 70
     6
  9
$SURFTYPE
 70
     6
  9
$SURFU
 70
     6
  9
$SURFV
 70
     6
  9
$UCSNAME
  2

  9
$UCSORG
 10
0.0
 20
0.0
 30
0.0
  9
$UCSXDIR
 10
1.0
 20
0.0
 30
0.0
  9
$UCSYDIR
 10
0.0
 20
1.0
 30
0.0
  9
$PUCSNAME
  2

  9
$PUCSORG
 10
0.0
 20
0.0
 30
0.0
  9
$PUCSXDIR
 10
1.0
 20
0.0
 30
0.0
  9
$PUCSYDIR
 10
0.0
 20
1.0
 30
0.0
  9
$USERI1
 70
     0
  9
$USERI2
 70
     0
  9
$USERI3
 70
     0
  9
$USERI4
 70
     0
  9
$USERI5
 70
     0
  9
$USERR1
 40
0.0
  9
$USERR2
 40
0.0
  9
$USERR3
 40
0.0
  9
$USERR4
 40
0.0
  9
$USERR5
 40
0.0
  9
$WORLDVIEW
 70
     1
  9
$SHADEDGE
 70
     3
  9
$SHADEDIF
 70
    70
  9
$TILEMODE
 70
     1
  9
$MAXACTVP
 70
    64
  9
$PLIMCHECK
 70
     0
  9
$PEXTMIN
 10
1.0000000000000000E+20
 20
1.0000000000000000E+20
 30
1.0000000000000000E+20
  9
$PEXTMAX
 10
-1.0000000000000000E+20
 20
-1.0000000000000000E+20
 30
-1.0000000000000000E+20
  9
$PLIMMIN
 10
0.0
 20
0.0
  9
$PLIMMAX
 10
12.0
 20
9.0
  9
$UNITMODE
 70
     0
  9
$VISRETAIN
 70
     1
  9
$PLINEGEN
 70
     0
  9
$PSLTSCALE
 70
     1
  0
ENDSEC
  0
SECTION
  2
TABLES
  0
TABLE
  2
VPORT
 70
     1
  0
VPORT
  2
*ACTIVE
 70
     0
 10
0.0
 20
0.0
 11
1.0
 21
1.0
 12
0.0
 22
0.0
 13
0.0
 23
0.0
 14
1.0
 24
1.0
 15
0.0
 25
0.0
 16
0.0
 26
0.0
 36
38.8812658821493571
 17
4210.8603515625
 27
211.1607119902834881
 37
0.0
 40
9.3654869247123358
 41
3.314341846758349
 42
50.0
 43
0.0
 44
0.0
 50
0.0
 51
0.0
 71
     0
 72
   100
 73
     1
 74
     1
 75
     0
 76
     0
 77
     0
 78
     0
  0
ENDTAB
  0
TABLE
  2
LTYPE
 70
     2
  0
LTYPE
  2
CONTINUOUS
 70
     0
  3
Solid line
 72
    65
 73
     0
 40
0.0
  0
LTYPE
  2
PHANTOM2
 70
     0
  3
___ _ _ ___ _ _ ___ _ _ ___ _ _
 72
    65
 73
     6
 40
1.25
 49
0.625
 49
-0.125
 49
0.125
 49
-0.125
 49
0.125
 49
-0.125
  0
ENDTAB
  0
TABLE
  2
LAYER
 70
     2
  0
LAYER
  2
0
 70
     0
 62
   255
  6
CONTINUOUS
  0
LAYER
  2
DEFPOINTS
 70
     0
 62
     7
  6
CONTINUOUS
  0
ENDTAB
  0
TABLE
  2
STYLE
 70
     1
  0
STYLE
  2
STANDARD
 70
     0
 40
0.0
 41
0.8
 50
0.0
 71
     0
 42
0.2
  3
txt
  4

  0
ENDTAB
  0
TABLE
  2
VIEW
 70
     0
  0
ENDTAB
  0
TABLE
  2
UCS
 70
     0
  0
ENDTAB
  0
TABLE
  2
APPID
 70
     9
  0
APPID
  2
ACAD
 70
     0
  0
APPID
  2
ACAD_MLEADERVER
 70
     0
  0
APPID
  2
ACAD_EXEMPT_FROM_CAD_STANDARDS
 70
     0
  0
APPID
  2
ACAD_NAV_VCDISPLAY
 70
     0
  0
APPID
  2
ACAECLAYERSTANDARD
 70
     0
  0
APPID
  2
ACCMTRANSPARENCY
 70
     0
  0
APPID
  2
ACAD_DSTYLE_DIMJAG
 70
     0
  0
APPID
  2
ACAD_DSTYLE_DIMTALN
 70
     0
  0
APPID
  2
ACDBATTR
 70
     0
  0
ENDTAB
  0
TABLE
  2
DIMSTYLE
 70
     1
  0
DIMSTYLE
  2
STANDARD
 70
     0
  3

  4

  5

  6

  7

 40
1.0
 41
0.1875
 42
0.0625
 43
0.38
 44
0.125
 45
0.0
 46
0.0
 47
0.01
 48
0.01
140
0.15625
141
0.09
142
0.0
143
25.3999999999999986
144
1.0
145
0.0
146
1.0
147
0.09
 71
     1
 72
     0
 73
     1
 74
     1
 75
     0
 76
     0
 77
     0
 78
     4
170
     0
171
     2
172
     0
173
     0
174
     0
175
     0
176
     0
177
     0
178
     0
  0
ENDTAB
  0
ENDSEC
  0
SECTION
  2
BLOCKS
  0
BLOCK
  8
0
  2
$MODEL_SPACE
 70
     0
 10
0.0
 20
0.0
 30
0.0
  3
$MODEL_SPACE
  1

  0
ENDBLK
  5
21
  8
0
  0
BLOCK
 67
     1
  8
0
  2
$PAPER_SPACE
 70
     0
 10
0.0
 20
0.0
 30
0.0
  3
$PAPER_SPACE
  1

  0
ENDBLK
  5
1D
 67
     1
  8
0
  0
BLOCK
  8
0
  2
_FILLED
 70
     0
 10
0.0
 20
0.0
 30
0.0
  3
_FILLED
  1

  0
SOLID
  5
6F59
  8
0
  6
BYBLOCK
 62
     0
 10
0.0
 20
0.0
 30
0.0
 11
-1.0
 21
0.1666666667
 31
0.0
 12
-1.0
 22
-0.1666666667
 32
0.0
 13
-1.0
 23
-0.1666666667
 33
0.0
  0
ENDBLK
  5
6F5A
  8
0
  6
BYBLOCK
 62
     0
  0
ENDSEC
  0
SECTION
  2
ENTITIES
  0
ATTDEF
  5
3930
  8
DEFPOINTS
 10
4210.8611814979703922
 20
215.2396286924810056
 30
0.0
 40
0.001
  1
K-72425IN
  3

  2
MODELNUMBER
 70
     0
1001
ACDBATTR
1070
     0
1070
     1
  0
ATTDEF
  5
3931
  8
DEFPOINTS
 10
4210.8611814979703922
 20
215.2379620258143973
 30
0.0
 40
0.001
  1
AWAKEN
  3

  2
TRADENAME
 70
     0
1001
ACDBATTR
1070
     0
1070
     1
  0
ATTDEF
  5
3932
  8
DEFPOINTS
 10
4210.8611814979703922
 20
215.2362953591477037
 30
0.0
 40
0.001
  1
SHOWERHEAD
  3

  2
PRODUCT
 70
     0
1001
ACDBATTR
1070
     0
1070
     1
  0
LINE
  5
B336
  8
0
 10
4212.1203876324643716
 20
215.0566281337667931
 30
0.0
 11
4212.1203876324643716
 21
215.2356533307668087
 31
0.0
  0
LINE
  5
B337
  8
0
 10
4211.2665451127631968
 20
210.3098506149248124
 30
0.0
 11
4211.2665451127631968
 21
214.7907714409668074
 31
0.0
  0
LINE
  5
B338
  8
0
 10
4212.1203876324643716
 20
215.2356533307668087
 30
0.0
 11
4209.6007025930630334
 21
215.2356533307668087
 31
0.0
  0
LINE
  5
B339
  8
0
 10
4211.4955442787122593
 20
214.7907714409668074
 30
0.0
 11
4210.2255459468160552
 21
214.7907714409668074
 31
0.0
  0
ARC
  5
B33A
  8
0
 10
4212.0613325143640395
 20
215.0566281337667931
 30
0.0
 40
0.0590551180999892
 50
295.1547517716214202
 51
0.0000000000065138
  0
ARC
  5
B33B
  8
0
 10
4210.6639745135908015
 20
218.0322624762877126
 30
0.0
 40
3.3464566942257972
 50
284.3883306509279123
 51
295.1547517716214202
  0
ARC
  5
B33C
  8
0
 10
4211.4164242582319275
 20
208.9768687060445131
 30
0.0
 40
1.742523394795682
 50
307.4836804352718787
 51
359.5023932264992936
  0
ARC
  5
B33D
  8
0
 10
4210.9969765854093566
 20
209.5084418573837866
 30
0.0
 40
2.419607766895675
 50
282.265419394185983
 51
307.7053670707343827
  0
ARC
  5
B33E
  8
0
 10
4211.6032740584441854
 20
209.0760236936311003
 30
0.0
 40
1.541024043865463
 50
314.4871839511063172
 51
2.9976106776898361
  0
ARC
  5
B33F
  8
0
 10
4211.0616418932186207
 20
209.8322969104239064
 30
0.0
 40
2.464288219742075
 50
281.9192760306282253
 51
311.1476013794131177
  0
LINE
  5
B340
  8
0
 10
4212.0864338254687027
 20
215.0031731886668069
 30
0.0
 11
4209.6346564000587023
 21
215.0031731886668069
 31
0.0
  0
ARC
  5
B341
  8
0
 10
4211.0789924096634422
 20
210.3839560829603101
 30
0.0
 40
0.2767947514980129
 50
4.9233636178524751
 51
47.3445806908054223
  0
ARC
  5
B342
  8
0
 10
4211.0659855708099713
 20
210.3963281119951034
 30
0.0
 40
0.289004596344873
 50
308.7536078074815009
 51
2.2573637179737309
  0
ARC
  5
B343
  8
0
 10
4210.915268792943607
 20
210.5591173129091089
 30
0.0
 40
0.5105389594106674
 50
287.7101939949160965
 51
310.5084424421656877
  0
LINE
  5
B344
  8
0
 10
4211.3547389459199621
 20
210.3842804952087135
 30
0.0
 11
4211.355424670915454
 21
210.0715831390668029
 31
0.0
  0
ARC
  5
B345
  8
0
 10
4210.9863410624411699
 20
210.0568232034684968
 30
0.0
 40
0.3693786211224608
 50
350.8162444511037279
 51
2.2900817218723968
  0
ARC
  5
B346
  8
0
 10
4211.0354490397648988
 20
210.0569397486156902
 30
0.0
 40
0.321017256646561
 50
319.8574142599861716
 51
349.3966772852556915
  0
ARC
  5
B347
  8
0
 10
4210.9081741062545916
 20
210.1789389801058121
 30
0.0
 40
0.4970899207631449
 50
281.8689852832545171
 51
318.5654137776239168
  0
ARC
  5
B348
  8
0
 10
4211.0651696170925788
 20
210.3811524798431947
 30
0.0
 40
0.2136259492609555
 50
336.4761079154607728
 51
19.4977402371052904
  0
ARC
  5
B349
  8
0
 10
4210.9364930161245866
 20
210.4636249267855987
 30
0.0
 40
0.3653324219250749
 50
283.6205087877871165
 51
332.6686283745758033
  0
ARC
  5
B34A
  8
0
 10
4211.0895089821060537
 20
209.7493508069223935
 30
0.0
 40
0.410299545493538
 50
23.6623636346887309
 51
49.5529254166486695
  0
ARC
  5
B34B
  8
0
 10
4211.1712717464388334
 20
209.7851781121572117
 30
0.0
 40
0.3210317157238369
 50
353.6735442415616149
 51
23.6623636346887309
  0
ARC
  5
B34C
  8
0
 10
4211.0508558816900404
 20
209.8316511982694124
 30
0.0
 40
0.4470491045919226
 50
292.8176320796329719
 51
349.4504138097037185
  0
LINE
  5
B34D
  8
0
 10
4209.6007025930630334
 20
215.0566281337667931
 30
0.0
 11
4209.6007025930630334
 21
215.2356533307668087
 31
0.0
  0
LINE
  5
B34E
  8
0
 10
4210.4545451127642082
 20
210.3098506149248124
 30
0.0
 11
4210.4545451127642082
 21
214.7907714409668074
 31
0.0
  0
ARC
  5
B34F
  8
0
 10
4209.659757711164275
 20
215.0566281337667931
 30
0.0
 40
0.0590551180999892
 50
179.9999999999934914
 51
244.8452482283786082
  0
ARC
  5
B350
  8
0
 10
4211.0571157119366035
 20
218.0322624762877126
 30
0.0
 40
3.3464566942257972
 50
244.8452482283786082
 51
255.6116693490720877
  0
ARC
  5
B351
  8
0
 10
4210.6420978158648722
 20
210.3839560829603101
 30
0.0
 40
0.2767947514980129
 50
132.655419309194599
 51
175.0766363821475124
  0
ARC
  5
B352
  8
0
 10
4210.6551046547192527
 20
210.3963281119951034
 30
0.0
 40
0.289004596344873
 50
177.7426362820262113
 51
231.2463921925184991
  0
ARC
  5
B353
  8
0
 10
4210.8058214325847075
 20
210.5591173129091089
 30
0.0
 40
0.5105389594106674
 50
229.4915575578341986
 51
252.2898060050839035
  0
LINE
  5
B354
  8
0
 10
4210.3663512796074428
 20
210.3842804952085999
 30
0.0
 11
4210.3656655546137699
 21
210.0715831390668029
 31
0.0
  0
ARC
  5
B355
  8
0
 10
4210.7347491630871446
 20
210.0568232034684968
 30
0.0
 40
0.3693786211224608
 50
177.7099182781275886
 51
189.1837555488963005
  0
ARC
  5
B356
  8
0
 10
4210.6856411857643252
 20
210.0569397486156902
 30
0.0
 40
0.321017256646561
 50
190.6033227147441949
 51
220.1425857400138
  0
ARC
  5
B357
  8
0
 10
4210.8129161192728134
 20
210.1789389801058121
 30
0.0
 40
0.4970899207631449
 50
221.4345862223761117
 51
258.1310147167454829
  0
ARC
  5
B358
  8
0
 10
4210.6559206084348261
 20
210.3811524798431947
 30
0.0
 40
0.2136259492609555
 50
160.5022597628947096
 51
203.5238920845391988
  0
ARC
  5
B359
  8
0
 10
4210.7845972094037279
 20
210.4636249267855987
 30
0.0
 40
0.3653324219250749
 50
207.3313716254228041
 51
256.3794912122128835
  0
ARC
  5
B35A
  8
0
 10
4210.6315812434222607
 20
209.7493508069223935
 30
0.0
 40
0.410299545493538
 50
130.447074583350286
 51
156.3376363653113117
  0
ARC
  5
B35B
  8
0
 10
4210.5498184790903906
 20
209.7851781121572117
 30
0.0
 40
0.3210317157238369
 50
156.3376363653113117
 51
186.3264557584384136
  0
ARC
  5
B35C
  8
0
 10
4210.6702343438382741
 20
209.8316511982694124
 30
0.0
 40
0.4470491045919226
 50
190.54958619029631
 51
247.182367920366886
  0
LINE
  5
B35D
  8
0
 10
4210.2291350064260769
 20
209.8001271208651133
 30
0.0
 11
4210.2157522724637602
 21
209.4151350020142957
 31
0.0
  0
ARC
  5
B35E
  8
0
 10
4210.6968811941824242
 20
209.6044805952402044
 30
0.0
 40
0.5170462193920567
 50
201.4818405605302019
 51
246.0223125000950972
  0
ARC
  5
B35F
  8
0
 10
4210.8605451127641572
 20
209.9384639589817141
 30
0.0
 40
0.8888253486149189
 50
245.1316713012909076
 51
294.8683286987090924
  0
ARC
  5
B360
  8
0
 10
4210.8605451127641572
 20
210.1908547697082952
 30
0.0
 40
0.8527104658415147
 50
244.7547209229369116
 51
295.2452790770631168
  0
ARC
  5
B361
  8
0
 10
4210.8605451127641572
 20
210.3348973149248025
 30
0.0
 40
0.6596701357580276
 50
256.8685540730830894
 51
283.1314459269169106
  0
ARC
  5
B362
  8
0
 10
4210.8605451127641572
 20
210.6655168310763031
 30
0.0
 40
0.5800265801095181
 50
253.7837690750974105
 51
286.216230924902618
  0
ARC
  5
B363
  8
0
 10
4210.8605451127641572
 20
210.7230213736191899
 30
0.0
 40
0.6833260302524448
 50
252.0994574612388988
 51
287.9005425387612149
  0
ARC
  5
B364
  8
0
 10
4210.8605287028503881
 20
210.0575759591407916
 30
0.0
 40
0.4096724482817723
 50
237.0805333272136863
 51
302.9118843257552953
  0
LINE
  5
B366
  8
0
 10
4211.4919552191031471
 20
209.8001271208651133
 30
0.0
 11
4211.5053379530636448
 21
209.4151350020142957
 31
0.0
  0
ARC
  5
B367
  8
0
 10
4211.0242090313458903
 20
209.6044805952402044
 30
0.0
 40
0.5170462193920567
 50
293.9776874999049028
 51
338.5181594394697981
  0
ARC
  5
B368
  8
0
 10
4211.8835570031105817
 20
208.9506474993935967
 30
0.0
 40
1.2753731318707331
 50
0.4981224066488713
 51
35.1328592546825789
  0
ARC
  5
B369
  8
0
 10
4211.29304450330892
 20
208.4865835766254065
 30
0.0
 40
2.0257518184898871
 50
36.2556774848856165
 51
65.5685546793876597
  0
ARC
  5
B36A
  8
0
 10
4210.9501181787136375
 20
207.8060005606155869
 30
0.0
 40
2.787398385791354
 50
64.9369265841773711
 51
83.1935839358210956
  0
ARC
  5
B36B
  8
0
 10
4210.304665967296387
 20
208.9768687060445131
 30
0.0
 40
1.742523394795682
 50
180.4976067735007064
 51
232.5163195647280929
  0
ARC
  5
B36C
  8
0
 10
4210.7241136401198673
 20
209.5084418573837866
 30
0.0
 40
2.419607766895675
 50
232.2946329292655889
 51
257.7345806058139033
  0
ARC
  5
B36D
  8
0
 10
4210.1178161670841291
 20
209.0760236936311003
 30
0.0
 40
1.541024043865463
 50
177.0023893223101084
 51
225.5128160488937112
  0
ARC
  5
B36E
  8
0
 10
4210.6594483323078748
 20
209.8322969104239064
 30
0.0
 40
2.464288219742075
 50
228.8523986205869107
 51
258.0807239693717747
  0
ARC
  5
B36F
  8
0
 10
4209.8375332224177328
 20
208.9506474993935967
 30
0.0
 40
1.2753731318707331
 50
144.867140745317414
 51
179.5018775933511108
  0
ARC
  5
B370
  8
0
 10
4210.428045722220304
 20
208.4865835766254065
 30
0.0
 40
2.0257518184898871
 50
114.4314453206122977
 51
143.7443225151143906
  0
ARC
  5
B371
  8
0
 10
4210.770972046812858
 20
207.8060005606155869
 30
0.0
 40
2.787398385791354
 50
96.8064160641789044
 51
115.0630734158226005
  0
ARC
  5
B372
  8
0
 10
4210.8605451127641572
 20
210.0791535245346893
 30
0.0
 40
3.0063001937678768
 50
257.5044492396738178
 51
282.4955507603261253
  0
ARC
  5
B373
  8
0
 10
4210.8605451127641572
 20
210.5525345332629001
 30
0.0
 40
3.210889314301197
 50
257.2240283662789011
 51
282.7759716337210989
  0
ENDSEC
  0
EOF
