  0
SECTION
  2
HEADER
  9
$ACADVER
  1
AC1009
  9
$INSBASE
 10
4216.1389505317383737
 20
215.0145173104029084
 30
0.0
  9
$EXTMIN
 10
4213.84061370778727
 20
209.7769880026619944
 30
0.0
  9
$EXTMAX
 10
4218.4372873556885679
 20
216.2743598301028953
 30
0.0
  9
$LIMMIN
 10
0.0
 20
0.0
  9
$LIMMAX
 10
11.6929133858000007
 20
8.2677165353999982
  9
$ORTHOMODE
 70
     0
  9
$REGENMODE
 70
     1
  9
$FILLMODE
 70
     1
  9
$QTEXTMODE
 70
     0
  9
$MIRRTEXT
 70
     0
  9
$DRAGMODE
 70
     2
  9
$LTSCALE
 40
0.6431102362
  9
$OSMODE
 70
  3839
  9
$ATTMODE
 70
     1
  9
$TEXTSIZE
 40
0.2
  9
$TRACEWID
 40
0.05
  9
$TEXTSTYLE
  7
STANDARD
  9
$CLAYER
  8
0
  9
$CELTYPE
  6
BYLAYER
  9
$CECOLOR
 62
   256
  9
$DIMSCALE
 40
1.0
  9
$DIMASZ
 40
0.1875
  9
$DIMEXO
 40
0.0625
  9
$DIMDLI
 40
0.4443307087
  9
$DIMRND
 40
0.0
  9
$DIMDLE
 40
0.0
  9
$DIMEXE
 40
0.125
  9
$DIMTP
 40
0.01
  9
$DIMTM
 40
0.01
  9
$DIMTXT
 40
2.0
  9
$DIMCEN
 40
0.1052362205
  9
$DIMTSZ
 40
0.0
  9
$DIMTOL
 70
     1
  9
$DIMLIM
 70
     0
  9
$DIMTIH
 70
     1
  9
$DIMTOH
 70
     1
  9
$DIMSE1
 70
     0
  9
$DIMSE2
 70
     0
  9
$DIMTAD
 70
     0
  9
$DIMZIN
 70
     0
  9
$DIMBLK
  1

  9
$DIMASO
 70
     1
  9
$DIMSHO
 70
     1
  9
$DIMPOST
  1
\X
  9
$DIMAPOST
  1

  9
$DIMALT
 70
     1
  9
$DIMALTD
 70
     2
  9
$DIMALTF
 40
25.3999999999999986
  9
$DIMLFAC
 40
1.0
  9
$DIMTOFL
 70
     0
  9
$DIMTVP
 40
0.0
  9
$DIMTIX
 70
     0
  9
$DIMSOXD
 70
     0
  9
$DIMSAH
 70
     0
  9
$DIMBLK1
  1

  9
$DIMBLK2
  1

  9
$DIMSTYLE
  2
STANDARD
  9
$DIMCLRD
 70
     0
  9
$DIMCLRE
 70
     0
  9
$DIMCLRT
 70
     0
  9
$DIMTFAC
 40
1.0
  9
$DIMGAP
 40
0.09
  9
$LUNITS
 70
     2
  9
$LUPREC
 70
     4
  9
$SKETCHINC
 40
0.1
  9
$FILLETRAD
 40
0.0
  9
$AUNITS
 70
     0
  9
$AUPREC
 70
     0
  9
$MENU
  1
.
  9
$ELEVATION
 40
0.0
  9
$PELEVATION
 40
0.0
  9
$THICKNESS
 40
0.0
  9
$LIMCHECK
 70
     0
  9
$BLIPMODE
 70
     0
  9
$CHAMFERA
 40
0.0
  9
$CHAMFERB
 40
0.0
  9
$SKPOLY
 70
     0
  9
$TDCREATE
 40
2458060.468368056230247
  9
$TDUPDATE
 40
2459121.514131945092231
  9
$TDINDWG
 40
0.5956320602
  9
$TDUSRTIMER
 40
0.5956320602
  9
$USRTIMER
 70
     1
  9
$ANGBASE
 50
0.0
  9
$ANGDIR
 70
     0
  9
$PDMODE
 70
     0
  9
$PDSIZE
 40
0.3125
  9
$PLINEWID
 40
0.0
  9
$COORDS
 70
     1
  9
$SPLFRAME
 70
     0
  9
$SPLINETYPE
 70
     6
  9
$SPLINESEGS
 70
     8
  9
$ATTDIA
 70
     1
  9
$ATTREQ
 70
     1
  9
$HANDLING
 70
     1
  9
$HANDSEED
  5
BCC7
  9
$SURFTAB1
 70
     6
  9
$SURFTAB2
 70
     6
  9
$SURFTYPE
 70
     6
  9
$SURFU
 70
     6
  9
$SURFV
 70
     6
  9
$UCSNAME
  2

  9
$UCSORG
 10
0.0
 20
0.0
 30
0.0
  9
$UCSXDIR
 10
1.0
 20
0.0
 30
0.0
  9
$UCSYDIR
 10
0.0
 20
1.0
 30
0.0
  9
$PUCSNAME
  2

  9
$PUCSORG
 10
0.0
 20
0.0
 30
0.0
  9
$PUCSXDIR
 10
1.0
 20
0.0
 30
0.0
  9
$PUCSYDIR
 10
0.0
 20
1.0
 30
0.0
  9
$USERI1
 70
     0
  9
$USERI2
 70
     0
  9
$USERI3
 70
     0
  9
$USERI4
 70
     0
  9
$USERI5
 70
     0
  9
$USERR1
 40
0.0
  9
$USERR2
 40
0.0
  9
$USERR3
 40
0.0
  9
$USERR4
 40
0.0
  9
$USERR5
 40
0.0
  9
$WORLDVIEW
 70
     1
  9
$SHADEDGE
 70
     3
  9
$SHADEDIF
 70
    70
  9
$TILEMODE
 70
     1
  9
$MAXACTVP
 70
    64
  9
$PLIMCHECK
 70
     0
  9
$PEXTMIN
 10
1.0000000000000000E+20
 20
1.0000000000000000E+20
 30
1.0000000000000000E+20
  9
$PEXTMAX
 10
-1.0000000000000000E+20
 20
-1.0000000000000000E+20
 30
-1.0000000000000000E+20
  9
$PLIMMIN
 10
0.0
 20
0.0
  9
$PLIMMAX
 10
12.0
 20
9.0
  9
$UNITMODE
 70
     0
  9
$VISRETAIN
 70
     1
  9
$PLINEGEN
 70
     0
  9
$PSLTSCALE
 70
     1
  0
ENDSEC
  0
SECTION
  2
TABLES
  0
TABLE
  2
VPORT
 70
     1
  0
VPORT
  2
*ACTIVE
 70
     0
 10
0.0
 20
0.0
 11
1.0
 21
1.0
 12
0.0
 22
0.0
 13
0.0
 23
0.0
 14
1.0
 24
1.0
 15
0.0
 25
0.0
 16
0.0
 26
0.0
 36
33.0219687943949793
 17
4216.13916015625
 27
213.0227127075195028
 37
0.0
 40
7.954134464386132
 41
3.314341846758349
 42
50.0
 43
0.0
 44
0.0
 50
0.0
 51
0.0
 71
     0
 72
   100
 73
     1
 74
     1
 75
     0
 76
     0
 77
     0
 78
     0
  0
ENDTAB
  0
TABLE
  2
LTYPE
 70
     2
  0
LTYPE
  2
CONTINUOUS
 70
     0
  3
Solid line
 72
    65
 73
     0
 40
0.0
  0
LTYPE
  2
PHANTOM2
 70
     0
  3
___ _ _ ___ _ _ ___ _ _ ___ _ _
 72
    65
 73
     6
 40
1.25
 49
0.625
 49
-0.125
 49
0.125
 49
-0.125
 49
0.125
 49
-0.125
  0
ENDTAB
  0
TABLE
  2
LAYER
 70
     2
  0
LAYER
  2
0
 70
     0
 62
   255
  6
CONTINUOUS
  0
LAYER
  2
DEFPOINTS
 70
     0
 62
     7
  6
CONTINUOUS
  0
ENDTAB
  0
TABLE
  2
STYLE
 70
     1
  0
STYLE
  2
STANDARD
 70
     0
 40
0.0
 41
0.8
 50
0.0
 71
     0
 42
0.2
  3
txt
  4

  0
ENDTAB
  0
TABLE
  2
VIEW
 70
     0
  0
ENDTAB
  0
TABLE
  2
UCS
 70
     0
  0
ENDTAB
  0
TABLE
  2
APPID
 70
     9
  0
APPID
  2
ACAD
 70
     0
  0
APPID
  2
ACAD_MLEADERVER
 70
     0
  0
APPID
  2
ACAD_EXEMPT_FROM_CAD_STANDARDS
 70
     0
  0
APPID
  2
ACAD_NAV_VCDISPLAY
 70
     0
  0
APPID
  2
ACAECLAYERSTANDARD
 70
     0
  0
APPID
  2
ACCMTRANSPARENCY
 70
     0
  0
APPID
  2
ACAD_DSTYLE_DIMJAG
 70
     0
  0
APPID
  2
ACAD_DSTYLE_DIMTALN
 70
     0
  0
APPID
  2
ACDBATTR
 70
     0
  0
ENDTAB
  0
TABLE
  2
DIMSTYLE
 70
     1
  0
DIMSTYLE
  2
STANDARD
 70
     0
  3

  4

  5

  6

  7

 40
1.0
 41
0.1875
 42
0.0625
 43
0.38
 44
0.125
 45
0.0
 46
0.0
 47
0.01
 48
0.01
140
0.15625
141
0.09
142
0.0
143
25.3999999999999986
144
1.0
145
0.0
146
1.0
147
0.09
 71
     1
 72
     0
 73
     1
 74
     1
 75
     0
 76
     0
 77
     0
 78
     4
170
     0
171
     2
172
     0
173
     0
174
     0
175
     0
176
     0
177
     0
178
     0
  0
ENDTAB
  0
ENDSEC
  0
SECTION
  2
BLOCKS
  0
BLOCK
  8
0
  2
$MODEL_SPACE
 70
     0
 10
0.0
 20
0.0
 30
0.0
  3
$MODEL_SPACE
  1

  0
ENDBLK
  5
21
  8
0
  0
BLOCK
 67
     1
  8
0
  2
$PAPER_SPACE
 70
     0
 10
0.0
 20
0.0
 30
0.0
  3
$PAPER_SPACE
  1

  0
ENDBLK
  5
1D
 67
     1
  8
0
  0
BLOCK
  8
0
  2
_FILLED
 70
     0
 10
0.0
 20
0.0
 30
0.0
  3
_FILLED
  1

  0
SOLID
  5
6F59
  8
0
  6
BYBLOCK
 62
     0
 10
0.0
 20
0.0
 30
0.0
 11
-1.0
 21
0.1666666667
 31
0.0
 12
-1.0
 22
-0.1666666667
 32
0.0
 13
-1.0
 23
-0.1666666667
 33
0.0
  0
ENDBLK
  5
6F5A
  8
0
  6
BYBLOCK
 62
     0
  0
ENDSEC
  0
SECTION
  2
ENTITIES
  0
ATTDEF
  5
3930
  8
DEFPOINTS
 10
4216.1393893918020694
 20
215.0128241705776873
 30
0.0
 40
0.001
  1
K-72425IN
  3

  2
MODELNUMBER
 70
     0
1001
ACDBATTR
1070
     0
1070
     1
  0
ATTDEF
  5
3931
  8
DEFPOINTS
 10
4216.1393893918020694
 20
215.0111575039109937
 30
0.0
 40
0.001
  1
AWAKEN
  3

  2
TRADENAME
 70
     0
1001
ACDBATTR
1070
     0
1070
     1
  0
ATTDEF
  5
3932
  8
DEFPOINTS
 10
4216.1393893918020694
 20
215.0094908372444138
 30
0.0
 40
0.001
  1
SHOWERHEAD
  3

  2
PRODUCT
 70
     0
1001
ACDBATTR
1070
     0
1070
     1
  0
ARC
  5
AE62
  8
0
 10
4216.1389505317383737
 20
215.0145173104029084
 30
0.0
 40
1.2598425196999989
 50
288.799806609118491
 51
251.200193390881509
  0
ARC
  5
AE63
  8
0
 10
4216.1389505317383737
 20
215.0145173104029084
 30
0.0
 40
0.6447928402999992
 50
309.0250126865506104
 51
230.9749873134493896
  0
ARC
  5
AE64
  8
0
 10
4216.1389505317383737
 20
215.0145173104029084
 30
0.0
 40
0.4059999999999988
 50
0.0
 51
180.0
  0
LINE
  5
AE65
  8
0
 10
4216.5449505317383228
 20
213.6524235022772018
 30
0.0
 11
4216.5449505317383228
 21
215.0145173104029084
 31
0.0
  0
LINE
  5
AE66
  8
0
 10
4215.7329505317384246
 20
213.6525818475984124
 30
0.0
 11
4215.7329505317384246
 21
215.0145173104029084
 31
0.0
  0
ARC
  5
B0A6
  8
0
 10
4216.6224170868936199
 20
211.3189206782705867
 30
0.0
 40
1.6662039463886691
 50
26.1989697753740316
 51
66.3902261828663143
  0
ARC
  5
B0A7
  8
0
 10
4217.1531659509919336
 20
211.6319991113969934
 30
0.0
 40
1.052791562000122
 50
345.1181565651073129
 51
23.6623383905836491
  0
ARC
  5
B0A8
  8
0
 10
4216.8249430836431202
 20
211.7632228569576966
 30
0.0
 40
1.404350779815793
 50
302.2983446724398959
 51
343.3828898756422063
  0
ARC
  5
B0A9
  8
0
 10
4216.1855924448036603
 20
212.7232798850124027
 30
0.0
 40
2.557635303559155
 50
271.5278846780942104
 51
302.913136890110593
  0
ARC
  5
B0AA
  8
0
 10
4216.5559990101291987
 20
211.2055393170089985
 30
0.0
 40
1.8229624709489309
 50
37.7642556468724067
 51
65.8631146438376476
  0
ARC
  5
B0AB
  8
0
 10
4217.1582012312774168
 20
211.6475228236232056
 30
0.0
 40
1.0763970208139451
 50
344.7734264044634074
 51
38.7965672822010816
  0
ARC
  5
B0AC
  8
0
 10
4216.8055121870820585
 20
211.7435219890857923
 30
0.0
 40
1.441917747537059
 50
311.2081820756451975
 51
344.7734264044634074
  0
ARC
  5
B0AD
  8
0
 10
4216.1982100995783185
 20
212.7246915972700947
 30
0.0
 40
2.587110781875634
 50
270.7936985876664266
 51
307.0075124898602894
  0
ARC
  5
B0AE
  8
0
 10
4216.6720737069836105
 20
212.0610794932867122
 30
0.0
 40
1.7720759455151189
 50
307.6876219430520223
 51
346.276971193311681
  0
ARC
  5
B0AF
  8
0
 10
4216.5965256832432715
 20
212.0395149069283036
 30
0.0
 40
1.8407620914627489
 50
347.4869692846839939
 51
359.9613406278535876
  0
ARC
  5
B0B0
  8
0
 10
4217.0374914938056463
 20
211.9798952094540141
 30
0.0
 40
1.4010126365486399
 50
2.3881033640723
 51
52.3000881212643804
  0
ARC
  5
B0B1
  8
0
 10
4216.3466135633580052
 20
211.1834744656418934
 30
0.0
 40
2.4543738473648928
 50
50.9084484271398665
 51
75.5823628071441647
  0
LINE
  5
B0B2
  8
0
 10
4216.1431971529991642
 20
210.3122013396915975
 30
0.0
 11
4216.2279911881387306
 21
210.1527352001529891
 31
0.0
  0
ARC
  5
B0B3
  8
0
 10
4215.7963610226106539
 20
209.9686880147222041
 30
0.0
 40
0.4692312503003669
 50
355.5095458827541961
 51
23.0934091161798882
  0
ARC
  5
B0B4
  8
0
 10
4216.0662725468509962
 20
209.9281864304332998
 30
0.0
 40
0.1979151666891911
 50
329.1433740012658973
 51
1.0897489210045661
  0
ARC
  5
B0B5
  8
0
 10
4216.1388592086150311
 20
213.1841946997737978
 30
0.0
 40
0.6197970427571153
 50
47.3222278680042621
 51
132.6816505396346884
  0
ARC
  5
B297
  8
0
 10
4215.6554839765831275
 20
211.3189206782705867
 30
0.0
 40
1.6662039463886691
 50
113.6097738171336999
 51
153.8010302246260039
  0
ARC
  5
B298
  8
0
 10
4215.1247351124848137
 20
211.6319991113969934
 30
0.0
 40
1.052791562000122
 50
156.3376616094163012
 51
194.8818434348928008
  0
ARC
  5
B299
  8
0
 10
4215.4529579798336272
 20
211.7632228569576966
 30
0.0
 40
1.404350779815793
 50
196.6171101243577937
 51
237.7016553275601041
  0
ARC
  5
B29A
  8
0
 10
4216.092308618673087
 20
212.7232798850124027
 30
0.0
 40
2.557635303559155
 50
237.0868631098892934
 51
268.4721153219057896
  0
ARC
  5
B29B
  8
0
 10
4215.7219020533475486
 20
211.2055393170089985
 30
0.0
 40
1.8229624709489309
 50
114.1368853561622956
 51
142.2357443531275862
  0
ARC
  5
B29C
  8
0
 10
4215.1196998321993306
 20
211.6475228236232056
 30
0.0
 40
1.0763970208139451
 50
141.2034327177989042
 51
195.2265735955365926
  0
ARC
  5
B29D
  8
0
 10
4215.4723888763946889
 20
211.7435219890857923
 30
0.0
 40
1.441917747537059
 50
195.2265735955365926
 51
228.7918179243548025
  0
ARC
  5
B29E
  8
0
 10
4216.0796909639002479
 20
212.7246915972700947
 30
0.0
 40
2.587110781875634
 50
232.9924875101397106
 51
269.2063014123335734
  0
ARC
  5
B29F
  8
0
 10
4215.6058273564931369
 20
212.0610794932867122
 30
0.0
 40
1.7720759455151189
 50
193.7230288066882906
 51
232.3123780569478924
  0
ARC
  5
B2A0
  8
0
 10
4215.6813753802343854
 20
212.0395149069283036
 30
0.0
 40
1.8407620914627489
 50
180.0386593721462987
 51
192.5130307153160061
  0
ARC
  5
B2A1
  8
0
 10
4215.2404095696711011
 20
211.9798952094540141
 30
0.0
 40
1.4010126365486399
 50
127.6999118787356053
 51
177.6118966359277067
  0
ARC
  5
B2A2
  8
0
 10
4215.9312875001187422
 20
211.1834744656418934
 30
0.0
 40
2.4543738473648928
 50
104.4176371928558069
 51
129.0915515728601122
  0
LINE
  5
B2A3
  8
0
 10
4216.1346435395043954
 20
210.3120878042745119
 30
0.0
 11
4216.0499098753389262
 21
210.1527352001529891
 31
0.0
  0
ARC
  5
B2A4
  8
0
 10
4216.4815400408660935
 20
209.9686880147222041
 30
0.0
 40
0.4692312503003669
 50
156.9065908838200869
 51
184.4904541172458039
  0
ARC
  5
B2A5
  8
0
 10
4216.2116285166248417
 20
209.9281864304332998
 30
0.0
 40
0.1979151666891911
 50
178.910251078995401
 51
210.8566259987341027
  0
ARC
  5
B2A6
  8
0
 10
4216.2553634092873835
 20
210.143458328293292
 30
0.0
 40
0.0231492569157926
 50
93.9026294360703417
 51
182.5153966309752036
  0
ARC
  5
B2A7
  8
0
 10
4216.0225376541893638
 20
210.143458328293292
 30
0.0
 40
0.0231492569157926
 50
357.4846033690246827
 51
86.097370563929644
  0
ARC
  5
B2A8
  8
0
 10
4216.1389505317383737
 20
209.8969465827183001
 30
0.0
 40
0.1199585800562676
 50
215.8580115499580927
 51
324.1419884500419926
  0
ARC
  5
B2AA
  8
0
 10
4216.1389505317383737
 20
210.2747925324106859
 30
0.0
 40
2.8428737466310121
 50
65.863371560913933
 51
114.136628439085996
  0
ARC
  5
B2AB
  8
0
 10
4216.1389505317383737
 20
210.4859586791313006
 30
0.0
 40
3.1817464847592531
 50
75.0880479918647126
 51
104.9119520081353016
  0
ARC
  5
B759
  8
0
 10
4216.5724135342998125
 20
210.5553384221111912
 30
0.0
 40
0.0311493552513651
 50
53.7692629980735077
 51
134.6470092808608001
  0
ARC
  5
B75A
  8
0
 10
4216.5837138344795676
 20
210.5713258029576878
 30
0.0
 40
0.0115791420083053
 50
299.349800263469092
 51
52.1171046031544023
  0
ARC
  5
B75B
  8
0
 10
4216.5712780158910391
 20
210.5885228310806099
 30
0.0
 40
0.032752949736346
 50
236.0066010238313083
 51
303.5706364592534783
  0
ARC
  5
B75C
  8
0
 10
4216.5592360029404517
 20
210.5705675126039012
 30
0.0
 40
0.011133635903811
 50
141.4917269302603131
 51
235.7250276829028053
  0
ARC
  5
B75D
  8
0
 10
4216.5725069809132037
 20
210.5431750841302971
 30
0.0
 40
0.0733931487839909
 50
51.8289481178838827
 51
130.5004224887638884
  0
ARC
  5
B75E
  8
0
 10
4216.5984844971262646
 20
210.5791728976242894
 30
0.0
 40
0.0290956275688429
 50
316.4531046605803795
 51
48.2340767167391604
  0
ARC
  5
B75F
  8
0
 10
4216.5709156540033291
 20
210.6079539651832135
 30
0.0
 40
0.0689317781371838
 50
227.2951103288689865
 51
314.9008020903510214
  0
ARC
  5
B760
  8
0
 10
4216.5454182279909219
 20
210.5778014907143074
 30
0.0
 40
0.0295308370765986
 50
134.1697692294902993
 51
223.969428663331712
  0
LINE
  5
B761
  8
0
 10
4216.5158912843362486
 20
210.5782810079610101
 30
0.0
 11
4216.514464913863776
 21
210.6348939334264969
 31
0.0
  0
LINE
  5
B762
  8
0
 10
4216.6275165066954287
 20
210.5810959067273984
 30
0.0
 11
4216.6290828170358509
 21
210.6385876687729137
 31
0.0
  0
ARC
  5
B763
  8
0
 10
4216.5298393101084002
 20
210.6169052974904901
 30
0.0
 40
0.0236635390989088
 50
130.5196077231377103
 51
232.3257957786861141
  0
ARC
  5
B764
  8
0
 10
4216.5733956823905828
 20
210.5660961690686861
 30
0.0
 40
0.0905867973805275
 50
93.0381922384892874
 51
130.5826888465427942
  0
ARC
  5
B765
  8
0
 10
4216.5741895129704062
 20
210.56434027000779
 30
0.0
 40
0.0923849520250376
 50
54.700633521556469
 51
93.4721085319733049
  0
ARC
  5
B766
  8
0
 10
4216.6148199976014439
 20
210.6214718896283955
 30
0.0
 40
0.0222795402546842
 50
306.6837495453065117
 51
55.0784129832862916
  0
ARC
  5
B767
  8
0
 10
4216.7105693138282732
 20
210.296491632227486
 30
0.0
 40
0.0311493552513651
 50
53.7692629980735077
 51
134.6470092808608001
  0
ARC
  5
B768
  8
0
 10
4216.7218696140080283
 20
210.3124790130740962
 30
0.0
 40
0.0115791420083053
 50
299.349800263469092
 51
52.1171046031544023
  0
ARC
  5
B769
  8
0
 10
4216.7094337954204093
 20
210.3296760411969046
 30
0.0
 40
0.032752949736346
 50
236.0066010238313083
 51
303.5706364592534783
  0
ARC
  5
B76A
  8
0
 10
4216.6973917824689124
 20
210.3117207227203096
 30
0.0
 40
0.011133635903811
 50
141.4917269302603131
 51
235.7250276829028053
  0
ARC
  5
B76B
  8
0
 10
4216.7119374052572311
 20
210.2652409962508102
 30
0.0
 40
0.1042251496548525
 50
50.4501538878950626
 51
131.8693655220795904
  0
ARC
  5
B76C
  8
0
 10
4216.7513399839226622
 20
210.3208578252445022
 30
0.0
 40
0.0365986173467524
 50
323.5947386303623716
 51
42.5477628485482313
  0
ARC
  5
B76D
  8
0
 10
4216.7080966232097126
 20
210.3656987965352982
 30
0.0
 40
0.0985682300861345
 50
228.0963163339162065
 51
317.5234462126061885
  0
ARC
  5
B76E
  8
0
 10
4216.671324312113029
 20
210.3175332221792075
 30
0.0
 40
0.0384613420674797
 50
138.8259700253937865
 51
220.9265228915041064
  0
LINE
  5
B76F
  8
0
 10
4216.6328667596208106
 20
210.3180731203210883
 30
0.0
 11
4216.6306304661884496
 21
210.3865495853530945
 31
0.0
  0
LINE
  5
B770
  8
0
 10
4216.7877674663113794
 20
210.3243929799077137
 30
0.0
 11
4216.78969781619071
 21
210.3886278393096916
 31
0.0
  0
ARC
  5
B771
  8
0
 10
4216.6655356258670508
 20
210.3608089243602137
 30
0.0
 40
0.0433699412092784
 50
143.5932394584656038
 51
220.1477437471318979
  0
ARC
  5
B772
  8
0
 10
4216.7038816210360892
 20
210.318918293927311
 30
0.0
 40
0.0996981607976655
 50
91.4984218117964332
 51
137.2843429819351115
  0
ARC
  5
B773
  8
0
 10
4216.7143718830184298
 20
210.310948851660811
 30
0.0
 40
0.1084274513001164
 50
48.26418650420338
 51
96.9378887614880256
  0
ARC
  5
B774
  8
0
 10
4216.7621592559953569
 20
210.3649682301717974
 30
0.0
 40
0.0363063273028535
 50
315.8900448444725271
 51
47.7899018354189025
  0
ARC
  5
B775
  8
0
 10
4216.3964080296509565
 20
210.9006297042992912
 30
0.0
 40
0.0311493552513651
 50
53.7692629980735077
 51
134.6470092808608001
  0
ARC
  5
B776
  8
0
 10
4216.4077083298307116
 20
210.9166170851457878
 30
0.0
 40
0.0115791420083053
 50
299.349800263469092
 51
52.1171046031544023
  0
ARC
  5
B777
  8
0
 10
4216.3952725112421831
 20
210.9338141132687099
 30
0.0
 40
0.032752949736346
 50
236.0066010238313083
 51
303.5706364592534783
  0
ARC
  5
B778
  8
0
 10
4216.3832304982915957
 20
210.9158587947920012
 30
0.0
 40
0.011133635903811
 50
141.4917269302603131
 51
235.7250276829028053
  0
ARC
  5
B779
  8
0
 10
4216.3965014762643477
 20
210.8884663663183971
 30
0.0
 40
0.0733931487839909
 50
51.8289481178838827
 51
130.5004224887638884
  0
ARC
  5
B77A
  8
0
 10
4216.4224789924774086
 20
210.9244641798125031
 30
0.0
 40
0.0290956275688429
 50
316.4531046605803795
 51
48.2340767167391604
  0
ARC
  5
B77B
  8
0
 10
4216.3949101493535636
 20
210.9532452473713988
 30
0.0
 40
0.0689317781371838
 50
227.2951103288689865
 51
314.9008020903510214
  0
ARC
  5
B77C
  8
0
 10
4216.3694127233429754
 20
210.9230927729024927
 30
0.0
 40
0.0295308370765986
 50
134.1697692294902993
 51
223.969428663331712
  0
LINE
  5
B77D
  8
0
 10
4216.3398857796883021
 20
210.9235722901491101
 30
0.0
 11
4216.33845940921492
 21
210.9801852156145969
 31
0.0
  0
LINE
  5
B77E
  8
0
 10
4216.4515110020465727
 20
210.9263871889154984
 30
0.0
 11
4216.4530773123869949
 21
210.9838789509610137
 31
0.0
  0
ARC
  5
B77F
  8
0
 10
4216.3538338054586347
 20
210.9621965796785901
 30
0.0
 40
0.0236635390989088
 50
130.5196077231377103
 51
232.3257957786861141
  0
ARC
  5
B780
  8
0
 10
4216.3973901777417268
 20
210.9113874512567861
 30
0.0
 40
0.0905867973805275
 50
93.0381922384892874
 51
130.5826888465427942
  0
ARC
  5
B781
  8
0
 10
4216.3981840083206407
 20
210.9096315521960037
 30
0.0
 40
0.0923849520250376
 50
54.700633521556469
 51
93.4721085319733049
  0
ARC
  5
B782
  8
0
 10
4216.4388144929516784
 20
210.9667631718166092
 30
0.0
 40
0.0222795402546842
 50
306.6837495453065117
 51
55.0784129832862916
  0
ARC
  5
B783
  8
0
 10
4216.7885208707666607
 20
210.8464426632814082
 30
0.0
 40
0.0311493552513651
 50
53.7692629980735077
 51
134.6470092808608001
  0
ARC
  5
B784
  8
0
 10
4216.7998211709473253
 20
210.86243004412799
 30
0.0
 40
0.0115791420083053
 50
299.349800263469092
 51
52.1171046031544023
  0
ARC
  5
B785
  8
0
 10
4216.7873853523578873
 20
210.8796270722507984
 30
0.0
 40
0.032752949736346
 50
236.0066010238313083
 51
303.5706364592534783
  0
ARC
  5
B786
  8
0
 10
4216.7753433394072999
 20
210.8616717537742034
 30
0.0
 40
0.011133635903811
 50
141.4917269302603131
 51
235.7250276829028053
  0
ARC
  5
B787
  8
0
 10
4216.7886143173800519
 20
210.8342793253005141
 30
0.0
 40
0.0733931487839909
 50
51.8289481178838827
 51
130.5004224887638884
  0
ARC
  5
B788
  8
0
 10
4216.8145918335931128
 20
210.8702771387945916
 30
0.0
 40
0.0290956275688429
 50
316.4531046605803795
 51
48.2340767167391604
  0
ARC
  5
B789
  8
0
 10
4216.7870229904701773
 20
210.8990582063534873
 30
0.0
 40
0.0689317781371838
 50
227.2951103288689865
 51
314.9008020903510214
  0
ARC
  5
B78A
  8
0
 10
4216.7615255644577701
 20
210.8689057318846096
 30
0.0
 40
0.0295308370765986
 50
134.1697692294902993
 51
223.969428663331712
  0
LINE
  5
B78B
  8
0
 10
4216.7319986208021874
 20
210.8693852491313123
 30
0.0
 11
4216.7305722503306242
 21
210.9259981745967139
 31
0.0
  0
LINE
  5
B78C
  8
0
 10
4216.8436238431622769
 20
210.8722001478977006
 30
0.0
 11
4216.8451901535017896
 21
210.9296919099431875
 31
0.0
  0
ARC
  5
B78D
  8
0
 10
4216.745946646574339
 20
210.9080095386607923
 30
0.0
 40
0.0236635390989088
 50
130.5196077231377103
 51
232.3257957786861141
  0
ARC
  5
B78E
  8
0
 10
4216.7895030188583405
 20
210.8572004102389883
 30
0.0
 40
0.0905867973805275
 50
93.0381922384892874
 51
130.5826888465427942
  0
ARC
  5
B78F
  8
0
 10
4216.7902968494372544
 20
210.8554445111780922
 30
0.0
 40
0.0923849520250376
 50
54.700633521556469
 51
93.4721085319733049
  0
ARC
  5
B790
  8
0
 10
4216.8309273340682921
 20
210.9125761307986977
 30
0.0
 40
0.0222795402546842
 50
306.6837495453065117
 51
55.0784129832862916
  0
ARC
  5
B791
  8
0
 10
4216.8130645631299558
 20
211.114006442884488
 30
0.0
 40
0.0311493552513651
 50
53.7692629980735077
 51
134.6470092808608001
  0
ARC
  5
B792
  8
0
 10
4216.8243648633106204
 20
211.129993823731013
 30
0.0
 40
0.0115791420083053
 50
299.349800263469092
 51
52.1171046031544023
  0
ARC
  5
B793
  8
0
 10
4216.8119290447220919
 20
211.1471908518539067
 30
0.0
 40
0.032752949736346
 50
236.0066010238313083
 51
303.5706364592534783
  0
ARC
  5
B794
  8
0
 10
4216.7998870317705951
 20
211.129235533377198
 30
0.0
 40
0.011133635903811
 50
141.4917269302603131
 51
235.7250276829028053
  0
ARC
  5
B795
  8
0
 10
4216.8131580097442566
 20
211.1018431049035939
 30
0.0
 40
0.0733931487839909
 50
51.8289481178838827
 51
130.5004224887638884
  0
ARC
  5
B796
  8
0
 10
4216.8391355259573174
 20
211.1378409183976999
 30
0.0
 40
0.0290956275688429
 50
316.4531046605803795
 51
48.2340767167391604
  0
ARC
  5
B797
  8
0
 10
4216.8115666828325629
 20
211.1666219859565956
 30
0.0
 40
0.0689317781371838
 50
227.2951103288689865
 51
314.9008020903510214
  0
ARC
  5
B798
  8
0
 10
4216.7860692568219747
 20
211.1364695114876895
 30
0.0
 40
0.0295308370765986
 50
134.1697692294902993
 51
223.969428663331712
  0
LINE
  5
B799
  8
0
 10
4216.756542313166392
 20
211.1369490287343069
 30
0.0
 11
4216.7551159426948288
 21
211.1935619541997937
 31
0.0
  0
LINE
  5
B79A
  8
0
 10
4216.868167535525572
 20
211.1397639275008089
 30
0.0
 11
4216.8697338458669037
 21
211.1972556895462105
 31
0.0
  0
ARC
  5
B79B
  8
0
 10
4216.7704903389376341
 20
211.1755733182639005
 30
0.0
 40
0.0236635390989088
 50
130.5196077231377103
 51
232.3257957786861141
  0
ARC
  5
B79C
  8
0
 10
4216.8140467112198166
 20
211.1247641898420113
 30
0.0
 40
0.0905867973805275
 50
93.0381922384892874
 51
130.5826888465427942
  0
ARC
  5
B79D
  8
0
 10
4216.8148405417996401
 20
211.1230082907812005
 30
0.0
 40
0.0923849520250376
 50
54.700633521556469
 51
93.4721085319733049
  0
ARC
  5
B79E
  8
0
 10
4216.8554710264306777
 20
211.180139910401806
 30
0.0
 40
0.0222795402546842
 50
306.6837495453065117
 51
55.0784129832862916
  0
ARC
  5
B79F
  8
0
 10
4217.2691428799844289
 20
210.9145112281713068
 30
0.0
 40
0.0311493552513651
 50
53.7692629980735077
 51
134.6470092808608001
  0
ARC
  5
B7A0
  8
0
 10
4217.280443180164184
 20
210.9304986090178033
 30
0.0
 40
0.0115791420083053
 50
299.349800263469092
 51
52.1171046031544023
  0
ARC
  5
B7A1
  8
0
 10
4217.2680073615756555
 20
210.947695637140697
 30
0.0
 40
0.032752949736346
 50
236.0066010238313083
 51
303.5706364592534783
  0
ARC
  5
B7A2
  8
0
 10
4217.2559653486232492
 20
210.9297403186639883
 30
0.0
 40
0.011133635903811
 50
141.4917269302603131
 51
235.7250276829028053
  0
ARC
  5
B7A3
  8
0
 10
4217.2692363265969107
 20
210.9023478901904127
 30
0.0
 40
0.0733931487839909
 50
51.8289481178838827
 51
130.5004224887638884
  0
ARC
  5
B7A4
  8
0
 10
4217.2952138428099715
 20
210.9383457036844902
 30
0.0
 40
0.0290956275688429
 50
316.4531046605803795
 51
48.2340767167391604
  0
ARC
  5
B7A5
  8
0
 10
4217.267644999687036
 20
210.967126771243386
 30
0.0
 40
0.0689317781371838
 50
227.2951103288689865
 51
314.9008020903510214
  0
ARC
  5
B7A6
  8
0
 10
4217.2421475736746288
 20
210.9369742967745083
 30
0.0
 40
0.0295308370765986
 50
134.1697692294902993
 51
223.969428663331712
  0
LINE
  5
B7A7
  8
0
 10
4217.2126206300199556
 20
210.9374538140210973
 30
0.0
 11
4217.2111942595483924
 21
210.9940667394866125
 31
0.0
  0
LINE
  5
B7A8
  8
0
 10
4217.3242458523791356
 20
210.9402687127875993
 30
0.0
 11
4217.3258121627186483
 21
210.9977604748330009
 31
0.0
  0
ARC
  5
B7A9
  8
0
 10
4217.2265686557911977
 20
210.9760781035506909
 30
0.0
 40
0.0236635390989088
 50
130.5196077231377103
 51
232.3257957786861141
  0
ARC
  5
B7AA
  8
0
 10
4217.2701250280751992
 20
210.9252689751288017
 30
0.0
 40
0.0905867973805275
 50
93.0381922384892874
 51
130.5826888465427942
  0
ARC
  5
B7AB
  8
0
 10
4217.2709188586550226
 20
210.9235130760679908
 30
0.0
 40
0.0923849520250376
 50
54.700633521556469
 51
93.4721085319733049
  0
ARC
  5
B7AC
  8
0
 10
4217.3115493432851508
 20
210.9806446956885964
 30
0.0
 40
0.0222795402546842
 50
306.6837495453065117
 51
55.0784129832862916
  0
ARC
  5
B7AD
  8
0
 10
4217.1839150509504179
 20
211.2341963706975889
 30
0.0
 40
0.0311493552513651
 50
53.7692629980735077
 51
134.6470092808608001
  0
ARC
  5
B7AE
  8
0
 10
4217.1952153511301731
 20
211.2501837515440002
 30
0.0
 40
0.0115791420083053
 50
299.349800263469092
 51
52.1171046031544023
  0
ARC
  5
B7AF
  8
0
 10
4217.1827795325407351
 20
211.2673807796670076
 30
0.0
 40
0.032752949736346
 50
236.0066010238313083
 51
303.5706364592534783
  0
ARC
  5
B7B0
  8
0
 10
4217.1707375195901477
 20
211.2494254611902136
 30
0.0
 40
0.011133635903811
 50
141.4917269302603131
 51
235.7250276829028053
  0
ARC
  5
B7B1
  8
0
 10
4217.1840084975628997
 20
211.2220330327166096
 30
0.0
 40
0.0733931487839909
 50
51.8289481178838827
 51
130.5004224887638884
  0
ARC
  5
B7B2
  8
0
 10
4217.2099860137759606
 20
211.2580308462106871
 30
0.0
 40
0.0290956275688429
 50
316.4531046605803795
 51
48.2340767167391604
  0
ARC
  5
B7B3
  8
0
 10
4217.1824171706530251
 20
211.2868119137696112
 30
0.0
 40
0.0689317781371838
 50
227.2951103288689865
 51
314.9008020903510214
  0
ARC
  5
B7B4
  8
0
 10
4217.1569197446406179
 20
211.2566594393007051
 30
0.0
 40
0.0295308370765986
 50
134.1697692294902993
 51
223.969428663331712
  0
LINE
  5
B7B5
  8
0
 10
4217.1273928009859446
 20
211.2571389565474078
 30
0.0
 11
4217.1259664305143815
 21
211.3137518820128093
 31
0.0
  0
LINE
  5
B7B6
  8
0
 10
4217.2390180233442152
 20
211.2599538553137961
 30
0.0
 11
4217.2405843336846374
 21
211.3174456173593114
 31
0.0
  0
ARC
  5
B7B7
  8
0
 10
4217.1413408267580962
 20
211.2957632460768878
 30
0.0
 40
0.0236635390989088
 50
130.5196077231377103
 51
232.3257957786861141
  0
ARC
  5
B7B8
  8
0
 10
4217.1848971990402788
 20
211.2449541176549985
 30
0.0
 40
0.0905867973805275
 50
93.0381922384892874
 51
130.5826888465427942
  0
ARC
  5
B7B9
  8
0
 10
4217.1856910296191927
 20
211.2431982185941877
 30
0.0
 40
0.0923849520250376
 50
54.700633521556469
 51
93.4721085319733049
  0
ARC
  5
B7BA
  8
0
 10
4217.2263215142511399
 20
211.3003298382147932
 30
0.0
 40
0.0222795402546842
 50
306.6837495453065117
 51
55.0784129832862916
  0
ARC
  5
B7BB
  8
0
 10
4217.5424201856230866
 20
211.4958815248847088
 30
0.0
 40
0.0311493552513651
 50
53.7692629980735077
 51
134.6470092808608001
  0
ARC
  5
B7BC
  8
0
 10
4217.5537204858037512
 20
211.5118689057312054
 30
0.0
 40
0.0115791420083053
 50
299.349800263469092
 51
52.1171046031544023
  0
ARC
  5
B7BD
  8
0
 10
4217.5412846672143132
 20
211.5290659338540991
 30
0.0
 40
0.032752949736346
 50
236.0066010238313083
 51
303.5706364592534783
  0
ARC
  5
B7BE
  8
0
 10
4217.5292426542637259
 20
211.5111106153773903
 30
0.0
 40
0.011133635903811
 50
141.4917269302603131
 51
235.7250276829028053
  0
ARC
  5
B7BF
  8
0
 10
4217.5425136322373874
 20
211.4837181869037863
 30
0.0
 40
0.0733931487839909
 50
51.8289481178838827
 51
130.5004224887638884
  0
ARC
  5
B7C0
  8
0
 10
4217.5684911484486292
 20
211.5197160003978922
 30
0.0
 40
0.0290956275688429
 50
316.4531046605803795
 51
48.2340767167391604
  0
ARC
  5
B7C1
  8
0
 10
4217.5409223053256937
 20
211.548497067956788
 30
0.0
 40
0.0689317781371838
 50
227.2951103288689865
 51
314.9008020903510214
  0
ARC
  5
B7C2
  8
0
 10
4217.5154248793151055
 20
211.5183445934879103
 30
0.0
 40
0.0295308370765986
 50
134.1697692294902993
 51
223.969428663331712
  0
LINE
  5
B7C3
  8
0
 10
4217.4858979356586133
 20
211.5188241107344993
 30
0.0
 11
4217.4844715651879596
 21
211.5754370361999861
 31
0.0
  0
LINE
  5
B7C4
  8
0
 10
4217.5975231580177933
 20
211.5216390095010013
 30
0.0
 11
4217.599089468359125
 21
211.5791307715464029
 31
0.0
  0
ARC
  5
B7C5
  8
0
 10
4217.4998459614307649
 20
211.5574484002640929
 30
0.0
 40
0.0236635390989088
 50
130.5196077231377103
 51
232.3257957786861141
  0
ARC
  5
B7C6
  8
0
 10
4217.5434023337129474
 20
211.5066392718422037
 30
0.0
 40
0.0905867973805275
 50
93.0381922384892874
 51
130.5826888465427942
  0
ARC
  5
B7C7
  8
0
 10
4217.5441961642918614
 20
211.5048833727813928
 30
0.0
 40
0.0923849520250376
 50
54.700633521556469
 51
93.4721085319733049
  0
ARC
  5
B7C8
  8
0
 10
4217.584826648922899
 20
211.5620149924019984
 30
0.0
 40
0.0222795402546842
 50
306.6837495453065117
 51
55.0784129832862916
  0
ARC
  5
B7C9
  8
0
 10
4216.9724054745265676
 20
211.4592760448720128
 30
0.0
 40
0.0311493552513651
 50
53.7692629980735077
 51
134.6470092808608001
  0
ARC
  5
B7CA
  8
0
 10
4216.9837057747072322
 20
211.4752634257185946
 30
0.0
 40
0.0115791420083053
 50
299.349800263469092
 51
52.1171046031544023
  0
ARC
  5
B7CB
  8
0
 10
4216.9712699561168847
 20
211.492460453841403
 30
0.0
 40
0.032752949736346
 50
236.0066010238313083
 51
303.5706364592534783
  0
ARC
  5
B7CC
  8
0
 10
4216.9592279431662973
 20
211.474505135364808
 30
0.0
 40
0.011133635903811
 50
141.4917269302603131
 51
235.7250276829028053
  0
ARC
  5
B7CD
  8
0
 10
4216.9724989211399588
 20
211.4471127068910903
 30
0.0
 40
0.0733931487839909
 50
51.8289481178838827
 51
130.5004224887638884
  0
ARC
  5
B7CE
  8
0
 10
4216.9984764373521102
 20
211.4831105203851962
 30
0.0
 40
0.0290956275688429
 50
316.4531046605803795
 51
48.2340767167391604
  0
ARC
  5
B7CF
  8
0
 10
4216.9709075942291747
 20
211.511891587944092
 30
0.0
 40
0.0689317781371838
 50
227.2951103288689865
 51
314.9008020903510214
  0
ARC
  5
B7D0
  8
0
 10
4216.9454101682167675
 20
211.4817391134751858
 30
0.0
 40
0.0295308370765986
 50
134.1697692294902993
 51
223.969428663331712
  0
LINE
  5
B7D1
  8
0
 10
4216.9158832245620943
 20
211.4822186307218885
 30
0.0
 11
4216.9144568540914406
 21
211.5388315561872901
 31
0.0
  0
LINE
  5
B7D2
  8
0
 10
4217.0275084469221838
 20
211.4850335294883052
 30
0.0
 11
4217.0290747572616965
 21
211.5425252915337069
 31
0.0
  0
ARC
  5
B7D3
  8
0
 10
4216.9298312503342459
 20
211.5208429202513116
 30
0.0
 40
0.0236635390989088
 50
130.5196077231377103
 51
232.3257957786861141
  0
ARC
  5
B7D4
  8
0
 10
4216.9733876226164284
 20
211.4700337918295929
 30
0.0
 40
0.0905867973805275
 50
93.0381922384892874
 51
130.5826888465427942
  0
ARC
  5
B7D5
  8
0
 10
4216.9741814531962518
 20
211.4682778927686968
 30
0.0
 40
0.0923849520250376
 50
54.700633521556469
 51
93.4721085319733049
  0
ARC
  5
B7D6
  8
0
 10
4217.0148119378272895
 20
211.5254095123893023
 30
0.0
 40
0.0222795402546842
 50
306.6837495453065117
 51
55.0784129832862916
  0
ARC
  5
B7D7
  8
0
 10
4217.1844881456499934
 20
211.7137591534018952
 30
0.0
 40
0.0311493552513651
 50
53.7692629980735077
 51
134.6470092808608001
  0
ARC
  5
B7D8
  8
0
 10
4217.1957884458297485
 20
211.7297465342483918
 30
0.0
 40
0.0115791420083053
 50
299.349800263469092
 51
52.1171046031544023
  0
ARC
  5
B7D9
  8
0
 10
4217.1833526272421295
 20
211.7469435623713139
 30
0.0
 40
0.032752949736346
 50
236.0066010238313083
 51
303.5706364592534783
  0
ARC
  5
B7DA
  8
0
 10
4217.1713106142906327
 20
211.7289882438946051
 30
0.0
 40
0.011133635903811
 50
141.4917269302603131
 51
235.7250276829028053
  0
ARC
  5
B7DB
  8
0
 10
4217.1845815922642942
 20
211.7015958154210011
 30
0.0
 40
0.0733931487839909
 50
51.8289481178838827
 51
130.5004224887638884
  0
ARC
  5
B7DC
  8
0
 10
4217.210559108477355
 20
211.737593628915107
 30
0.0
 40
0.0290956275688429
 50
316.4531046605803795
 51
48.2340767167391604
  0
ARC
  5
B7DD
  8
0
 10
4217.1829902653526005
 20
211.7663746964740028
 30
0.0
 40
0.0689317781371838
 50
227.2951103288689865
 51
314.9008020903510214
  0
ARC
  5
B7DE
  8
0
 10
4217.1574928393420123
 20
211.7362222220050967
 30
0.0
 40
0.0295308370765986
 50
134.1697692294902993
 51
223.969428663331712
  0
LINE
  5
B7DF
  8
0
 10
4217.1279658956864296
 20
211.7367017392517141
 30
0.0
 11
4217.1265395252148664
 21
211.7933146647172009
 31
0.0
  0
LINE
  5
B7E0
  8
0
 10
4217.2395911180456096
 20
211.7395166380181877
 30
0.0
 11
4217.2411574283860318
 21
211.7970084000635893
 31
0.0
  0
ARC
  5
B7E1
  8
0
 10
4217.1419139214576717
 20
211.7753260287813077
 30
0.0
 40
0.0236635390989088
 50
130.5196077231377103
 51
232.3257957786861141
  0
ARC
  5
B7E2
  8
0
 10
4217.1854702937407637
 20
211.7245169003595038
 30
0.0
 40
0.0905867973805275
 50
93.0381922384892874
 51
130.5826888465427942
  0
ARC
  5
B7E3
  8
0
 10
4217.1862641243205871
 20
211.7227610012986077
 30
0.0
 40
0.0923849520250376
 50
54.700633521556469
 51
93.4721085319733049
  0
ARC
  5
B7E4
  8
0
 10
4217.2268946089507153
 20
211.7798926209192132
 30
0.0
 40
0.0222795402546842
 50
306.6837495453065117
 51
55.0784129832862916
  0
ARC
  5
B7E5
  8
0
 10
4216.8117486171468045
 20
211.8044943168765997
 30
0.0
 40
0.0311493552513651
 50
53.7692629980735077
 51
134.6470092808608001
  0
ARC
  5
B7E6
  8
0
 10
4216.8230489173265596
 20
211.8204816977232099
 30
0.0
 40
0.0115791420083053
 50
299.349800263469092
 51
52.1171046031544023
  0
ARC
  5
B7E7
  8
0
 10
4216.8106130987380311
 20
211.8376787258461036
 30
0.0
 40
0.032752949736346
 50
236.0066010238313083
 51
303.5706364592534783
  0
ARC
  5
B7E8
  8
0
 10
4216.7985710857883532
 20
211.8197234073693949
 30
0.0
 40
0.011133635903811
 50
141.4917269302603131
 51
235.7250276829028053
  0
ARC
  5
B7E9
  8
0
 10
4216.8118420637601957
 20
211.7923309788957056
 30
0.0
 40
0.0733931487839909
 50
51.8289481178838827
 51
130.5004224887638884
  0
ARC
  5
B7EA
  8
0
 10
4216.8378195799732566
 20
211.8283287923898115
 30
0.0
 40
0.0290956275688429
 50
316.4531046605803795
 51
48.2340767167391604
  0
ARC
  5
B7EB
  8
0
 10
4216.8102507368503211
 20
211.8571098599487073
 30
0.0
 40
0.0689317781371838
 50
227.2951103288689865
 51
314.9008020903510214
  0
ARC
  5
B7EC
  8
0
 10
4216.7847533108388234
 20
211.8269573854798011
 30
0.0
 40
0.0295308370765986
 50
134.1697692294902993
 51
223.969428663331712
  0
LINE
  5
B7ED
  8
0
 10
4216.7552263671823312
 20
211.8274369027265038
 30
0.0
 11
4216.7537999967116775
 21
211.8840498281919054
 31
0.0
  0
LINE
  5
B7EE
  8
0
 10
4216.8668515895424207
 20
211.8302518014928921
 30
0.0
 11
4216.8684178998828429
 21
211.8877435635384074
 31
0.0
  0
ARC
  5
B7EF
  8
0
 10
4216.7691743929553922
 20
211.8660611922560122
 30
0.0
 40
0.0236635390989088
 50
130.5196077231377103
 51
232.3257957786861141
  0
ARC
  5
B7F0
  8
0
 10
4216.8127307652366653
 20
211.8152520638342082
 30
0.0
 40
0.0905867973805275
 50
93.0381922384892874
 51
130.5826888465427942
  0
ARC
  5
B7F1
  8
0
 10
4216.8135245958155792
 20
211.8134961647733121
 30
0.0
 40
0.0923849520250376
 50
54.700633521556469
 51
93.4721085319733049
  0
ARC
  5
B7F2
  8
0
 10
4216.8541550804466169
 20
211.8706277843938892
 30
0.0
 40
0.0222795402546842
 50
306.6837495453065117
 51
55.0784129832862916
  0
ARC
  5
B7F3
  8
0
 10
4217.2730310360666408
 20
212.0769853673853049
 30
0.0
 40
0.0311493552513651
 50
53.7692629980735077
 51
134.6470092808608001
  0
ARC
  5
B7F4
  8
0
 10
4217.2843313362473054
 20
212.0929727482318867
 30
0.0
 40
0.0115791420083053
 50
299.349800263469092
 51
52.1171046031544023
  0
ARC
  5
B7F5
  8
0
 10
4217.271895517658777
 20
212.1101697763546952
 30
0.0
 40
0.032752949736346
 50
236.0066010238313083
 51
303.5706364592534783
  0
ARC
  5
B7F6
  8
0
 10
4217.2598535047072801
 20
212.0922144578779864
 30
0.0
 40
0.011133635903811
 50
141.4917269302603131
 51
235.7250276829028053
  0
ARC
  5
B7F7
  8
0
 10
4217.2731244826809416
 20
212.0648220294044108
 30
0.0
 40
0.0733931487839909
 50
51.8289481178838827
 51
130.5004224887638884
  0
ARC
  5
B7F8
  8
0
 10
4217.2991019988940025
 20
212.1008198428984883
 30
0.0
 40
0.0290956275688429
 50
316.4531046605803795
 51
48.2340767167391604
  0
ARC
  5
B7F9
  8
0
 10
4217.2715331557701575
 20
212.1296009104574125
 30
0.0
 40
0.0689317781371838
 50
227.2951103288689865
 51
314.9008020903510214
  0
ARC
  5
B7FA
  8
0
 10
4217.2460357297577502
 20
212.0994484359885064
 30
0.0
 40
0.0295308370765986
 50
134.1697692294902993
 51
223.969428663331712
  0
LINE
  5
B7FB
  8
0
 10
4217.216508786103077
 20
212.0999279532350954
 30
0.0
 11
4217.2150824156324234
 21
212.1565408787006106
 31
0.0
  0
LINE
  5
B7FC
  8
0
 10
4217.328134008464076
 20
212.1027428520015974
 30
0.0
 11
4217.3297003188035887
 21
212.1602346140471127
 31
0.0
  0
ARC
  5
B7FD
  8
0
 10
4217.2304568118752286
 20
212.138552242764689
 30
0.0
 40
0.0236635390989088
 50
130.5196077231377103
 51
232.3257957786861141
  0
ARC
  5
B7FE
  8
0
 10
4217.2740131841574112
 20
212.0877431143429135
 30
0.0
 40
0.0905867973805275
 50
93.0381922384892874
 51
130.5826888465427942
  0
ARC
  5
B7FF
  8
0
 10
4217.2748070147372346
 20
212.0859872152819889
 30
0.0
 40
0.0923849520250376
 50
54.700633521556469
 51
93.4721085319733049
  0
ARC
  5
B800
  8
0
 10
4217.3154374993682723
 20
212.1431188349025945
 30
0.0
 40
0.0222795402546842
 50
306.6837495453065117
 51
55.0784129832862916
  0
ARC
  5
B801
  8
0
 10
4216.7860340663901297
 20
212.1017662587198913
 30
0.0
 40
0.0311493552513651
 50
53.7692629980735077
 51
134.6470092808608001
  0
ARC
  5
B802
  8
0
 10
4216.7973343665698849
 20
212.1177536395663878
 30
0.0
 40
0.0115791420083053
 50
299.349800263469092
 51
52.1171046031544023
  0
ARC
  5
B803
  8
0
 10
4216.7848985479813564
 20
212.13495066768931
 30
0.0
 40
0.032752949736346
 50
236.0066010238313083
 51
303.5706364592534783
  0
ARC
  5
B804
  8
0
 10
4216.772856535030769
 20
212.1169953492126012
 30
0.0
 40
0.011133635903811
 50
141.4917269302603131
 51
235.7250276829028053
  0
ARC
  5
B805
  8
0
 10
4216.7861275130026115
 20
212.0896029207389972
 30
0.0
 40
0.0733931487839909
 50
51.8289481178838827
 51
130.5004224887638884
  0
ARC
  5
B806
  8
0
 10
4216.8121050292156724
 20
212.1256007342331031
 30
0.0
 40
0.0290956275688429
 50
316.4531046605803795
 51
48.2340767167391604
  0
ARC
  5
B807
  8
0
 10
4216.7845361860927369
 20
212.1543818017919989
 30
0.0
 40
0.0689317781371838
 50
227.2951103288689865
 51
314.9008020903510214
  0
ARC
  5
B808
  8
0
 10
4216.7590387600821487
 20
212.1242293273230928
 30
0.0
 40
0.0295308370765986
 50
134.1697692294902993
 51
223.969428663331712
  0
LINE
  5
B809
  8
0
 10
4216.7295118164247469
 20
212.1247088445697102
 30
0.0
 11
4216.7280854459550028
 21
212.181321770035197
 31
0.0
  0
LINE
  5
B80A
  8
0
 10
4216.841137038785746
 20
212.1275237433362122
 30
0.0
 11
4216.8427033491261682
 21
212.1850155053816138
 31
0.0
  0
ARC
  5
B80B
  8
0
 10
4216.7434598421987175
 20
212.1633331340993038
 30
0.0
 40
0.0236635390989088
 50
130.5196077231377103
 51
232.3257957786861141
  0
ARC
  5
B80C
  8
0
 10
4216.7870162144809001
 20
212.1125240056773862
 30
0.0
 40
0.0905867973805275
 50
93.0381922384892874
 51
130.5826888465427942
  0
ARC
  5
B80D
  8
0
 10
4216.787810045059814
 20
212.1107681066166037
 30
0.0
 40
0.0923849520250376
 50
54.700633521556469
 51
93.4721085319733049
  0
ARC
  5
B80E
  8
0
 10
4216.8284405296908517
 20
212.1678997262372093
 30
0.0
 40
0.0222795402546842
 50
306.6837495453065117
 51
55.0784129832862916
  0
ARC
  5
B80F
  8
0
 10
4216.4005530114100111
 20
212.0180984674630054
 30
0.0
 40
0.0311493552513651
 50
53.7692629980735077
 51
134.6470092808608001
  0
ARC
  5
B810
  8
0
 10
4216.4118533115897662
 20
212.0340858483095019
 30
0.0
 40
0.0115791420083053
 50
299.349800263469092
 51
52.1171046031544023
  0
ARC
  5
B811
  8
0
 10
4216.3994174930012377
 20
212.0512828764323956
 30
0.0
 40
0.032752949736346
 50
236.0066010238313083
 51
303.5706364592534783
  0
ARC
  5
B812
  8
0
 10
4216.3873754800488314
 20
212.0333275579556869
 30
0.0
 40
0.011133635903811
 50
141.4917269302603131
 51
235.7250276829028053
  0
ARC
  5
B813
  8
0
 10
4216.4006464580234024
 20
212.0059351294821113
 30
0.0
 40
0.0733931487839909
 50
51.8289481178838827
 51
130.5004224887638884
  0
ARC
  5
B814
  8
0
 10
4216.4266239742355538
 20
212.0419329429761888
 30
0.0
 40
0.0290956275688429
 50
316.4531046605803795
 51
48.2340767167391604
  0
ARC
  5
B815
  8
0
 10
4216.3990551311126183
 20
212.0707140105351129
 30
0.0
 40
0.0689317781371838
 50
227.2951103288689865
 51
314.9008020903510214
  0
ARC
  5
B816
  8
0
 10
4216.3735577051011205
 20
212.0405615360660931
 30
0.0
 40
0.0295308370765986
 50
134.1697692294902993
 51
223.969428663331712
  0
LINE
  5
B817
  8
0
 10
4216.3440307614464473
 20
212.0410410533127958
 30
0.0
 11
4216.3426043909730652
 21
212.0976539787783111
 31
0.0
  0
LINE
  5
B818
  8
0
 10
4216.4556559838038083
 20
212.0438559520792126
 30
0.0
 11
4216.4572222941442305
 21
212.1013477141246142
 31
0.0
  0
ARC
  5
B819
  8
0
 10
4216.3579787872167799
 20
212.0796653428423042
 30
0.0
 40
0.0236635390989088
 50
130.5196077231377103
 51
232.3257957786861141
  0
ARC
  5
B81A
  8
0
 10
4216.401535159499872
 20
212.0288562144205002
 30
0.0
 40
0.0905867973805275
 50
93.0381922384892874
 51
130.5826888465427942
  0
ARC
  5
B81B
  8
0
 10
4216.4023289900796954
 20
212.0271003153596894
 30
0.0
 40
0.0923849520250376
 50
54.700633521556469
 51
93.4721085319733049
  0
ARC
  5
B81C
  8
0
 10
4216.442959474710733
 20
212.0842319349802096
 30
0.0
 40
0.0222795402546842
 50
306.6837495453065117
 51
55.0784129832862916
  0
ARC
  5
B81D
  8
0
 10
4216.572766279433381
 20
212.4362505642779126
 30
0.0
 40
0.0311493552513651
 50
53.7692629980735077
 51
134.6470092808608001
  0
ARC
  5
B81E
  8
0
 10
4216.5840665796131361
 20
212.4522379451244092
 30
0.0
 40
0.0115791420083053
 50
299.349800263469092
 51
52.1171046031544023
  0
ARC
  5
B81F
  8
0
 10
4216.5716307610236981
 20
212.4694349732473029
 30
0.0
 40
0.032752949736346
 50
236.0066010238313083
 51
303.5706364592534783
  0
ARC
  5
B820
  8
0
 10
4216.5595887480740203
 20
212.4514796547705942
 30
0.0
 40
0.011133635903811
 50
141.4917269302603131
 51
235.7250276829028053
  0
ARC
  5
B821
  8
0
 10
4216.5728597260467723
 20
212.4240872262969901
 30
0.0
 40
0.0733931487839909
 50
51.8289481178838827
 51
130.5004224887638884
  0
ARC
  5
B822
  8
0
 10
4216.5988372422589237
 20
212.4600850397910961
 30
0.0
 40
0.0290956275688429
 50
316.4531046605803795
 51
48.2340767167391604
  0
ARC
  5
B823
  8
0
 10
4216.5712683991368976
 20
212.4888661073499918
 30
0.0
 40
0.0689317781371838
 50
227.2951103288689865
 51
314.9008020903510214
  0
ARC
  5
B824
  8
0
 10
4216.5457709731263094
 20
212.4587136328811141
 30
0.0
 40
0.0295308370765986
 50
134.1697692294902993
 51
223.969428663331712
  0
LINE
  5
B825
  8
0
 10
4216.5162440294689077
 20
212.4591931501277884
 30
0.0
 11
4216.514817658998254
 21
212.5158060755931899
 31
0.0
  0
LINE
  5
B826
  8
0
 10
4216.6278692518289972
 20
212.4620080488942051
 30
0.0
 11
4216.6294355621694194
 21
212.5194998109396067
 31
0.0
  0
ARC
  5
B827
  8
0
 10
4216.5301920552401498
 20
212.4978174396572967
 30
0.0
 40
0.0236635390989088
 50
130.5196077231377103
 51
232.3257957786861141
  0
ARC
  5
B828
  8
0
 10
4216.5737484275232418
 20
212.4470083112354075
 30
0.0
 40
0.0905867973805275
 50
93.0381922384892874
 51
130.5826888465427942
  0
ARC
  5
B829
  8
0
 10
4216.5745422581030653
 20
212.4452524121745967
 30
0.0
 40
0.0923849520250376
 50
54.700633521556469
 51
93.4721085319733049
  0
ARC
  5
B82A
  8
0
 10
4216.6151727427331934
 20
212.5023840317952022
 30
0.0
 40
0.0222795402546842
 50
306.6837495453065117
 51
55.0784129832862916
  0
ARC
  5
B82B
  8
0
 10
4216.140086050147147
 20
212.2499662142701027
 30
0.0
 40
0.0311493552513651
 50
53.7692629980735077
 51
134.6470092808608001
  0
ARC
  5
B82C
  8
0
 10
4216.1513863503259927
 20
212.2659535951165992
 30
0.0
 40
0.0115791420083053
 50
299.349800263469092
 51
52.1171046031544023
  0
ARC
  5
B82D
  8
0
 10
4216.1389505317383737
 20
212.2831506232394077
 30
0.0
 40
0.032752949736346
 50
236.0066010238313083
 51
303.5706364592534783
  0
ARC
  5
B82E
  8
0
 10
4216.1269085187868768
 20
212.2651953047628126
 30
0.0
 40
0.011133635903811
 50
141.4917269302603131
 51
235.7250276829028053
  0
ARC
  5
B82F
  8
0
 10
4216.1401794967596288
 20
212.2378028762890949
 30
0.0
 40
0.0733931487839909
 50
51.8289481178838827
 51
130.5004224887638884
  0
ARC
  5
B830
  8
0
 10
4216.1661570129726897
 20
212.2738006897832008
 30
0.0
 40
0.0290956275688429
 50
316.4531046605803795
 51
48.2340767167391604
  0
ARC
  5
B831
  8
0
 10
4216.1385881698497542
 20
212.3025817573420966
 30
0.0
 40
0.0689317781371838
 50
227.2951103288689865
 51
314.9008020903510214
  0
ARC
  5
B832
  8
0
 10
4216.1130907438382565
 20
212.2724292828731905
 30
0.0
 40
0.0295308370765986
 50
134.1697692294902993
 51
223.969428663331712
  0
LINE
  5
B833
  8
0
 10
4216.0835638001817642
 20
212.2729088001198932
 30
0.0
 11
4216.0821374297120201
 21
212.3295217255852947
 31
0.0
  0
LINE
  5
B834
  8
0
 10
4216.1951890225427633
 20
212.2757236988863099
 30
0.0
 11
4216.1967553328831855
 21
212.3332154609317968
 31
0.0
  0
ARC
  5
B835
  8
0
 10
4216.0975118259548253
 20
212.3115330896494015
 30
0.0
 40
0.0236635390989088
 50
130.5196077231377103
 51
232.3257957786861141
  0
ARC
  5
B836
  8
0
 10
4216.1410681982360984
 20
212.2607239612275976
 30
0.0
 40
0.0905867973805275
 50
93.0381922384892874
 51
130.5826888465427942
  0
ARC
  5
B837
  8
0
 10
4216.1418620288159218
 20
212.2589680621667014
 30
0.0
 40
0.0923849520250376
 50
54.700633521556469
 51
93.4721085319733049
  0
ARC
  5
B838
  8
0
 10
4216.182492513447869
 20
212.316099681787307
 30
0.0
 40
0.0222795402546842
 50
306.6837495453065117
 51
55.0784129832862916
  0
ARC
  5
B839
  8
0
 10
4216.140086050147147
 20
210.6980992456699937
 30
0.0
 40
0.0311493552513651
 50
53.7692629980735077
 51
134.6470092808608001
  0
ARC
  5
B83A
  8
0
 10
4216.1513863503259927
 20
210.7140866265166039
 30
0.0
 40
0.0115791420083053
 50
299.349800263469092
 51
52.1171046031544023
  0
ARC
  5
B83B
  8
0
 10
4216.1389505317383737
 20
210.7312836546394124
 30
0.0
 40
0.032752949736346
 50
236.0066010238313083
 51
303.5706364592534783
  0
ARC
  5
B83C
  8
0
 10
4216.1269085187868768
 20
210.7133283361627889
 30
0.0
 40
0.011133635903811
 50
141.4917269302603131
 51
235.7250276829028053
  0
ARC
  5
B83D
  8
0
 10
4216.1401794967596288
 20
210.6859359076890996
 30
0.0
 40
0.0733931487839909
 50
51.8289481178838827
 51
130.5004224887638884
  0
ARC
  5
B83E
  8
0
 10
4216.1661570129726897
 20
210.7219337211832055
 30
0.0
 40
0.0290956275688429
 50
316.4531046605803795
 51
48.2340767167391604
  0
ARC
  5
B83F
  8
0
 10
4216.1385881698497542
 20
210.7507147887421013
 30
0.0
 40
0.0689317781371838
 50
227.2951103288689865
 51
314.9008020903510214
  0
ARC
  5
B840
  8
0
 10
4216.1130907438382565
 20
210.7205623142731952
 30
0.0
 40
0.0295308370765986
 50
134.1697692294902993
 51
223.969428663331712
  0
LINE
  5
B841
  8
0
 10
4216.0835638001817642
 20
210.7210418315198979
 30
0.0
 11
4216.0821374297120201
 21
210.7776547569852994
 31
0.0
  0
LINE
  5
B842
  8
0
 10
4216.195041253540694
 20
210.7184328369509103
 30
0.0
 11
4216.1967553328831855
 21
210.7813484923318015
 31
0.0
  0
ARC
  5
B843
  8
0
 10
4216.0975118259548253
 20
210.7596661210494062
 30
0.0
 40
0.0236635390989088
 50
130.5196077231377103
 51
232.3257957786861141
  0
ARC
  5
B844
  8
0
 10
4216.1410681982360984
 20
210.7088569926276023
 30
0.0
 40
0.0905867973805275
 50
93.0381922384892874
 51
130.5826888465427942
  0
ARC
  5
B845
  8
0
 10
4216.1418620288159218
 20
210.7071010935667061
 30
0.0
 40
0.0923849520250376
 50
54.700633521556469
 51
93.4721085319733049
  0
ARC
  5
B846
  8
0
 10
4216.182492513447869
 20
210.7642327131873117
 30
0.0
 40
0.0222795402546842
 50
306.6837495453065117
 51
55.0784129832862916
  0
ARC
  5
B847
  8
0
 10
4217.1203984350822793
 20
210.5663942492423075
 30
0.0
 40
0.0311493552513651
 50
53.7692629980735077
 51
134.6470092808608001
  0
ARC
  5
B848
  8
0
 10
4217.131698735261125
 20
210.5823816300888893
 30
0.0
 40
0.0115791420083053
 50
299.349800263469092
 51
52.1171046031544023
  0
ARC
  5
B849
  8
0
 10
4217.1192629166725965
 20
210.5995786582118114
 30
0.0
 40
0.032752949736346
 50
236.0066010238313083
 51
303.5706364592534783
  0
ARC
  5
B84A
  8
0
 10
4217.1072209037220091
 20
210.5816233397351027
 30
0.0
 40
0.011133635903811
 50
141.4917269302603131
 51
235.7250276829028053
  0
ARC
  5
B84B
  8
0
 10
4217.1217665265103278
 20
210.5351436132656033
 30
0.0
 40
0.1042251496548525
 50
50.4501538878950626
 51
131.8693655220795904
  0
ARC
  5
B84C
  8
0
 10
4217.1611691051757589
 20
210.5907604422592954
 30
0.0
 40
0.0365986173467524
 50
323.5947386303623716
 51
42.5477628485482313
  0
ARC
  5
B84D
  8
0
 10
4217.1179257444628092
 20
210.6356014135500914
 30
0.0
 40
0.0985682300861345
 50
228.0963163339162065
 51
317.5234462126061885
  0
ARC
  5
B84E
  8
0
 10
4217.0811534333652162
 20
210.5874358391940007
 30
0.0
 40
0.0384613420674797
 50
138.8259700253937865
 51
220.9265228915041064
  0
LINE
  5
B84F
  8
0
 10
4217.0426958808739073
 20
210.5879757373359098
 30
0.0
 11
4217.0404595874406368
 21
210.6564522023678876
 31
0.0
  0
LINE
  5
B850
  8
0
 10
4217.1975965875635666
 20
210.5942955969225068
 30
0.0
 11
4217.1995269374438067
 21
210.6585304563245131
 31
0.0
  0
ARC
  5
B851
  8
0
 10
4217.075364747119238
 20
210.6307115413750068
 30
0.0
 40
0.0433699412092784
 50
143.5932394584656038
 51
220.1477437471318979
  0
ARC
  5
B852
  8
0
 10
4217.1137107422891859
 20
210.5888209109421041
 30
0.0
 40
0.0996981607976655
 50
91.4984218117964332
 51
137.2843429819351115
  0
ARC
  5
B853
  8
0
 10
4217.124201004270617
 20
210.5808514686756041
 30
0.0
 40
0.1084274513001164
 50
48.26418650420338
 51
96.9378887614880256
  0
ARC
  5
B854
  8
0
 10
4217.1719883772484536
 20
210.6348708471867042
 30
0.0
 40
0.0363063273028535
 50
315.8900448444725271
 51
47.7899018354189025
  0
ARC
  5
B855
  8
0
 10
4217.6319509806799033
 20
210.7708095178622898
 30
0.0
 40
0.0311493552513651
 50
53.7692629980735077
 51
134.6470092808608001
  0
ARC
  5
B856
  8
0
 10
4217.6432512808587489
 20
210.7867968987087863
 30
0.0
 40
0.0115791420083053
 50
299.349800263469092
 51
52.1171046031544023
  0
ARC
  5
B857
  8
0
 10
4217.6308154622702205
 20
210.8039939268317084
 30
0.0
 40
0.032752949736346
 50
236.0066010238313083
 51
303.5706364592534783
  0
ARC
  5
B858
  8
0
 10
4217.6187734493187236
 20
210.7860386083549997
 30
0.0
 40
0.011133635903811
 50
141.4917269302603131
 51
235.7250276829028053
  0
ARC
  5
B859
  8
0
 10
4217.6333190721079518
 20
210.739558881885614
 30
0.0
 40
0.1042251496548525
 50
50.4501538878950626
 51
131.8693655220795904
  0
ARC
  5
B85A
  8
0
 10
4217.6727216507742924
 20
210.7951757108793061
 30
0.0
 40
0.0365986173467524
 50
323.5947386303623716
 51
42.5477628485482313
  0
ARC
  5
B85B
  8
0
 10
4217.6294782900604332
 20
210.8400166821701021
 30
0.0
 40
0.0985682300861345
 50
228.0963163339162065
 51
317.5234462126061885
  0
ARC
  5
B85C
  8
0
 10
4217.5927059789628402
 20
210.7918511078138977
 30
0.0
 40
0.0384613420674797
 50
138.8259700253937865
 51
220.9265228915041064
  0
LINE
  5
B85D
  8
0
 10
4217.5542484264724408
 20
210.7923910059558921
 30
0.0
 11
4217.5520121330391703
 21
210.8608674709878983
 31
0.0
  0
LINE
  5
B85E
  8
0
 10
4217.7091491331621
 20
210.7987108655424038
 30
0.0
 11
4217.7145194979993903
 21
210.9774166192540008
 31
0.0
  0
ARC
  5
B85F
  8
0
 10
4217.586917292716862
 20
210.8351268099949891
 30
0.0
 40
0.0433699412092784
 50
143.5932394584656038
 51
220.1477437471318979
  0
ARC
  5
B860
  8
0
 10
4217.6252632878868098
 20
210.7932361795620011
 30
0.0
 40
0.0996981607976655
 50
91.4984218117964332
 51
137.2843429819351115
  0
ARC
  5
B861
  8
0
 10
4217.6357535498700599
 20
210.7852667372955011
 30
0.0
 40
0.1084274513001164
 50
48.26418650420338
 51
96.9378887614880256
  0
ARC
  5
B862
  8
0
 10
4217.6835409228460776
 20
210.8392861158066012
 30
0.0
 40
0.0363063273028535
 50
315.8900448444725271
 51
47.7899018354189025
  0
ARC
  5
B863
  8
0
 10
4217.726898391803843
 20
211.1555122575757082
 30
0.0
 40
0.0311493552513651
 50
53.7692629980735077
 51
134.6470092808608001
  0
ARC
  5
B864
  8
0
 10
4217.7381986919826886
 20
211.1714996384222047
 30
0.0
 40
0.0115791420083053
 50
299.349800263469092
 51
52.1171046031544023
  0
ARC
  5
B865
  8
0
 10
4217.7257628733941601
 20
211.1886966665450984
 30
0.0
 40
0.032752949736346
 50
236.0066010238313083
 51
303.5706364592534783
  0
ARC
  5
B866
  8
0
 10
4217.7137208604435727
 20
211.1707413480683897
 30
0.0
 40
0.011133635903811
 50
141.4917269302603131
 51
235.7250276829028053
  0
ARC
  5
B867
  8
0
 10
4217.728266483230982
 20
211.124261621599004
 30
0.0
 40
0.1042251496548525
 50
50.4501538878950626
 51
131.8693655220795904
  0
ARC
  5
B868
  8
0
 10
4217.767669061896413
 20
211.1798784505926108
 30
0.0
 40
0.0365986173467524
 50
323.5947386303623716
 51
42.5477628485482313
  0
ARC
  5
B869
  8
0
 10
4217.7244257011843729
 20
211.2247194218834068
 30
0.0
 40
0.0985682300861345
 50
228.0963163339162065
 51
317.5234462126061885
  0
ARC
  5
B86A
  8
0
 10
4217.6876533900858703
 20
211.1765538475272876
 30
0.0
 40
0.0384613420674797
 50
138.8259700253937865
 51
220.9265228915041064
  0
LINE
  5
B86B
  8
0
 10
4217.6491958375945615
 20
211.1770937456693105
 30
0.0
 11
4217.64695954416311
 21
211.2455702107012883
 31
0.0
  0
LINE
  5
B86C
  8
0
 10
4217.8040965442860397
 20
211.1834136052557938
 30
0.0
 11
4217.8060268941662798
 21
211.2476484646578001
 31
0.0
  0
ARC
  5
B86D
  8
0
 10
4217.6818647038398922
 20
211.2198295497082938
 30
0.0
 40
0.0433699412092784
 50
143.5932394584656038
 51
220.1477437471318979
  0
ARC
  5
B86E
  8
0
 10
4217.7202106990107495
 20
211.1779389192753911
 30
0.0
 40
0.0996981607976655
 50
91.4984218117964332
 51
137.2843429819351115
  0
ARC
  5
B86F
  8
0
 10
4217.7307009609930901
 20
211.1699694770088911
 30
0.0
 40
0.1084274513001164
 50
48.26418650420338
 51
96.9378887614880256
  0
ARC
  5
B870
  8
0
 10
4217.7784883339700173
 20
211.2239888555199911
 30
0.0
 40
0.0363063273028535
 50
315.8900448444725271
 51
47.7899018354189025
  0
ARC
  5
B871
  8
0
 10
4217.9878878545359839
 20
211.5377318576863104
 30
0.0
 40
0.0311493552513651
 50
53.7692629980735077
 51
134.6470092808608001
  0
ARC
  5
B872
  8
0
 10
4217.9991881547157391
 20
211.5537192385328069
 30
0.0
 40
0.0115791420083053
 50
299.349800263469092
 51
52.1171046031544023
  0
ARC
  5
B873
  8
0
 10
4217.9867523361272106
 20
211.5709162666555869
 30
0.0
 40
0.032752949736346
 50
236.0066010238313083
 51
303.5706364592534783
  0
ARC
  5
B874
  8
0
 10
4217.9747103231766232
 20
211.5529609481789066
 30
0.0
 40
0.011133635903811
 50
141.4917269302603131
 51
235.7250276829028053
  0
ARC
  5
B875
  8
0
 10
4217.9892559459640324
 20
211.5064812217094925
 30
0.0
 40
0.1042251496548525
 50
50.4501538878950626
 51
131.8693655220795904
  0
ARC
  5
B876
  8
0
 10
4218.028658524628554
 20
211.5620980507032129
 30
0.0
 40
0.0365986173467524
 50
323.5947386303623716
 51
42.5477628485482313
  0
ARC
  5
B877
  8
0
 10
4217.9854151639174233
 20
211.606939021994009
 30
0.0
 40
0.0985682300861345
 50
228.0963163339162065
 51
317.5234462126061885
  0
ARC
  5
B878
  8
0
 10
4217.9486428528198303
 20
211.5587734476378046
 30
0.0
 40
0.0384613420674797
 50
138.8259700253937865
 51
220.9265228915041064
  0
LINE
  5
B879
  8
0
 10
4217.9101853003276119
 20
211.559313345779799
 30
0.0
 11
4217.9079490068961604
 21
211.6277898108118052
 31
0.0
  0
LINE
  5
B87A
  8
0
 10
4218.0650860070190902
 20
211.5656332053663959
 30
0.0
 11
4218.0670163568984208
 21
211.6298680647684023
 31
0.0
  0
ARC
  5
B87B
  8
0
 10
4217.9428541665729426
 20
211.602049149818896
 30
0.0
 40
0.0433699412092784
 50
143.5932394584656038
 51
220.1477437471318979
  0
ARC
  5
B87C
  8
0
 10
4217.9812001617438
 20
211.5601585193859933
 30
0.0
 40
0.0996981607976655
 50
91.4984218117964332
 51
137.2843429819351115
  0
ARC
  5
B87D
  8
0
 10
4217.9916904237252311
 20
211.5521890771194933
 30
0.0
 40
0.1084274513001164
 50
48.26418650420338
 51
96.9378887614880256
  0
ARC
  5
B87E
  8
0
 10
4218.0394777967030677
 20
211.6062084556305933
 30
0.0
 40
0.0363063273028535
 50
315.8900448444725271
 51
47.7899018354189025
  0
ARC
  5
B87F
  8
0
 10
4217.7273188151939394
 20
211.8837910999440908
 30
0.0
 40
0.0311493552513651
 50
53.7692629980735077
 51
134.6470092808608001
  0
ARC
  5
B880
  8
0
 10
4217.738619115372785
 20
211.8997784807905873
 30
0.0
 40
0.0115791420083053
 50
299.349800263469092
 51
52.1171046031544023
  0
ARC
  5
B881
  8
0
 10
4217.726183296785166
 20
211.9169755089135094
 30
0.0
 40
0.032752949736346
 50
236.0066010238313083
 51
303.5706364592534783
  0
ARC
  5
B882
  8
0
 10
4217.7141412838336691
 20
211.8990201904368007
 30
0.0
 40
0.011133635903811
 50
141.4917269302603131
 51
235.7250276829028053
  0
ARC
  5
B883
  8
0
 10
4217.7286869066219879
 20
211.8525404639673866
 30
0.0
 40
0.1042251496548525
 50
50.4501538878950626
 51
131.8693655220795904
  0
ARC
  5
B884
  8
0
 10
4217.7680894852883284
 20
211.908157292961107
 30
0.0
 40
0.0365986173467524
 50
323.5947386303623716
 51
42.5477628485482313
  0
ARC
  5
B885
  8
0
 10
4217.7248461245735598
 20
211.952998264251903
 30
0.0
 40
0.0985682300861345
 50
228.0963163339162065
 51
317.5234462126061885
  0
ARC
  5
B886
  8
0
 10
4217.6880738134768762
 20
211.9048326898956986
 30
0.0
 40
0.0384613420674797
 50
138.8259700253937865
 51
220.9265228915041064
  0
LINE
  5
B887
  8
0
 10
4217.6496162609855674
 20
211.905372588037693
 30
0.0
 11
4217.6473799675532064
 21
211.9738490530696993
 31
0.0
  0
LINE
  5
B888
  8
0
 10
4217.8045169676761361
 20
211.91169244762429
 30
0.0
 11
4217.8064473175563762
 21
211.9759273070262964
 31
0.0
  0
ARC
  5
B889
  8
0
 10
4217.6822851272308981
 20
211.9481083920767901
 30
0.0
 40
0.0433699412092784
 50
143.5932394584656038
 51
220.1477437471318979
  0
ARC
  5
B88A
  8
0
 10
4217.7206311224008459
 20
211.9062177616438021
 30
0.0
 40
0.0996981607976655
 50
91.4984218117964332
 51
137.2843429819351115
  0
ARC
  5
B88B
  8
0
 10
4217.731121384384096
 20
211.8982483193773874
 30
0.0
 40
0.1084274513001164
 50
48.26418650420338
 51
96.9378887614880256
  0
ARC
  5
B88C
  8
0
 10
4217.7789087573601137
 20
211.9522676978884022
 30
0.0
 40
0.0363063273028535
 50
315.8900448444725271
 51
47.7899018354189025
  0
ARC
  5
B88D
  8
0
 10
4217.6342678539140252
 20
212.3046380717042041
 30
0.0
 40
0.0311493552513651
 50
53.7692629980735077
 51
134.6470092808608001
  0
ARC
  5
B88E
  8
0
 10
4217.6455681540928708
 20
212.3206254525507006
 30
0.0
 40
0.0115791420083053
 50
299.349800263469092
 51
52.1171046031544023
  0
ARC
  5
B88F
  8
0
 10
4217.6331323355043423
 20
212.3378224806735943
 30
0.0
 40
0.032752949736346
 50
236.0066010238313083
 51
303.5706364592534783
  0
ARC
  5
B890
  8
0
 10
4217.621090322553755
 20
212.319867162196914
 30
0.0
 40
0.011133635903811
 50
141.4917269302603131
 51
235.7250276829028053
  0
ARC
  5
B891
  8
0
 10
4217.6356359453420737
 20
212.2733874357274999
 30
0.0
 40
0.1042251496548525
 50
50.4501538878950626
 51
131.8693655220795904
  0
ARC
  5
B892
  8
0
 10
4217.6750385240056858
 20
212.3290042647211919
 30
0.0
 40
0.0365986173467524
 50
323.5947386303623716
 51
42.5477628485482313
  0
ARC
  5
B893
  8
0
 10
4217.6317951632936456
 20
212.3738452360119879
 30
0.0
 40
0.0985682300861345
 50
228.0963163339162065
 51
317.5234462126061885
  0
ARC
  5
B894
  8
0
 10
4217.5950228521960526
 20
212.325679661655812
 30
0.0
 40
0.0384613420674797
 50
138.8259700253937865
 51
220.9265228915041064
  0
LINE
  5
B895
  8
0
 10
4217.5565652997047437
 20
212.3262195597978064
 30
0.0
 11
4217.5543290062732922
 21
212.3946960248298126
 31
0.0
  0
LINE
  5
B896
  8
0
 10
4217.7114660063962219
 20
212.3325394193844033
 30
0.0
 11
4217.7133963562755525
 21
212.396774278786296
 31
0.0
  0
ARC
  5
B897
  8
0
 10
4217.5892341659509839
 20
212.3689553638369034
 30
0.0
 40
0.0433699412092784
 50
143.5932394584656038
 51
220.1477437471318979
  0
ARC
  5
B898
  8
0
 10
4217.6275801611209317
 20
212.327064733403887
 30
0.0
 40
0.0996981607976655
 50
91.4984218117964332
 51
137.2843429819351115
  0
ARC
  5
B899
  8
0
 10
4217.6380704231032723
 20
212.319095291137387
 30
0.0
 40
0.1084274513001164
 50
48.26418650420338
 51
96.9378887614880256
  0
ARC
  5
B89A
  8
0
 10
4217.68585779607929
 20
212.3731146696484871
 30
0.0
 40
0.0363063273028535
 50
315.8900448444725271
 51
47.7899018354189025
  0
ARC
  5
B89B
  8
0
 10
4217.119754887065028
 20
212.4729882874044051
 30
0.0
 40
0.0311493552513651
 50
53.7692629980735077
 51
134.6470092808608001
  0
ARC
  5
B89C
  8
0
 10
4217.1310551872447832
 20
212.4889756682509017
 30
0.0
 40
0.0115791420083053
 50
299.349800263469092
 51
52.1171046031544023
  0
ARC
  5
B89D
  8
0
 10
4217.1186193686562547
 20
212.5061726963737954
 30
0.0
 40
0.032752949736346
 50
236.0066010238313083
 51
303.5706364592534783
  0
ARC
  5
B89E
  8
0
 10
4217.1065773557038483
 20
212.4882173778972003
 30
0.0
 40
0.011133635903811
 50
141.4917269302603131
 51
235.7250276829028053
  0
ARC
  5
B89F
  8
0
 10
4217.121122978492167
 20
212.4417376514277009
 30
0.0
 40
0.1042251496548525
 50
50.4501538878950626
 51
131.8693655220795904
  0
ARC
  5
B8A0
  8
0
 10
4217.1605255571575981
 20
212.497354480421393
 30
0.0
 40
0.0365986173467524
 50
323.5947386303623716
 51
42.5477628485482313
  0
ARC
  5
B8A1
  8
0
 10
4217.1172821964446484
 20
212.542195451712189
 30
0.0
 40
0.0985682300861345
 50
228.0963163339162065
 51
317.5234462126061885
  0
ARC
  5
B8A2
  8
0
 10
4217.0805098853488744
 20
212.4940298773560983
 30
0.0
 40
0.0384613420674797
 50
138.8259700253937865
 51
220.9265228915041064
  0
LINE
  5
B8A3
  8
0
 10
4217.042052332856656
 20
212.4945697754980074
 30
0.0
 11
4217.039816039424295
 21
212.5630462405300136
 31
0.0
  0
LINE
  5
B8A4
  8
0
 10
4217.1969530395472248
 20
212.5008896350844907
 30
0.0
 11
4217.1988833894283744
 21
212.565124494486497
 31
0.0
  0
ARC
  5
B8A5
  8
0
 10
4217.0747211991028962
 20
212.5373055795371044
 30
0.0
 40
0.0433699412092784
 50
143.5932394584656038
 51
220.1477437471318979
  0
ARC
  5
B8A6
  8
0
 10
4217.1130671942710251
 20
212.495414949104088
 30
0.0
 40
0.0996981607976655
 50
91.4984218117964332
 51
137.2843429819351115
  0
ARC
  5
B8A7
  8
0
 10
4217.1235574562551847
 20
212.4874455068377017
 30
0.0
 40
0.1084274513001164
 50
48.26418650420338
 51
96.9378887614880256
  0
ARC
  5
B8A8
  8
0
 10
4217.1713448292321118
 20
212.5414648853486881
 30
0.0
 40
0.0363063273028535
 50
315.8900448444725271
 51
47.7899018354189025
  0
ARC
  5
B8A9
  8
0
 10
4216.7104595525606783
 20
212.7787172961162128
 30
0.0
 40
0.0311493552513651
 50
53.7692629980735077
 51
134.6470092808608001
  0
ARC
  5
B8AA
  8
0
 10
4216.7217598527413429
 20
212.7947046769627093
 30
0.0
 40
0.0115791420083053
 50
299.349800263469092
 51
52.1171046031544023
  0
ARC
  5
B8AB
  8
0
 10
4216.7093240341519049
 20
212.811901705085603
 30
0.0
 40
0.032752949736346
 50
236.0066010238313083
 51
303.5706364592534783
  0
ARC
  5
B8AC
  8
0
 10
4216.6972820212013175
 20
212.793946386609008
 30
0.0
 40
0.011133635903811
 50
141.4917269302603131
 51
235.7250276829028053
  0
ARC
  5
B8AD
  8
0
 10
4216.7118276439878173
 20
212.7474666601395086
 30
0.0
 40
0.1042251496548525
 50
50.4501538878950626
 51
131.8693655220795904
  0
ARC
  5
B8AE
  8
0
 10
4216.7512302226541578
 20
212.8030834891332006
 30
0.0
 40
0.0365986173467524
 50
323.5947386303623716
 51
42.5477628485482313
  0
ARC
  5
B8AF
  8
0
 10
4216.7079868619412082
 20
212.8479244604239966
 30
0.0
 40
0.0985682300861345
 50
228.0963163339162065
 51
317.5234462126061885
  0
ARC
  5
B8B0
  8
0
 10
4216.6712145508454341
 20
212.7997588860679059
 30
0.0
 40
0.0384613420674797
 50
138.8259700253937865
 51
220.9265228915041064
  0
LINE
  5
B8B1
  8
0
 10
4216.6327569983532157
 20
212.8002987842097866
 30
0.0
 11
4216.6305207049208548
 21
212.8687752492417928
 31
0.0
  0
LINE
  5
B8B2
  8
0
 10
4216.787657705042875
 20
212.806618643796412
 30
0.0
 11
4216.7895880549240246
 21
212.8708535031983899
 31
0.0
  0
ARC
  5
B8B3
  8
0
 10
4216.665425864597637
 20
212.8430345882489121
 30
0.0
 40
0.0433699412092784
 50
143.5932394584656038
 51
220.1477437471318979
  0
ARC
  5
B8B4
  8
0
 10
4216.7037718597675848
 20
212.8011439578158956
 30
0.0
 40
0.0996981607976655
 50
91.4984218117964332
 51
137.2843429819351115
  0
ARC
  5
B8B5
  8
0
 10
4216.7142621217499254
 20
212.7931745155495094
 30
0.0
 40
0.1084274513001164
 50
48.26418650420338
 51
96.9378887614880256
  0
ARC
  5
B8B6
  8
0
 10
4216.7620494947277621
 20
212.8471938940604957
 30
0.0
 40
0.0363063273028535
 50
315.8900448444725271
 51
47.7899018354189025
  0
ARC
  5
B8B7
  8
0
 10
4216.140086050147147
 20
212.6980898511700104
 30
0.0
 40
0.0311493552513651
 50
53.7692629980735077
 51
134.6470092808608001
  0
ARC
  5
B8B8
  8
0
 10
4216.1513863503259927
 20
212.7140772320165922
 30
0.0
 40
0.0115791420083053
 50
299.349800263469092
 51
52.1171046031544023
  0
ARC
  5
B8B9
  8
0
 10
4216.1389505317383737
 20
212.7312742601394007
 30
0.0
 40
0.032752949736346
 50
236.0066010238313083
 51
303.5706364592534783
  0
ARC
  5
B8BA
  8
0
 10
4216.1269085187868768
 20
212.7133189416626919
 30
0.0
 40
0.011133635903811
 50
141.4917269302603131
 51
235.7250276829028053
  0
ARC
  5
B8BB
  8
0
 10
4216.1414541415751955
 20
212.6668392151933062
 30
0.0
 40
0.1042251496548525
 50
50.4501538878950626
 51
131.8693655220795904
  0
ARC
  5
B8BC
  8
0
 10
4216.1808567202406266
 20
212.7224560441869983
 30
0.0
 40
0.0365986173467524
 50
323.5947386303623716
 51
42.5477628485482313
  0
ARC
  5
B8BD
  8
0
 10
4216.1376133595267675
 20
212.7672970154777943
 30
0.0
 40
0.0985682300861345
 50
228.0963163339162065
 51
317.5234462126061885
  0
ARC
  5
B8BE
  8
0
 10
4216.1008410484309934
 20
212.7191314411215899
 30
0.0
 40
0.0384613420674797
 50
138.8259700253937865
 51
220.9265228915041064
  0
LINE
  5
B8BF
  8
0
 10
4216.062383495938775
 20
212.7196713392636127
 30
0.0
 11
4216.060147202506414
 21
212.7881478042955905
 31
0.0
  0
LINE
  5
B8C0
  8
0
 10
4216.2172842026293438
 20
212.7259911988502097
 30
0.0
 11
4216.2192145525086744
 21
212.7902260582521023
 31
0.0
  0
ARC
  5
B8C1
  8
0
 10
4216.0950523621841057
 20
212.7624071433027098
 30
0.0
 40
0.0433699412092784
 50
143.5932394584656038
 51
220.1477437471318979
  0
ARC
  5
B8C2
  8
0
 10
4216.1333983573540536
 20
212.7205165128696933
 30
0.0
 40
0.0996981607976655
 50
91.4984218117964332
 51
137.2843429819351115
  0
ARC
  5
B8C3
  8
0
 10
4216.1438886193373037
 20
212.712547070603307
 30
0.0
 40
0.1084274513001164
 50
48.26418650420338
 51
96.9378887614880256
  0
ARC
  5
B8C4
  8
0
 10
4216.1916759923142308
 20
212.7665664491142934
 30
0.0
 40
0.0363063273028535
 50
315.8900448444725271
 51
47.7899018354189025
  0
LINE
  5
B8C5
  8
0
 10
4216.213024876838972
 20
211.9454723353030943
 30
0.0
 11
4216.2130355961307941
 21
211.8674847328207989
 31
0.0
  0
ARC
  5
B8C6
  8
0
 10
4216.0722112762259712
 20
211.8303614158440951
 30
0.0
 40
0.1456352626942185
 50
14.7680212653213498
 51
59.0926509078382907
  0
ARC
  5
B8C7
  8
0
 10
4216.1661594210108888
 20
211.9101382814623946
 30
0.0
 40
0.0586929834871631
 50
323.0014055422981869
 51
37.014344915771332
  0
ARC
  5
B8C8
  8
0
 10
4216.4665541220920204
 20
211.8270670959761901
 30
0.0
 40
0.0910815963678123
 50
227.6534547728298037
 51
309.2546464361602148
  0
ARC
  5
B8C9
  8
0
 10
4216.4356526463207047
 20
211.7909607245073005
 30
0.0
 40
0.043605533575228
 50
131.3061700292913088
 51
225.7045648348554892
  0
ARC
  5
B8CA
  8
0
 10
4216.5482570298336213
 20
211.6171028415116098
 30
0.0
 40
0.2503594059721364
 50
93.7798027227913593
 51
124.3841455144328023
  0
ARC
  5
B8CB
  8
0
 10
4216.5338592345397046
 20
211.8549353741825882
 30
0.0
 40
0.0121660265591114
 50
25.7125129118235094
 51
99.9704943794699545
  0
ARC
  5
B8CC
  8
0
 10
4216.4261686949494106
 20
211.8296932122929093
 30
0.0
 40
0.0460048635768668
 50
147.3980564877404049
 51
222.1514018379830873
  0
ARC
  5
B8CD
  8
0
 10
4216.4830133966588619
 20
211.7815081304975138
 30
0.0
 40
0.1202684029313789
 50
115.9033603328372948
 51
142.6453521127170916
  0
ARC
  5
B8CE
  8
0
 10
4216.4115450660574425
 20
211.8733333683412923
 30
0.0
 40
0.1496260276863135
 50
336.1333625799574065
 51
16.5416500614444111
  0
ARC
  5
B8CF
  8
0
 10
4216.5445887382556975
 20
211.9095939430432907
 30
0.0
 40
0.0121713025355615
 50
31.3913124457659301
 51
98.6109133348054598
  0
ARC
  5
B8D0
  8
0
 10
4216.5740551711805892
 20
211.5982094552649073
 30
0.0
 40
0.3249285671080642
 50
95.5258186161018443
 51
116.2243144030914976
  0
LINE
  5
B8D1
  8
0
 10
4216.392061948535229
 20
211.7920981007619048
 30
0.0
 11
4216.3920612689571499
 21
211.8601986585827035
 31
0.0
  0
LINE
  5
B8D2
  8
0
 10
4216.544820609038652
 20
211.8602136761203099
 30
0.0
 11
4216.544820609038652
 21
211.9217630367380991
 31
0.0
  0
LINE
  5
B8D3
  8
0
 10
4216.0648654673377678
 20
211.9453772871030992
 30
0.0
 11
4216.0648696248381384
 21
211.8678555917531128
 31
0.0
  0
ARC
  5
B8D4
  8
0
 10
4216.2025352042574013
 20
211.8325907057740096
 30
0.0
 40
0.142110604600025
 50
120.2834940350472976
 51
165.6318762822862141
  0
ARC
  5
B8D5
  8
0
 10
4216.1112315965383459
 20
211.9101437077447088
 30
0.0
 40
0.0582342086002322
 50
142.7688310990095886
 51
217.2373144632402102
  0
ARC
  5
B8D6
  8
0
 10
4216.1389504582002701
 20
211.9419858307188917
 30
0.0
 40
0.015581130127051
 50
58.8209985536376223
 51
121.2308860709028977
  0
ARC
  5
B8D7
  8
0
 10
4216.0321806476567872
 20
211.8339971532853951
 30
0.0
 40
0.212441407060412
 50
31.6503230132771307
 51
57.4697008501776025
  0
ARC
  5
B8D8
  8
0
 10
4216.1390028921159683
 20
211.8877587355063099
 30
0.0
 40
0.0767585594484784
 50
195.0282596282409031
 51
344.6849186804188889
  0
ARC
  5
B8D9
  8
0
 10
4216.2459101785107123
 20
211.8340024493568023
 30
0.0
 40
0.2125595020847946
 50
122.6386239379282017
 51
148.4010587750088916
  0
ARC
  5
B8DA
  8
0
 10
4216.1389655178445537
 20
211.9965965271707091
 30
0.0
 40
0.0181162928802277
 50
65.7019663223744743
 51
115.1417655526303037
  0
ARC
  5
B8DB
  8
0
 10
4216.1385795920323289
 20
211.8441630295116056
 30
0.0
 40
0.0338326710347543
 50
48.6732614021075278
 51
129.0634752583052034
  0
ARC
  5
B8DC
  8
0
 10
4216.1517524449745906
 20
211.8580313258331103
 30
0.0
 40
0.0147377708174684
 50
306.5637099569553925
 51
51.529066811787672
  0
ARC
  5
B8DD
  8
0
 10
4216.1387907331718452
 20
211.8730282274063086
 30
0.0
 40
0.0345363015971172
 50
232.2135177698081918
 51
309.0146090418579092
  0
ARC
  5
B8DE
  8
0
 10
4216.1270217742976456
 20
211.8582270432777079
 30
0.0
 40
0.0156295702220556
 50
128.6559237014907922
 51
233.0640747590038018
  0
ARC
  5
B8DF
  8
0
 10
4215.929299626750435
 20
212.133728502817803
 30
0.0
 40
0.3769328971008877
 50
321.3412371025560788
 51
352.9438061900082175
  0
ARC
  5
B8E0
  8
0
 10
4216.0086474741929123
 20
212.0646685822133861
 30
0.0
 40
0.2956074360651901
 50
4.4151116077810286
 51
38.2111688958852724
  0
ARC
  5
B8E1
  8
0
 10
4216.3149461740431434
 20
212.2809926773161067
 30
0.0
 40
0.0812449593956624
 50
113.7288024264233997
 51
204.3303564574451912
  0
ARC
  5
B8E2
  8
0
 10
4207.0059000766877944
 20
226.4473506232054945
 30
0.0
 40
16.8711189619207609
 50
303.3557785017272863
 51
303.8965701193052951
  0
ARC
  5
B8E3
  8
0
 10
4216.3751549309490656
 20
212.5129594510684967
 30
0.0
 40
0.079955331992792
 50
299.7630303122962232
 51
46.0692529743596566
  0
ARC
  5
B8E4
  8
0
 10
4208.944960800354238
 20
203.6002334713687105
 30
0.0
 40
11.6833910517736097
 50
50.1552125190019282
 51
50.7720962692649067
  0
ARC
  5
B8E5
  8
0
 10
4216.39094591470257
 20
212.7190097182927104
 30
0.0
 40
0.089244596217211
 50
98.706938636395833
 51
230.028678276705989
  0
ARC
  5
B8E6
  8
0
 10
4217.0400197250673955
 20
210.8820149625958038
 30
0.0
 40
2.036038804487414
 50
101.3032280295566068
 51
108.9914973793541009
  0
ARC
  5
B8E7
  8
0
 10
4216.9774289733395563
 20
211.7556028005151916
 30
0.0
 40
0.5883251169717932
 50
156.1036492067993038
 51
168.928183701332614
  0
ARC
  5
B8E8
  8
0
 10
4216.6725344561036763
 20
211.8636689984165002
 30
0.0
 40
0.2669360951489803
 50
121.1557669576320961
 51
150.79332073509309
  0
ARC
  5
B8E9
  8
0
 10
4213.0926345410980502
 20
219.1974146915019048
 30
0.0
 40
7.8950244327753252
 50
295.8454384859098241
 51
296.8044716562581016
  0
ARC
  5
B8EA
  8
0
 10
4216.6203880554276111
 20
212.2340935871135912
 30
0.0
 40
0.0894922359199944
 50
291.2845345780153252
 51
2.8238466962304432
  0
ARC
  5
B8EB
  8
0
 10
4211.4615778678125935
 20
210.6506726534892096
 30
0.0
 40
5.4831324256051062
 50
16.8330784507948117
 51
18.4319728727459804
  0
ARC
  5
B8EC
  8
0
 10
4216.7579762826671868
 20
212.4028784142062136
 30
0.0
 40
0.0963560625232951
 50
97.9830288158727285
 51
191.1039791180631937
  0
ARC
  5
B8ED
  8
0
 10
4220.6036000539006636
 20
192.1784108681264058
 30
0.0
 40
20.6830812063064009
 50
100.3639960123671955
 51
100.7531408238174038
  0
ARC
  5
B8EE
  8
0
 10
4216.8850128904086887
 20
212.6195947809733013
 30
0.0
 40
0.0955812973717883
 50
268.608694321018902
 51
27.0365599727997683
  0
ARC
  5
B8EF
  8
0
 10
4202.6428606166837199
 20
200.3866794021039084
 30
0.0
 40
18.8674393213678684
 50
40.5916800521119185
 51
41.4203643440671598
  0
ARC
  5
B8F0
  8
0
 10
4214.8966961574406014
 20
215.3995088375311866
 30
0.0
 40
3.9683387636883878
 50
294.4993179582173184
 51
296.6626557033541189
  0
ARC
  5
B8F1
  8
0
 10
4216.5672136629791567
 20
212.072654329434414
 30
0.0
 40
0.2456260895284079
 50
296.6626557033541189
 51
336.635618096911287
  0
ARC
  5
B8F2
  8
0
 10
4216.4078816129167535
 20
212.1414858985646958
 30
0.0
 40
0.4191901615188572
 50
336.635618096911287
 51
349.444173468155725
  0
ARC
  5
B8F3
  8
0
 10
4216.9243439717629371
 20
212.0238671989245915
 30
0.0
 40
0.1120671671969873
 50
102.6190869144858056
 51
158.6356404577759918
  0
ARC
  5
B8F4
  8
0
 10
4218.951209274944631
 20
195.7818689230115012
 30
0.0
 40
16.4795312544937183
 50
96.3670414485369236
 51
97.150644673439345
  0
ARC
  5
B8F5
  8
0
 10
4217.1091477803292946
 20
212.2673951056806914
 30
0.0
 40
0.1086184978355509
 50
277.6857331634241746
 51
352.4334186343215265
  0
ARC
  5
B8F6
  8
0
 10
4214.5859224049690965
 20
211.8874196956847982
 30
0.0
 40
2.656189232555433
 50
7.9129358517324553
 51
10.5337991036370102
  0
ARC
  5
B8F7
  8
0
 10
4217.3191102504779337
 20
212.3550176554190898
 30
0.0
 40
0.1230852316101729
 50
76.1505928056116801
 51
171.5934140769427074
  0
ARC
  5
B8F8
  8
0
 10
4219.3591359905740319
 20
222.6146535518963105
 30
0.0
 40
10.33753249262789
 50
258.7849770326914154
 51
260.2748750596185232
  0
ARC
  5
B8F9
  8
0
 10
4216.7802149625977108
 20
211.6206012726968879
 30
0.0
 40
0.0085280509937044
 50
5.8876608027569572
 51
73.7854271315214874
  0
ARC
  5
B8FA
  8
0
 10
4216.7798717035266236
 20
211.6205500724643116
 30
0.0
 40
0.0088747653047127
 50
320.0734188944746279
 51
5.98914460101415
  0
ARC
  5
B8FB
  8
0
 10
4216.632086093347425
 20
211.7191821514888943
 30
0.0
 40
0.1865015175683257
 50
288.5741208038784862
 51
325.9860556097049766
  0
ARC
  5
B8FC
  8
0
 10
4216.6672274196644139
 20
211.6235876123425896
 30
0.0
 40
0.0847409736936325
 50
221.2979639961899068
 51
286.6393119933330809
  0
ARC
  5
B8FD
  8
0
 10
4216.6367475891001959
 20
211.5940484843210072
 30
0.0
 40
0.0423976486433612
 50
151.0722776177993865
 51
218.4907395887908876
  0
ARC
  5
B8FE
  8
0
 10
4216.652968087411864
 20
211.5848131174471121
 30
0.0
 40
0.0610619869761519
 50
96.0504475601915431
 51
150.8497779510740031
  0
ARC
  5
B8FF
  8
0
 10
4216.6784896715889772
 20
211.3440310084332907
 30
0.0
 40
0.3031928922319151
 50
69.9178184749900709
 51
96.0504475601915431
  0
LINE
  5
B900
  8
0
 10
4216.5943858756054397
 20
211.5923032507160997
 30
0.0
 11
4216.5942588915386295
 21
211.6622278417030998
 31
0.0
  0
ARC
  5
B901
  8
0
 10
4216.6265529889933532
 20
211.6320831459001965
 30
0.0
 40
0.0441777230859747
 50
136.9313790780238946
 51
223.2374573837649052
  0
ARC
  5
B902
  8
0
 10
4216.6734349072439727
 20
211.5835985452661134
 30
0.0
 40
0.1115875049892778
 50
90.697042896607897
 51
135.1826042911282002
  0
ARC
  5
B903
  8
0
 10
4216.6953975109590829
 20
211.4175585446216985
 30
0.0
 40
0.2785969748405037
 50
66.968888797956879
 51
94.8015923653070587
  0
ARC
  5
B904
  8
0
 10
4216.7021896969972659
 20
211.7184552913093114
 30
0.0
 40
0.1114735560926266
 50
320.9344763335852804
 51
336.468582646945606
  0
LINE
  5
B905
  8
0
 10
4216.7887339209983111
 20
211.6800553807007077
 30
0.0
 11
4216.7887464688310502
 21
211.6205500724643116
 31
0.0
  0
ARC
  5
B906
  8
0
 10
4216.4351611458787374
 20
211.8281471138404868
 30
0.0
 40
0.114251749482104
 50
321.1886218616172073
 51
16.2999477760785396
  0
ARC
  5
B907
  8
0
 10
4216.465339380372825
 20
211.7689748410406878
 30
0.0
 40
0.0340034139990618
 50
43.8444389876984388
 51
129.2260939790710097
  0
ARC
  5
B908
  8
0
 10
4216.4778432995308322
 20
211.783277817138611
 30
0.0
 40
0.0151680516133774
 50
311.9576723253491082
 51
37.5836464503855225
  0
ARC
  5
B909
  8
0
 10
4216.4654508203248042
 20
211.7977172755605864
 30
0.0
 40
0.0341939873994109
 50
226.0684041627127954
 51
311.2230256260464785
  0
ARC
  5
B90A
  8
0
 10
4216.4535094345019388
 20
211.7831857038700036
 30
0.0
 40
0.0155148438057529
 50
128.5707666410336003
 51
220.5864062784447128
  0
ARC
  5
B90B
  8
0
 10
4216.6673036254060207
 20
211.5718639467542914
 30
0.0
 40
0.0346331996408818
 50
48.1603893313675187
 51
125.1832567076369997
  0
ARC
  5
B90C
  8
0
 10
4216.679639891505758
 20
211.5869686960332956
 30
0.0
 40
0.0151768752130109
 50
309.075960138449318
 51
44.8178755082239775
  0
ARC
  5
B90D
  8
0
 10
4216.6673077516661579
 20
211.601379579881808
 30
0.0
 40
0.0341412800659414
 50
224.0693701671204963
 51
309.8977551347632016
  0
ARC
  5
B90E
  8
0
 10
4216.6554069941630587
 20
211.5868037156920991
 30
0.0
 40
0.0156078494053358
 50
121.0863630586551949
 51
215.9832828119000112
  0
ARC
  5
B90F
  8
0
 10
4217.1555751236301148
 20
211.0460710223127876
 30
0.0
 40
0.8196694864389915
 50
115.3406036128027949
 51
127.8604256196167057
  0
ARC
  5
B910
  8
0
 10
4216.9873633840416005
 20
211.4012739835496006
 30
0.0
 40
0.4266499792811888
 50
77.5323693494590742
 51
107.5549302751789043
  0
ARC
  5
B911
  8
0
 10
4216.9873633840416005
 20
211.4012739835496006
 30
0.0
 40
0.4266499792811888
 50
114.9118241744761946
 51
115.3406036128027949
  0
ARC
  5
B912
  8
0
 10
4217.1011608565604547
 20
211.9159570844502127
 30
0.0
 40
0.1004634421983881
 50
257.5323693494589747
 51
340.2531985833520025
  0
ARC
  5
B913
  8
0
 10
4217.6632328063542445
 20
211.7141880562606957
 30
0.0
 40
0.4967263245284813
 50
144.0914549214614055
 51
160.2531985833535089
  0
ARC
  5
B914
  8
0
 10
4217.3849962960148332
 20
211.9156609470736043
 30
0.0
 40
0.1532050276367802
 50
71.6218902777367816
 51
144.0914549214614055
  0
ARC
  5
B915
  8
0
 10
4217.80935294734536
 20
213.1929532113720995
 30
0.0
 40
1.192734828361673
 50
251.62189027773681
 51
257.339632289064582
  0
ARC
  5
B916
  8
0
 10
4217.5780938779062126
 20
212.1634559103258937
 30
0.0
 40
0.1375829672252459
 50
257.339632289064582
 51
343.9566795924213238
  0
ARC
  5
B917
  8
0
 10
4217.2751995349453864
 20
212.2505573629809135
 30
0.0
 40
0.4527522012125095
 50
343.9566795924213238
 51
13.0958111312788894
  0
ARC
  5
B918
  8
0
 10
4216.8245143248723252
 20
214.3111814986706918
 30
0.0
 40
2.7467934992311078
 50
268.1973347602968829
 51
270.9941162404792863
  0
ARC
  5
B919
  8
0
 10
4216.866370370335062
 20
211.8990550308330967
 30
0.0
 40
0.3343039085002413
 50
270.9941162404792863
 51
301.0106036075110865
  0
ARC
  5
B91A
  8
0
 10
4216.4058815303442316
 20
212.6651159870571917
 30
0.0
 40
1.228115611493372
 50
301.0106036075110865
 51
306.6482136812596195
  0
ARC
  5
B91B
  8
0
 10
4217.2214391755778706
 20
211.5688950564822903
 30
0.0
 40
0.1382059470459136
 50
69.6581690190819529
 51
91.3798859708810625
  0
ARC
  5
B91C
  8
0
 10
4217.2214391755778706
 20
211.5688950564822903
 30
0.0
 40
0.1382059470459136
 50
110.6552019844631047
 51
126.6482136812595058
  0
ARC
  5
B91D
  8
0
 10
4210.1123183887257255
 20
192.393480868346586
 30
0.0
 40
20.5890276334380289
 50
69.168515987164966
 51
69.6581690190819529
  0
ARC
  5
B91E
  8
0
 10
4217.484808529118709
 20
211.769618056346701
 30
0.0
 40
0.1423086283279864
 50
249.1685159871649944
 51
323.9627750987688728
  0
ARC
  5
B91F
  8
0
 10
4213.3937947871163487
 20
214.7459763809191884
 30
0.0
 40
5.2014688663035109
 50
323.9627750987688728
 51
325.2293777194705058
  0
ARC
  5
B920
  8
0
 10
4217.7717242279450147
 20
211.7065640171269933
 30
0.0
 40
0.1280990060521237
 50
48.8698096529381374
 51
145.2293777194705058
  0
ARC
  5
B921
  8
0
 10
4215.8750464185413875
 20
209.3738710872677871
 30
0.0
 40
3.1344898127753482
 50
46.7156776963262601
 51
50.803576584343439
  0
LINE
  5
B922
  8
0
 10
4216.7887082837387425
 20
211.3939623628467075
 30
0.0
 11
4216.7887099485687941
 21
211.3283314341007042
 31
0.0
  0
ARC
  5
B923
  8
0
 10
4216.776904294322776
 20
211.3283311346318953
 30
0.0
 40
0.0118056542486071
 50
291.7007502865891979
 51
0.0014533963034978
  0
ARC
  5
B924
  8
0
 10
4216.662809003507391
 20
211.6317949997315111
 30
0.0
 40
0.3360072926959662
 50
270.7883960861552737
 51
290.6435764817928202
  0
ARC
  5
B925
  8
0
 10
4216.6685858094206196
 20
211.3862771679241064
 30
0.0
 40
0.0904650052320105
 50
228.8436504317982099
 51
269.2694422155644816
  0
ARC
  5
B926
  8
0
 10
4216.639508615718114
 20
211.3507377305722059
 30
0.0
 40
0.0445957202892739
 50
147.0951687845991103
 51
226.9207740204981008
  0
ARC
  5
B927
  8
0
 10
4216.6672397673182786
 20
211.3191501492372026
 30
0.0
 40
0.0858059715096096
 50
79.2952756826826857
 51
139.4231426090574075
  0
ARC
  5
B928
  8
0
 10
4216.6428766968138007
 20
211.2327353789802089
 30
0.0
 40
0.1754197163377137
 50
34.4167539825509579
 51
76.7181003976885307
  0
ARC
  5
B929
  8
0
 10
4216.7821393982294467
 20
211.328211233219406
 30
0.0
 40
0.0065716442509038
 50
1.0454348770894799
 51
33.978972125368422
  0
LINE
  5
B92A
  8
0
 10
4216.5949403759896086
 20
211.3523030661982034
 30
0.0
 11
4216.5942795531382217
 21
211.4178640465800072
 31
0.0
  0
ARC
  5
B92B
  8
0
 10
4216.6717167716733456
 20
211.3371041539766964
 30
0.0
 40
0.1118869208967628
 50
79.5317204749696316
 51
133.7967718710632994
  0
ARC
  5
B92C
  8
0
 10
4216.6641553596446101
 20
211.2819659835527943
 30
0.0
 40
0.1675011041011057
 50
33.663637886604981
 51
80.4151513426259612
  0
ARC
  5
B92D
  8
0
 10
4216.7774152711608622
 20
211.389626522835897
 30
0.0
 40
0.0300555349484357
 50
292.0716250324721273
 51
330.473955839994403
  0
ARC
  5
B92E
  8
0
 10
4216.6241711480333834
 20
211.388628247384986
 30
0.0
 40
0.0417809182246449
 50
136.3292796596273888
 51
225.4768723187418118
  0
ARC
  5
B92F
  8
0
 10
4216.6674792754620285
 20
211.3284854702058055
 30
0.0
 40
0.034983755472703
 50
50.0919489201316566
 51
129.90714482878019
  0
ARC
  5
B930
  8
0
 10
4216.6801144930877854
 20
211.3443755089722913
 30
0.0
 40
0.0146972690780417
 50
324.0650270437582208
 51
48.1337436286984826
  0
ARC
  5
B931
  8
0
 10
4216.6667286344063541
 20
211.3589500309408891
 30
0.0
 40
0.0343163966868725
 50
231.3726575603863864
 51
317.4636697207295128
  0
ARC
  5
B932
  8
0
 10
4216.6547444721163629
 20
211.3438430319069994
 30
0.0
 40
0.0150334787900792
 50
130.2268797527453046
 51
231.1124176314380918
  0
ARC
  5
B933
  8
0
 10
4216.8818343988777997
 20
210.2882780869130954
 30
0.0
 40
1.169395776714188
 50
87.6583525745643044
 51
98.6749963435307791
  0
ARC
  5
B934
  8
0
 10
4216.8621806317596565
 20
210.993437176164889
 30
0.0
 40
0.4681423101643631
 50
55.624463511006212
 51
74.593788173925347
  0
ARC
  5
B935
  8
0
 10
4217.2071342093377098
 20
211.5178547927444015
 30
0.0
 40
0.1598599664738163
 50
239.7083850644625898
 51
294.1703646809863812
  0
ARC
  5
B936
  8
0
 10
4211.5907592586363535
 20
222.8376742016035053
 30
0.0
 40
12.7962751875193508
 50
296.3607940893504065
 51
297.1501904129638092
  0
ARC
  5
B937
  8
0
 10
4217.5026774503849083
 20
211.3195108558475965
 30
0.0
 40
0.1505611957846842
 50
54.6396307063798403
 51
118.8565959503134053
  0
ARC
  5
B938
  8
0
 10
4236.731151149240759
 20
227.7409659371328132
 30
0.0
 40
25.1403566486875398
 50
220.4140751330866976
 51
220.6827275878914065
  0
ARC
  5
B939
  8
0
 10
4217.7534744636141113
 20
211.477528068276996
 30
0.0
 40
0.152151754036527
 50
235.1095550354366139
 51
304.899578547750707
  0
ARC
  5
B93A
  8
0
 10
4215.3409877366439105
 20
214.0738826815617983
 30
0.0
 40
3.6949035694668391
 50
312.5694062575601038
 51
316.0531190426887065
  0
ARC
  5
B93B
  8
0
 10
4216.9296017140550248
 20
211.6341678782424935
 30
0.0
 40
0.4135725431590365
 50
234.6346594097365994
 51
274.9970708174570859
  0
ARC
  5
B93C
  8
0
 10
4214.4219485068942959
 20
234.4685519710787958
 30
0.0
 40
23.3851383708079084
 50
276.2446033095434927
 51
276.5414368655585804
  0
ARC
  5
B93D
  8
0
 10
4217.0984184044937138
 20
211.1095207983944988
 30
0.0
 40
0.1267439148157694
 50
43.8842401342682393
 51
95.6118509055293657
  0
ARC
  5
B93E
  8
0
 10
4222.1681562852372736
 20
214.2798347653314863
 30
0.0
 40
5.8554142484536031
 50
211.7644324393423005
 51
213.1948868871376135
  0
ARC
  5
B93F
  8
0
 10
4217.3635704437820095
 20
211.1911230179327958
 30
0.0
 40
0.1509490676561436
 50
230.8500826888275981
 51
296.7825401420436719
  0
ARC
  5
B940
  8
0
 10
4218.0268350360011027
 20
209.6521722787707063
 30
0.0
 40
1.525149681818047
 50
107.0142417419637013
 51
112.9723591750615981
  0
ARC
  5
B941
  8
0
 10
4217.6133164780003426
 20
211.0174209413667086
 30
0.0
 40
0.0987394402428397
 50
11.6744349776078398
 51
109.3736535543565935
  0
ARC
  5
B942
  8
0
 10
4216.7314850570983253
 20
210.9337297851197945
 30
0.0
 40
0.984004700941103
 50
2.544595814536966
 51
6.0476962127830092
  0
ARC
  5
B943
  8
0
 10
4215.8970079710607024
 20
216.9047397092614062
 30
0.0
 40
6.3770043143776096
 50
282.6882606383757093
 51
285.3128844142983098
  0
ARC
  5
B944
  8
0
 10
4217.2976935138831323
 20
210.7811786755042078
 30
0.0
 40
0.0977140795712575
 50
192.0738403231792972
 51
270.0
  0
ARC
  5
B945
  8
0
 10
4217.6632073563941958
 20
210.7389727732013114
 30
0.0
 40
0.461579891318679
 50
165.6088703460644922
 51
177.2970857340808948
  0
ARC
  5
B946
  8
0
 10
4217.1366284544446899
 20
210.8530072711974128
 30
0.0
 40
0.079485590553001
 50
0.4948838089084454
 51
97.7363170792871188
  0
ARC
  5
B947
  8
0
 10
4217.0318527646440998
 20
202.6628846177835044
 30
0.0
 40
8.2694199086993034
 50
89.3481692516952535
 51
90.8575822670457569
  0
ARC
  5
B948
  8
0
 10
4216.908083734129832
 20
211.0275819410761926
 30
0.0
 40
0.0962036966713216
 50
197.9698812773926022
 51
270.0
  0
ARC
  5
B949
  8
0
 10
4216.5799703321372363
 20
210.9494793534244081
 30
0.0
 40
0.2415067442399859
 50
11.56620128928874
 51
72.654743504413446
  0
ARC
  5
B94A
  8
0
 10
4222.19350794346974
 20
225.5842460400776019
 30
0.0
 40
15.4334323504123905
 50
248.518883223154802
 51
248.9574845923727082
  0
ARC
  5
B94B
  8
0
 10
4216.4291678761019284
 20
211.1204488893044982
 30
0.0
 40
0.1199052864029882
 50
344.3051459378125969
 51
24.24182851617973
  0
ARC
  5
B94C
  8
0
 10
4216.5322109530652597
 20
211.0926300168029002
 30
0.0
 40
0.01322390944926
 50
270.2459630024555963
 51
339.5644068630697916
  0
ARC
  5
B94D
  8
0
 10
4216.562238063708719
 20
211.4155712683779029
 30
0.0
 40
0.3374983777520482
 50
248.9607682034090033
 51
264.9053413575657032
  0
ARC
  5
B94E
  8
0
 10
4216.4731702784938534
 20
211.1893188929803955
 30
0.0
 40
0.0943723944454508
 50
220.1088506739814079
 51
250.1167228620006995
  0
ARC
  5
B94F
  8
0
 10
4216.4334622335609311
 20
211.154132476423797
 30
0.0
 40
0.0413556369483065
 50
149.1169982277424992
 51
218.2662294763217972
  0
ARC
  5
B950
  8
0
 10
4216.4626743378366882
 20
211.1271599407774033
 30
0.0
 40
0.0806837064157124
 50
86.4047169029392563
 51
143.3166309875637978
  0
ARC
  5
B951
  8
0
 10
4216.4677338804449391
 20
211.1227973716318047
 30
0.0
 40
0.0848874814993092
 50
33.5248901894289304
 51
90.0
  0
LINE
  5
B952
  8
0
 10
4216.5488520320177486
 20
211.1277276618583016
 30
0.0
 11
4216.5488527464876825
 21
211.2138757029275951
 31
0.0
  0
LINE
  5
B953
  8
0
 10
4216.3921065966142123
 20
211.154132476423797
 30
0.0
 11
4216.3920558263789644
 21
211.2220936970367973
 31
0.0
  0
ARC
  5
B954
  8
0
 10
4216.4217402878339271
 20
211.1931252288632948
 30
0.0
 40
0.0414769743370534
 50
123.3570503395766025
 51
224.3862138607252916
  0
ARC
  5
B955
  8
0
 10
4216.4686503156935942
 20
211.1313702172703017
 30
0.0
 40
0.1189670157293063
 50
60.1275316798137567
 51
125.874658826674704
  0
ARC
  5
B956
  8
0
 10
4216.4905173132201526
 20
211.1756624549628896
 30
0.0
 40
0.069737185881088
 50
0.4700712896713809
 51
57.5805512434802225
  0
ARC
  5
B957
  8
0
 10
4216.5113965445334543
 20
211.1750220123606994
 30
0.0
 40
0.0488706531722167
 50
320.0338038966357885
 51
1.421770845711827
  0
ARC
  5
B958
  8
0
 10
4216.4653860372982308
 20
211.1318756505386034
 30
0.0
 40
0.0350739969398166
 50
47.4870937018719204
 51
126.3345513481995965
  0
ARC
  5
B959
  8
0
 10
4216.4785696773587915
 20
211.1478103741007999
 30
0.0
 40
0.0144573638002792
 50
318.0365513665328763
 51
43.3221987517544278
  0
ARC
  5
B95A
  8
0
 10
4216.4649292130688991
 20
211.1635140032219056
 30
0.0
 40
0.0351932965203191
 50
241.1894267984397118
 51
313.8716564164531064
  0
ARC
  5
B95B
  8
0
 10
4216.453603098187159
 20
211.1473002077214005
 30
0.0
 40
0.0156710138285313
 50
125.0439639018631937
 51
248.9291502256155013
  0
ARC
  5
B95C
  8
0
 10
4216.7341369656824099
 20
211.191558793274794
 30
0.0
 40
0.3358171367478875
 50
191.6357610770554913
 51
208.6587843182954884
  0
ARC
  5
B95D
  8
0
 10
4216.6438662295686299
 20
211.1658953111248991
 30
0.0
 40
0.2451789799684103
 50
213.5192034337871974
 51
249.2123780621795959
  0
ARC
  5
B95E
  8
0
 10
4216.3591398474636662
 20
210.2438551736231034
 30
0.0
 40
0.7204801456080214
 50
66.0094499721646031
 51
74.0727971776681358
  0
ARC
  5
B95F
  8
0
 10
4216.6397844717594126
 20
210.8344541999059913
 30
0.0
 40
0.0687485597822838
 50
345.9176274259837101
 51
79.6999193511604034
  0
ARC
  5
B960
  8
0
 10
4195.8265418820601553
 20
218.7366863719392995
 30
0.0
 40
22.3311709220038992
 50
338.9214237336993847
 51
339.230172408640783
  0
ARC
  5
B961
  8
0
 10
4216.7368315124049332
 20
210.6926782056355876
 30
0.0
 40
0.0744230062315633
 50
170.2147733985175933
 51
271.4368219416177226
  0
ARC
  5
B962
  8
0
 10
4216.7086246096159812
 20
209.6450873055387092
 30
0.0
 40
0.9736558332930391
 50
75.7976531764812052
 51
88.2300399116666654
  0
ARC
  5
B963
  8
0
 10
4216.9288067934749051
 20
210.5382354359906003
 30
0.0
 40
0.0540844195679594
 50
311.7585574439369793
 51
69.7704307261616208
  0
ARC
  5
B964
  8
0
 10
4207.6295557297189589
 20
220.1357312062552012
 30
0.0
 40
13.4177215640157801
 50
313.0438360543909084
 51
314.0863654916597056
  0
ARC
  5
B965
  8
0
 10
4216.140086050147147
 20
210.3414041201700968
 30
0.0
 40
0.0311493552513651
 50
53.7692629980735077
 51
134.6470092808608001
  0
ARC
  5
B966
  8
0
 10
4216.1513863503259927
 20
210.3573915010165933
 30
0.0
 40
0.0115791420083053
 50
299.349800263469092
 51
52.1171046031544023
  0
ARC
  5
B967
  8
0
 10
4216.1389505317383737
 20
210.3745885291394018
 30
0.0
 40
0.032752949736346
 50
236.0066010238313083
 51
303.5706364592534783
  0
ARC
  5
B968
  8
0
 10
4216.1269085187868768
 20
210.356633210662693
 30
0.0
 40
0.011133635903811
 50
141.4917269302603131
 51
235.7250276829028053
  0
ARC
  5
B969
  8
0
 10
4216.1414541415751955
 20
210.3101534841933073
 30
0.0
 40
0.1042251496548525
 50
50.4501538878950626
 51
131.8693655220795904
  0
ARC
  5
B96A
  8
0
 10
4216.1808567202406266
 20
210.3657703131869994
 30
0.0
 40
0.0365986173467524
 50
323.5947386303623716
 51
42.5477628485482313
  0
ARC
  5
B96B
  8
0
 10
4216.1376133595267675
 20
210.4106112844777954
 30
0.0
 40
0.0985682300861345
 50
228.0963163339162065
 51
317.5234462126061885
  0
ARC
  5
B96C
  8
0
 10
4216.1008410484309934
 20
210.362445710121591
 30
0.0
 40
0.0384613420674797
 50
138.8259700253937865
 51
220.9265228915041064
  0
LINE
  5
B96D
  8
0
 10
4216.062383495938775
 20
210.3629856082636138
 30
0.0
 11
4216.060147202506414
 21
210.4314620732955916
 31
0.0
  0
LINE
  5
B96E
  8
0
 10
4216.2172842026293438
 20
210.3693054678502108
 30
0.0
 11
4216.2192145525086744
 21
210.4335403272521035
 31
0.0
  0
ARC
  5
B96F
  8
0
 10
4216.0950523621841057
 20
210.4057214123027109
 30
0.0
 40
0.0433699412092784
 50
143.5932394584656038
 51
220.1477437471318979
  0
ARC
  5
B970
  8
0
 10
4216.1333983573540536
 20
210.3638307818698081
 30
0.0
 40
0.0996981607976655
 50
91.4984218117964332
 51
137.2843429819351115
  0
ARC
  5
B971
  8
0
 10
4216.1438886193373037
 20
210.3558613396033081
 30
0.0
 40
0.1084274513001164
 50
48.26418650420338
 51
96.9378887614880256
  0
ARC
  5
B972
  8
0
 10
4216.1916759923142308
 20
210.4098807181144082
 30
0.0
 40
0.0363063273028535
 50
315.8900448444725271
 51
47.7899018354189025
  0
LINE
  5
B973
  8
0
 10
4216.2130355961380701
 20
211.1473284158375066
 30
0.0
 11
4216.2130355961380701
 21
211.121359573383387
 31
0.0
  0
LINE
  5
B974
  8
0
 10
4216.2130355961380701
 20
211.121359573383387
 30
0.0
 11
4216.2130354826376788
 21
211.0802800829031014
 31
0.0
  0
ARC
  5
B975
  8
0
 10
4216.1393190309463535
 20
211.0855144362033116
 30
0.0
 40
0.0739020548058651
 50
325.2789918248776075
 51
355.938439399253582
  0
ARC
  5
B976
  8
0
 10
4216.1386649680125629
 20
211.0559167117338006
 30
0.0
 40
0.0359444044496907
 50
50.3392726424667032
 51
119.8207314860721056
  0
ARC
  5
B977
  8
0
 10
4216.1515416341599121
 20
211.0725005743697125
 30
0.0
 40
0.0149741890028545
 50
301.4775252596132873
 51
47.7688469593801699
  0
ARC
  5
B978
  8
0
 10
4216.1389316658833195
 20
211.0896429478617904
 30
0.0
 40
0.0362233601759314
 50
236.3147486577240954
 51
304.3309180595123848
  0
ARC
  5
B979
  8
0
 10
4216.1270148686062385
 20
211.0727931605898959
 30
0.0
 40
0.0156037215949021
 50
113.5106073202407941
 51
238.4101566854081113
  0
ARC
  5
B97A
  8
0
 10
4216.16034953252165
 20
211.0744824290503061
 30
0.0
 40
0.0530039822146017
 50
6.2796617363969771
 51
73.7479902770457159
  0
ARC
  5
B97B
  8
0
 10
4216.0326286710933346
 20
211.1623161219588098
 30
0.0
 40
0.2053529281359066
 50
303.3073848178652838
 51
324.6212869639826977
  0
ARC
  5
B97C
  8
0
 10
4216.1812874405541152
 20
211.1173632330701935
 30
0.0
 40
0.0436561286093323
 50
316.7719650097577073
 51
43.3451161944780097
  0
ARC
  5
B97D
  8
0
 10
4216.1561833132400352
 20
211.0912489667184957
 30
0.0
 40
0.0798566634138022
 50
44.6079098583022429
 51
69.1527294972846107
  0
LINE
  5
B97E
  8
0
 10
4216.2249074224891956
 20
211.1155870739493139
 30
0.0
 11
4216.2893621388939209
 21
211.0128486511210895
 31
0.0
  0
ARC
  5
B97F
  8
0
 10
4216.1629977998118193
 20
210.9461886573087099
 30
0.0
 40
0.1428688243350582
 50
325.1661503561912809
 51
27.8126418184711603
  0
ARC
  5
B980
  8
0
 10
4216.5118153541961874
 20
210.6762460845959026
 30
0.0
 40
0.2984719146354586
 50
140.8759807232976016
 51
151.5602857792077032
  0
ARC
  5
B981
  8
0
 10
4216.3161387692462085
 20
210.7822233697818888
 30
0.0
 40
0.0759398700371216
 50
151.5602857792077032
 51
229.7692165637716073
  0
ARC
  5
B982
  8
0
 10
4219.4785278724675663
 20
216.6395105015317029
 30
0.0
 40
6.7307996023672416
 50
241.5021673972890994
 51
242.9083754496589904
  0
ARC
  5
B983
  8
0
 10
4216.397946340181079
 20
210.5916026596206905
 30
0.0
 40
0.0576754850229628
 50
297.8373534138495984
 51
74.6413262832097217
  0
ARC
  5
B984
  8
0
 10
4216.8926702743792703
 20
209.7045736836911942
 30
0.0
 40
0.9580039723726237
 50
119.2287876119061991
 51
126.6619089780784009
  0
ARC
  5
B985
  8
0
 10
4216.3560238549107453
 20
210.4284875917630018
 30
0.0
 40
0.056899895379527
 50
128.4344802795318969
 51
254.4219772160309958
  0
ARC
  5
B986
  8
0
 10
4217.1088186462502563
 20
213.2482320257819026
 30
0.0
 40
2.9753993322501322
 50
255.0401615882626913
 51
260.8059233230076757
  0
ARC
  5
B987
  8
0
 10
4216.1627587737575595
 20
211.280837766949503
 30
0.0
 40
0.5929154676427764
 50
41.4540220646005508
 51
52.8899336732372305
  0
ARC
  5
B988
  8
0
 10
4216.1627587737575595
 20
211.280837766949503
 30
0.0
 40
0.5929154676427764
 50
68.481097025336183
 51
85.135764564777503
  0
ARC
  5
B989
  8
0
 10
4216.1734373047820554
 20
211.7141861675403902
 30
0.0
 40
0.5780429782409399
 50
274.5961375239547806
 51
291.3651174705379958
  0
ARC
  5
B98A
  8
0
 10
4216.1734373047820554
 20
211.7141861675403902
 30
0.0
 40
0.5780429782409399
 50
305.4607404883785762
 51
317.8694951049594124
  0
ARC
  5
B98B
  8
0
 10
4216.4003011478525877
 20
211.5041253811870092
 30
0.0
 40
0.2638903572606909
 50
347.758170497355195
 51
7.597653623230249
  0
LINE
  5
B98C
  8
0
 10
4216.0648654673377678
 20
211.1473284158375066
 30
0.0
 11
4216.0648654673377678
 21
211.121359573383387
 31
0.0
  0
LINE
  5
B98D
  8
0
 10
4216.0648654673377678
 20
211.121359573383387
 30
0.0
 11
4216.0648655808381591
 21
211.0802800829031014
 31
0.0
  0
ARC
  5
B98E
  8
0
 10
4216.1385820325303939
 20
211.0855144362033116
 30
0.0
 40
0.0739020548058651
 50
184.0615606007463043
 51
214.7210081751223925
  0
ARC
  5
B98F
  8
0
 10
4216.1263594293159258
 20
211.0725005743697125
 30
0.0
 40
0.0149741890028545
 50
132.2311530406198017
 51
238.5224747403867127
  0
ARC
  5
B990
  8
0
 10
4216.1175515309541879
 20
211.0744824290503061
 30
0.0
 40
0.0530039822146017
 50
106.2520097229542984
 51
173.7203382636029971
  0
ARC
  5
B991
  8
0
 10
4216.2452723923843223
 20
211.1623161219588098
 30
0.0
 40
0.2053529281359066
 50
215.3787130360173876
 51
236.6926151821346878
  0
ARC
  5
B992
  8
0
 10
4216.0966136229217227
 20
211.1173632330701935
 30
0.0
 40
0.0436561286093323
 50
136.6548838055219903
 51
223.2280349902424064
  0
ARC
  5
B993
  8
0
 10
4216.1217177502358027
 20
211.0912489667184957
 30
0.0
 40
0.0798566634138022
 50
110.847270502715304
 51
135.3920901416977074
  0
ARC
  5
B994
  8
0
 10
4216.1389505317383737
 20
211.0005863365244068
 30
0.0
 40
0.0118049386111116
 50
236.9173588616027928
 51
303.0826411383972072
  0
ARC
  5
B995
  8
0
 10
4216.1389505317383737
 20
211.0294125486792041
 30
0.0
 40
0.1025687037002888
 50
69.3135063901386417
 51
110.6864936115848934
  0
ARC
  5
B996
  8
0
 10
4216.1389505317383737
 20
211.0469721246581116
 30
0.0
 40
0.1273680496118734
 50
68.9964380750541437
 51
111.0035619249457994
  0
ARC
  5
B997
  8
0
 10
4216.1389505317383737
 20
210.2937975189173017
 30
0.0
 40
2.7993373789759182
 50
65.7264380885297612
 51
114.2735619114701962
  0
ARC
  5
B998
  8
0
 10
4215.7054875291760254
 20
210.5553384221111912
 30
0.0
 40
0.0311493552513651
 50
45.3529907191391999
 51
126.2307370019263999
  0
ARC
  5
B999
  8
0
 10
4215.6941872289962703
 20
210.5713258029576878
 30
0.0
 40
0.0115791420083053
 50
127.8828953968455977
 51
240.650199736530908
  0
ARC
  5
B99A
  8
0
 10
4215.7066230475847988
 20
210.5885228310806099
 30
0.0
 40
0.032752949736346
 50
236.4293635407464933
 51
303.9933989761685211
  0
ARC
  5
B99B
  8
0
 10
4215.7186650605362956
 20
210.5705675126039012
 30
0.0
 40
0.011133635903811
 50
304.274972317097081
 51
38.5082730697397082
  0
ARC
  5
B99C
  8
0
 10
4215.7053940825626341
 20
210.5431750841302971
 30
0.0
 40
0.0733931487839909
 50
49.4995775112360477
 51
128.1710518821161031
  0
ARC
  5
B99D
  8
0
 10
4215.6794165663495733
 20
210.5791728976242894
 30
0.0
 40
0.0290956275688429
 50
131.7659232832608041
 51
223.5468953394195921
  0
ARC
  5
B99E
  8
0
 10
4215.7069854094734183
 20
210.6079539651832135
 30
0.0
 40
0.0689317781371838
 50
225.099197909649007
 51
312.7048896711310135
  0
ARC
  5
B99F
  8
0
 10
4215.732482835484916
 20
210.5778014907143074
 30
0.0
 40
0.0295308370765986
 50
316.0305713366681744
 51
45.8302307705096865
  0
LINE
  5
B9A0
  8
0
 10
4215.7620097791395892
 20
210.5782810079610101
 30
0.0
 11
4215.7634361496120619
 21
210.6348939334264969
 31
0.0
  0
LINE
  5
B9A1
  8
0
 10
4215.6503845567813187
 20
210.5810959067273984
 30
0.0
 11
4215.6488182464408965
 21
210.6385876687729137
 31
0.0
  0
ARC
  5
B9A2
  8
0
 10
4215.7480617533692566
 20
210.6169052974904901
 30
0.0
 40
0.0236635390989088
 50
307.6742042213138006
 51
49.4803922768623323
  0
ARC
  5
B9A3
  8
0
 10
4215.7045053810852551
 20
210.5660961690686861
 30
0.0
 40
0.0905867973805275
 50
49.4173111534571987
 51
86.9618077615106557
  0
ARC
  5
B9A4
  8
0
 10
4215.7037115505072506
 20
210.56434027000779
 30
0.0
 40
0.0923849520250376
 50
86.5278914680266951
 51
125.2993664784435026
  0
ARC
  5
B9A5
  8
0
 10
4215.6630810658753035
 20
210.6214718896283955
 30
0.0
 40
0.0222795402546842
 50
124.9215870167137012
 51
233.3162504546934883
  0
ARC
  5
B9A6
  8
0
 10
4215.5673317496475647
 20
210.296491632227486
 30
0.0
 40
0.0311493552513651
 50
45.3529907191391999
 51
126.2307370019263999
  0
ARC
  5
B9A7
  8
0
 10
4215.5560314494678096
 20
210.3124790130740962
 30
0.0
 40
0.0115791420083053
 50
127.8828953968455977
 51
240.650199736530908
  0
ARC
  5
B9A8
  8
0
 10
4215.5684672680563381
 20
210.3296760411969046
 30
0.0
 40
0.032752949736346
 50
236.4293635407464933
 51
303.9933989761685211
  0
ARC
  5
B9A9
  8
0
 10
4215.5805092810069254
 20
210.3117207227203096
 30
0.0
 40
0.011133635903811
 50
304.274972317097081
 51
38.5082730697397082
  0
ARC
  5
B9AA
  8
0
 10
4215.5659636582186067
 20
210.2652409962508102
 30
0.0
 40
0.1042251496548525
 50
48.1306344779204167
 51
129.5498461121048877
  0
ARC
  5
B9AB
  8
0
 10
4215.5265610795540852
 20
210.3208578252445022
 30
0.0
 40
0.0365986173467524
 50
137.4522371514518113
 51
216.4052613696376
  0
ARC
  5
B9AC
  8
0
 10
4215.5698044402661253
 20
210.3656987965352982
 30
0.0
 40
0.0985682300861345
 50
222.4765537873938115
 51
311.9036836660836798
  0
ARC
  5
B9AD
  8
0
 10
4215.6065767513637184
 20
210.3175332221792075
 30
0.0
 40
0.0384613420674797
 50
319.0734771084958084
 51
41.1740299746061424
  0
LINE
  5
B9AE
  8
0
 10
4215.6450343038559367
 20
210.3180731203210883
 30
0.0
 11
4215.6472705972882977
 21
210.3865495853530945
 31
0.0
  0
LINE
  5
B9AF
  8
0
 10
4215.490133597165368
 20
210.3243929799077137
 30
0.0
 11
4215.4882032472851279
 21
210.3886278393096916
 31
0.0
  0
ARC
  5
B9B0
  8
0
 10
4215.6123654376096965
 20
210.3608089243602137
 30
0.0
 40
0.0433699412092784
 50
319.8522562528680737
 51
36.4067605415344033
  0
ARC
  5
B9B1
  8
0
 10
4215.5740194424406582
 20
210.318918293927311
 30
0.0
 40
0.0996981607976655
 50
42.7156570180649311
 51
88.5015781882035668
  0
ARC
  5
B9B2
  8
0
 10
4215.5635291804583176
 20
210.310948851660811
 30
0.0
 40
0.1084274513001164
 50
83.0621112385119744
 51
131.7358134957966058
  0
ARC
  5
B9B3
  8
0
 10
4215.5157418074822999
 20
210.3649682301717974
 30
0.0
 40
0.0363063273028535
 50
132.2100981645810975
 51
224.1099551555273877
  0
ARC
  5
B9B4
  8
0
 10
4215.8814930338248814
 20
210.9006297042992912
 30
0.0
 40
0.0311493552513651
 50
45.3529907191391999
 51
126.2307370019263999
  0
ARC
  5
B9B5
  8
0
 10
4215.8701927336451263
 20
210.9166170851457878
 30
0.0
 40
0.0115791420083053
 50
127.8828953968455977
 51
240.650199736530908
  0
ARC
  5
B9B6
  8
0
 10
4215.8826285522336548
 20
210.9338141132687099
 30
0.0
 40
0.032752949736346
 50
236.4293635407464933
 51
303.9933989761685211
  0
ARC
  5
B9B7
  8
0
 10
4215.8946705651851516
 20
210.9158587947920012
 30
0.0
 40
0.011133635903811
 50
304.274972317097081
 51
38.5082730697397082
  0
ARC
  5
B9B8
  8
0
 10
4215.8813995872123996
 20
210.8884663663183971
 30
0.0
 40
0.0733931487839909
 50
49.4995775112360477
 51
128.1710518821161031
  0
ARC
  5
B9B9
  8
0
 10
4215.8554220709993388
 20
210.9244641798125031
 30
0.0
 40
0.0290956275688429
 50
131.7659232832608041
 51
223.5468953394195921
  0
ARC
  5
B9BA
  8
0
 10
4215.8829909141222743
 20
210.9532452473713988
 30
0.0
 40
0.0689317781371838
 50
225.099197909649007
 51
312.7048896711310135
  0
ARC
  5
B9BB
  8
0
 10
4215.908488340133772
 20
210.9230927729024927
 30
0.0
 40
0.0295308370765986
 50
316.0305713366681744
 51
45.8302307705096865
  0
LINE
  5
B9BC
  8
0
 10
4215.9380152837902642
 20
210.9235722901491101
 30
0.0
 11
4215.9394416542609179
 21
210.9801852156145969
 31
0.0
  0
LINE
  5
B9BD
  8
0
 10
4215.8263900614301747
 20
210.9263871889154984
 30
0.0
 11
4215.8248237510897525
 21
210.9838789509610137
 31
0.0
  0
ARC
  5
B9BE
  8
0
 10
4215.9240672580181126
 20
210.9621965796785901
 30
0.0
 40
0.0236635390989088
 50
307.6742042213138006
 51
49.4803922768623323
  0
ARC
  5
B9BF
  8
0
 10
4215.8805108857341111
 20
210.9113874512567861
 30
0.0
 40
0.0905867973805275
 50
49.4173111534571987
 51
86.9618077615106557
  0
ARC
  5
B9C0
  8
0
 10
4215.8797170551551972
 20
210.9096315521960037
 30
0.0
 40
0.0923849520250376
 50
86.5278914680266951
 51
125.2993664784435026
  0
ARC
  5
B9C1
  8
0
 10
4215.8390865705241595
 20
210.9667631718166092
 30
0.0
 40
0.0222795402546842
 50
124.9215870167137012
 51
233.3162504546934883
  0
ARC
  5
B9C2
  8
0
 10
4215.4893801927100867
 20
210.8464426632814082
 30
0.0
 40
0.0311493552513651
 50
45.3529907191391999
 51
126.2307370019263999
  0
ARC
  5
B9C3
  8
0
 10
4215.4780798925294221
 20
210.86243004412799
 30
0.0
 40
0.0115791420083053
 50
127.8828953968455977
 51
240.650199736530908
  0
ARC
  5
B9C4
  8
0
 10
4215.4905157111188601
 20
210.8796270722507984
 30
0.0
 40
0.032752949736346
 50
236.4293635407464933
 51
303.9933989761685211
  0
ARC
  5
B9C5
  8
0
 10
4215.5025577240694474
 20
210.8616717537742034
 30
0.0
 40
0.011133635903811
 50
304.274972317097081
 51
38.5082730697397082
  0
ARC
  5
B9C6
  8
0
 10
4215.4892867460957859
 20
210.8342793253005141
 30
0.0
 40
0.0733931487839909
 50
49.4995775112360477
 51
128.1710518821161031
  0
ARC
  5
B9C7
  8
0
 10
4215.4633092298836345
 20
210.8702771387945916
 30
0.0
 40
0.0290956275688429
 50
131.7659232832608041
 51
223.5468953394195921
  0
ARC
  5
B9C8
  8
0
 10
4215.49087807300657
 20
210.8990582063534873
 30
0.0
 40
0.0689317781371838
 50
225.099197909649007
 51
312.7048896711310135
  0
ARC
  5
B9C9
  8
0
 10
4215.5163754990180678
 20
210.8689057318846096
 30
0.0
 40
0.0295308370765986
 50
316.0305713366681744
 51
45.8302307705096865
  0
LINE
  5
B9CA
  8
0
 10
4215.5459024426736505
 20
210.8693852491313123
 30
0.0
 11
4215.5473288131452136
 21
210.9259981745967139
 31
0.0
  0
LINE
  5
B9CB
  8
0
 10
4215.434277220313561
 20
210.8722001478977006
 30
0.0
 11
4215.4327109099740483
 21
210.9296919099431875
 31
0.0
  0
ARC
  5
B9CC
  8
0
 10
4215.5319544169024084
 20
210.9080095386607923
 30
0.0
 40
0.0236635390989088
 50
307.6742042213138006
 51
49.4803922768623323
  0
ARC
  5
B9CD
  8
0
 10
4215.4883980446193164
 20
210.8572004102389883
 30
0.0
 40
0.0905867973805275
 50
49.4173111534571987
 51
86.9618077615106557
  0
ARC
  5
B9CE
  8
0
 10
4215.4876042140413119
 20
210.8554445111780922
 30
0.0
 40
0.0923849520250376
 50
86.5278914680266951
 51
125.2993664784435026
  0
ARC
  5
B9CF
  8
0
 10
4215.4469737294093648
 20
210.9125761307986977
 30
0.0
 40
0.0222795402546842
 50
124.9215870167137012
 51
233.3162504546934883
  0
ARC
  5
B9D0
  8
0
 10
4215.4648365003458821
 20
211.114006442884488
 30
0.0
 40
0.0311493552513651
 50
45.3529907191391999
 51
126.2307370019263999
  0
ARC
  5
B9D1
  8
0
 10
4215.4535362001661269
 20
211.129993823731013
 30
0.0
 40
0.0115791420083053
 50
127.8828953968455977
 51
240.650199736530908
  0
ARC
  5
B9D2
  8
0
 10
4215.4659720187537459
 20
211.1471908518539067
 30
0.0
 40
0.032752949736346
 50
236.4293635407464933
 51
303.9933989761685211
  0
ARC
  5
B9D3
  8
0
 10
4215.4780140317061523
 20
211.129235533377198
 30
0.0
 40
0.011133635903811
 50
304.274972317097081
 51
38.5082730697397082
  0
ARC
  5
B9D4
  8
0
 10
4215.4647430537315813
 20
211.1018431049035939
 30
0.0
 40
0.0733931487839909
 50
49.4995775112360477
 51
128.1710518821161031
  0
ARC
  5
B9D5
  8
0
 10
4215.4387655375194299
 20
211.1378409183976999
 30
0.0
 40
0.0290956275688429
 50
131.7659232832608041
 51
223.5468953394195921
  0
ARC
  5
B9D6
  8
0
 10
4215.4663343806432749
 20
211.1666219859565956
 30
0.0
 40
0.0689317781371838
 50
225.099197909649007
 51
312.7048896711310135
  0
ARC
  5
B9D7
  8
0
 10
4215.4918318066538632
 20
211.1364695114876895
 30
0.0
 40
0.0295308370765986
 50
316.0305713366681744
 51
45.8302307705096865
  0
LINE
  5
B9D8
  8
0
 10
4215.5213587503112649
 20
211.1369490287343069
 30
0.0
 11
4215.522785120781009
 21
211.1935619541997937
 31
0.0
  0
LINE
  5
B9D9
  8
0
 10
4215.4097335279502659
 20
211.1397639275008089
 30
0.0
 11
4215.4081672176089342
 21
211.1972556895462105
 31
0.0
  0
ARC
  5
B9DA
  8
0
 10
4215.5074107245382038
 20
211.1755733182639005
 30
0.0
 40
0.0236635390989088
 50
307.6742042213138006
 51
49.4803922768623323
  0
ARC
  5
B9DB
  8
0
 10
4215.4638543522560212
 20
211.1247641898420113
 30
0.0
 40
0.0905867973805275
 50
49.4173111534571987
 51
86.9618077615106557
  0
ARC
  5
B9DC
  8
0
 10
4215.4630605216761978
 20
211.1230082907812005
 30
0.0
 40
0.0923849520250376
 50
86.5278914680266951
 51
125.2993664784435026
  0
ARC
  5
B9DD
  8
0
 10
4215.4224300370451601
 20
211.180139910401806
 30
0.0
 40
0.0222795402546842
 50
124.9215870167137012
 51
233.3162504546934883
  0
ARC
  5
B9DE
  8
0
 10
4215.0087581834923185
 20
210.9145112281713068
 30
0.0
 40
0.0311493552513651
 50
45.3529907191391999
 51
126.2307370019263999
  0
ARC
  5
B9DF
  8
0
 10
4214.9974578833116539
 20
210.9304986090178033
 30
0.0
 40
0.0115791420083053
 50
127.8828953968455977
 51
240.650199736530908
  0
ARC
  5
B9E0
  8
0
 10
4215.0098937019010918
 20
210.947695637140697
 30
0.0
 40
0.032752949736346
 50
236.4293635407464933
 51
303.9933989761685211
  0
ARC
  5
B9E1
  8
0
 10
4215.0219357148525887
 20
210.9297403186639883
 30
0.0
 40
0.011133635903811
 50
304.274972317097081
 51
38.5082730697397082
  0
ARC
  5
B9E2
  8
0
 10
4215.0086647368798367
 20
210.9023478901904127
 30
0.0
 40
0.0733931487839909
 50
49.4995775112360477
 51
128.1710518821161031
  0
ARC
  5
B9E3
  8
0
 10
4214.9826872206667758
 20
210.9383457036844902
 30
0.0
 40
0.0290956275688429
 50
131.7659232832608041
 51
223.5468953394195921
  0
ARC
  5
B9E4
  8
0
 10
4215.0102560637897113
 20
210.967126771243386
 30
0.0
 40
0.0689317781371838
 50
225.099197909649007
 51
312.7048896711310135
  0
ARC
  5
B9E5
  8
0
 10
4215.0357534898012091
 20
210.9369742967745083
 30
0.0
 40
0.0295308370765986
 50
316.0305713366681744
 51
45.8302307705096865
  0
LINE
  5
B9E6
  8
0
 10
4215.0652804334558823
 20
210.9374538140210973
 30
0.0
 11
4215.0667068039283549
 21
210.9940667394866125
 31
0.0
  0
LINE
  5
B9E7
  8
0
 10
4214.9536552110976118
 20
210.9402687127875993
 30
0.0
 11
4214.952088900758099
 21
210.9977604748330009
 31
0.0
  0
ARC
  5
B9E8
  8
0
 10
4215.0513324076846402
 20
210.9760781035506909
 30
0.0
 40
0.0236635390989088
 50
307.6742042213138006
 51
49.4803922768623323
  0
ARC
  5
B9E9
  8
0
 10
4215.0077760354015481
 20
210.9252689751288017
 30
0.0
 40
0.0905867973805275
 50
49.4173111534571987
 51
86.9618077615106557
  0
ARC
  5
B9EA
  8
0
 10
4215.0069822048226342
 20
210.9235130760679908
 30
0.0
 40
0.0923849520250376
 50
86.5278914680266951
 51
125.2993664784435026
  0
ARC
  5
B9EB
  8
0
 10
4214.9663517201915965
 20
210.9806446956885964
 30
0.0
 40
0.0222795402546842
 50
124.9215870167137012
 51
233.3162504546934883
  0
ARC
  5
B9EC
  8
0
 10
4215.0939860125263294
 20
211.2341963706975889
 30
0.0
 40
0.0311493552513651
 50
45.3529907191391999
 51
126.2307370019263999
  0
ARC
  5
B9ED
  8
0
 10
4215.0826857123465743
 20
211.2501837515440002
 30
0.0
 40
0.0115791420083053
 50
127.8828953968455977
 51
240.650199736530908
  0
ARC
  5
B9EE
  8
0
 10
4215.0951215309351028
 20
211.2673807796670076
 30
0.0
 40
0.032752949736346
 50
236.4293635407464933
 51
303.9933989761685211
  0
ARC
  5
B9EF
  8
0
 10
4215.1071635438856902
 20
211.2494254611902136
 30
0.0
 40
0.011133635903811
 50
304.274972317097081
 51
38.5082730697397082
  0
ARC
  5
B9F0
  8
0
 10
4215.0938925659138476
 20
211.2220330327166096
 30
0.0
 40
0.0733931487839909
 50
49.4995775112360477
 51
128.1710518821161031
  0
ARC
  5
B9F1
  8
0
 10
4215.0679150496998773
 20
211.2580308462106871
 30
0.0
 40
0.0290956275688429
 50
131.7659232832608041
 51
223.5468953394195921
  0
ARC
  5
B9F2
  8
0
 10
4215.0954838928228128
 20
211.2868119137696112
 30
0.0
 40
0.0689317781371838
 50
225.099197909649007
 51
312.7048896711310135
  0
ARC
  5
B9F3
  8
0
 10
4215.12098131883522
 20
211.2566594393007051
 30
0.0
 40
0.0295308370765986
 50
316.0305713366681744
 51
45.8302307705096865
  0
LINE
  5
B9F4
  8
0
 10
4215.1505082624908027
 20
211.2571389565474078
 30
0.0
 11
4215.1519346329623659
 21
211.3137518820128093
 31
0.0
  0
LINE
  5
B9F5
  8
0
 10
4215.0388830401316227
 20
211.2599538553137961
 30
0.0
 11
4215.0373167297912005
 21
211.3174456173593114
 31
0.0
  0
ARC
  5
B9F6
  8
0
 10
4215.1365602367177416
 20
211.2957632460768878
 30
0.0
 40
0.0236635390989088
 50
307.6742042213138006
 51
49.4803922768623323
  0
ARC
  5
B9F7
  8
0
 10
4215.0930038644373781
 20
211.2449541176549985
 30
0.0
 40
0.0905867973805275
 50
49.4173111534571987
 51
86.9618077615106557
  0
ARC
  5
B9F8
  8
0
 10
4215.0922100338575547
 20
211.2431982185941877
 30
0.0
 40
0.0923849520250376
 50
86.5278914680266951
 51
125.2993664784435026
  0
ARC
  5
B9F9
  8
0
 10
4215.051579549224698
 20
211.3003298382147932
 30
0.0
 40
0.0222795402546842
 50
124.9215870167137012
 51
233.3162504546934883
  0
ARC
  5
B9FA
  8
0
 10
4214.7354808778536608
 20
211.4958815248847088
 30
0.0
 40
0.0311493552513651
 50
45.3529907191391999
 51
126.2307370019263999
  0
ARC
  5
B9FB
  8
0
 10
4214.7241805776739056
 20
211.5118689057312054
 30
0.0
 40
0.0115791420083053
 50
127.8828953968455977
 51
240.650199736530908
  0
ARC
  5
B9FC
  8
0
 10
4214.7366163962624341
 20
211.5290659338540991
 30
0.0
 40
0.032752949736346
 50
236.4293635407464933
 51
303.9933989761685211
  0
ARC
  5
B9FD
  8
0
 10
4214.748658409212112
 20
211.5111106153773903
 30
0.0
 40
0.011133635903811
 50
304.274972317097081
 51
38.5082730697397082
  0
ARC
  5
B9FE
  8
0
 10
4214.7353874312402695
 20
211.4837181869037863
 30
0.0
 40
0.0733931487839909
 50
49.4995775112360477
 51
128.1710518821161031
  0
ARC
  5
B9FF
  8
0
 10
4214.7094099150272086
 20
211.5197160003978922
 30
0.0
 40
0.0290956275688429
 50
131.7659232832608041
 51
223.5468953394195921
  0
ARC
  5
BA00
  8
0
 10
4214.7369787581501441
 20
211.548497067956788
 30
0.0
 40
0.0689317781371838
 50
225.099197909649007
 51
312.7048896711310135
  0
ARC
  5
BA01
  8
0
 10
4214.7624761841607324
 20
211.5183445934879103
 30
0.0
 40
0.0295308370765986
 50
316.0305713366681744
 51
45.8302307705096865
  0
LINE
  5
BA02
  8
0
 10
4214.7920031278181341
 20
211.5188241107344993
 30
0.0
 11
4214.7934294982878782
 21
211.5754370361999861
 31
0.0
  0
LINE
  5
BA03
  8
0
 10
4214.6803779054580446
 20
211.5216390095010013
 30
0.0
 11
4214.6788115951167129
 21
211.5791307715464029
 31
0.0
  0
ARC
  5
BA04
  8
0
 10
4214.778055102045073
 20
211.5574484002640929
 30
0.0
 40
0.0236635390989088
 50
307.6742042213138006
 51
49.4803922768623323
  0
ARC
  5
BA05
  8
0
 10
4214.7344987297628904
 20
211.5066392718422037
 30
0.0
 40
0.0905867973805275
 50
49.4173111534571987
 51
86.9618077615106557
  0
ARC
  5
BA06
  8
0
 10
4214.7337048991839765
 20
211.5048833727813928
 30
0.0
 40
0.0923849520250376
 50
86.5278914680266951
 51
125.2993664784435026
  0
ARC
  5
BA07
  8
0
 10
4214.6930744145529388
 20
211.5620149924019984
 30
0.0
 40
0.0222795402546842
 50
124.9215870167137012
 51
233.3162504546934883
  0
ARC
  5
BA08
  8
0
 10
4215.3054955889501798
 20
211.4592760448720128
 30
0.0
 40
0.0311493552513651
 50
45.3529907191391999
 51
126.2307370019263999
  0
ARC
  5
BA09
  8
0
 10
4215.2941952887713342
 20
211.4752634257185946
 30
0.0
 40
0.0115791420083053
 50
127.8828953968455977
 51
240.650199736530908
  0
ARC
  5
BA0A
  8
0
 10
4215.3066311073589532
 20
211.492460453841403
 30
0.0
 40
0.032752949736346
 50
236.4293635407464933
 51
303.9933989761685211
  0
ARC
  5
BA0B
  8
0
 10
4215.31867312031045
 20
211.474505135364808
 30
0.0
 40
0.011133635903811
 50
304.274972317097081
 51
38.5082730697397082
  0
ARC
  5
BA0C
  8
0
 10
4215.3054021423367885
 20
211.4471127068910903
 30
0.0
 40
0.0733931487839909
 50
49.4995775112360477
 51
128.1710518821161031
  0
ARC
  5
BA0D
  8
0
 10
4215.2794246261237276
 20
211.4831105203851962
 30
0.0
 40
0.0290956275688429
 50
131.7659232832608041
 51
223.5468953394195921
  0
ARC
  5
BA0E
  8
0
 10
4215.3069934692466632
 20
211.511891587944092
 30
0.0
 40
0.0689317781371838
 50
225.099197909649007
 51
312.7048896711310135
  0
ARC
  5
BA0F
  8
0
 10
4215.3324908952590704
 20
211.4817391134751858
 30
0.0
 40
0.0295308370765986
 50
316.0305713366681744
 51
45.8302307705096865
  0
LINE
  5
BA10
  8
0
 10
4215.3620178389146531
 20
211.4822186307218885
 30
0.0
 11
4215.3634442093853067
 21
211.5388315561872901
 31
0.0
  0
LINE
  5
BA11
  8
0
 10
4215.2503926165536541
 20
211.4850335294883052
 30
0.0
 11
4215.2488263062141414
 21
211.5425252915337069
 31
0.0
  0
ARC
  5
BA12
  8
0
 10
4215.348069813141592
 20
211.5208429202513116
 30
0.0
 40
0.0236635390989088
 50
307.6742042213138006
 51
49.4803922768623323
  0
ARC
  5
BA13
  8
0
 10
4215.3045134408612284
 20
211.4700337918295929
 30
0.0
 40
0.0905867973805275
 50
49.4173111534571987
 51
86.9618077615106557
  0
ARC
  5
BA14
  8
0
 10
4215.303719610281405
 20
211.4682778927686968
 30
0.0
 40
0.0923849520250376
 50
86.5278914680266951
 51
125.2993664784435026
  0
ARC
  5
BA15
  8
0
 10
4215.2630891256485484
 20
211.5254095123893023
 30
0.0
 40
0.0222795402546842
 50
124.9215870167137012
 51
233.3162504546934883
  0
ARC
  5
BA16
  8
0
 10
4215.0934129178258445
 20
211.7137591534018952
 30
0.0
 40
0.0311493552513651
 50
45.3529907191391999
 51
126.2307370019263999
  0
ARC
  5
BA17
  8
0
 10
4215.0821126176460893
 20
211.7297465342483918
 30
0.0
 40
0.0115791420083053
 50
127.8828953968455977
 51
240.650199736530908
  0
ARC
  5
BA18
  8
0
 10
4215.0945484362337083
 20
211.7469435623713139
 30
0.0
 40
0.032752949736346
 50
236.4293635407464933
 51
303.9933989761685211
  0
ARC
  5
BA19
  8
0
 10
4215.1065904491861147
 20
211.7289882438946051
 30
0.0
 40
0.011133635903811
 50
304.274972317097081
 51
38.5082730697397082
  0
ARC
  5
BA1A
  8
0
 10
4215.0933194712124532
 20
211.7015958154210011
 30
0.0
 40
0.0733931487839909
 50
49.4995775112360477
 51
128.1710518821161031
  0
ARC
  5
BA1B
  8
0
 10
4215.0673419549993923
 20
211.737593628915107
 30
0.0
 40
0.0290956275688429
 50
131.7659232832608041
 51
223.5468953394195921
  0
ARC
  5
BA1C
  8
0
 10
4215.0949107981232373
 20
211.7663746964740028
 30
0.0
 40
0.0689317781371838
 50
225.099197909649007
 51
312.7048896711310135
  0
ARC
  5
BA1D
  8
0
 10
4215.1204082241347351
 20
211.7362222220050967
 30
0.0
 40
0.0295308370765986
 50
316.0305713366681744
 51
45.8302307705096865
  0
LINE
  5
BA1E
  8
0
 10
4215.1499351677903178
 20
211.7367017392517141
 30
0.0
 11
4215.1513615382618809
 21
211.7933146647172009
 31
0.0
  0
LINE
  5
BA1F
  8
0
 10
4215.0383099454302283
 20
211.7395166380181877
 30
0.0
 11
4215.036743635089806
 21
211.7970084000635893
 31
0.0
  0
ARC
  5
BA20
  8
0
 10
4215.1359871420181662
 20
211.7753260287813077
 30
0.0
 40
0.0236635390989088
 50
307.6742042213138006
 51
49.4803922768623323
  0
ARC
  5
BA21
  8
0
 10
4215.0924307697350741
 20
211.7245169003595038
 30
0.0
 40
0.0905867973805275
 50
49.4173111534571987
 51
86.9618077615106557
  0
ARC
  5
BA22
  8
0
 10
4215.0916369391552507
 20
211.7227610012986077
 30
0.0
 40
0.0923849520250376
 50
86.5278914680266951
 51
125.2993664784435026
  0
ARC
  5
BA23
  8
0
 10
4215.0510064545251225
 20
211.7798926209192132
 30
0.0
 40
0.0222795402546842
 50
124.9215870167137012
 51
233.3162504546934883
  0
ARC
  5
BA24
  8
0
 10
4215.4661524463290334
 20
211.8044943168765997
 30
0.0
 40
0.0311493552513651
 50
45.3529907191391999
 51
126.2307370019263999
  0
ARC
  5
BA25
  8
0
 10
4215.4548521461492783
 20
211.8204816977232099
 30
0.0
 40
0.0115791420083053
 50
127.8828953968455977
 51
240.650199736530908
  0
ARC
  5
BA26
  8
0
 10
4215.4672879647378068
 20
211.8376787258461036
 30
0.0
 40
0.032752949736346
 50
236.4293635407464933
 51
303.9933989761685211
  0
ARC
  5
BA27
  8
0
 10
4215.4793299776883941
 20
211.8197234073693949
 30
0.0
 40
0.011133635903811
 50
304.274972317097081
 51
38.5082730697397082
  0
ARC
  5
BA28
  8
0
 10
4215.4660589997156421
 20
211.7923309788957056
 30
0.0
 40
0.0733931487839909
 50
49.4995775112360477
 51
128.1710518821161031
  0
ARC
  5
BA29
  8
0
 10
4215.4400814835025812
 20
211.8283287923898115
 30
0.0
 40
0.0290956275688429
 50
131.7659232832608041
 51
223.5468953394195921
  0
ARC
  5
BA2A
  8
0
 10
4215.4676503266264262
 20
211.8571098599487073
 30
0.0
 40
0.0689317781371838
 50
225.099197909649007
 51
312.7048896711310135
  0
ARC
  5
BA2B
  8
0
 10
4215.493147752637924
 20
211.8269573854798011
 30
0.0
 40
0.0295308370765986
 50
316.0305713366681744
 51
45.8302307705096865
  0
LINE
  5
BA2C
  8
0
 10
4215.5226746962944162
 20
211.8274369027265038
 30
0.0
 11
4215.5241010667650698
 21
211.8840498281919054
 31
0.0
  0
LINE
  5
BA2D
  8
0
 10
4215.4110494739343267
 20
211.8302518014928921
 30
0.0
 11
4215.409483163592995
 21
211.8877435635384074
 31
0.0
  0
ARC
  5
BA2E
  8
0
 10
4215.5087266705213551
 20
211.8660611922560122
 30
0.0
 40
0.0236635390989088
 50
307.6742042213138006
 51
49.4803922768623323
  0
ARC
  5
BA2F
  8
0
 10
4215.4651702982391726
 20
211.8152520638342082
 30
0.0
 40
0.0905867973805275
 50
49.4173111534571987
 51
86.9618077615106557
  0
ARC
  5
BA30
  8
0
 10
4215.4643764676602586
 20
211.8134961647733121
 30
0.0
 40
0.0923849520250376
 50
86.5278914680266951
 51
125.2993664784435026
  0
ARC
  5
BA31
  8
0
 10
4215.423745983029221
 20
211.8706277843938892
 30
0.0
 40
0.0222795402546842
 50
124.9215870167137012
 51
233.3162504546934883
  0
ARC
  5
BA32
  8
0
 10
4215.0048700274091971
 20
212.0769853673853049
 30
0.0
 40
0.0311493552513651
 50
45.3529907191391999
 51
126.2307370019263999
  0
ARC
  5
BA33
  8
0
 10
4214.9935697272294419
 20
212.0929727482318867
 30
0.0
 40
0.0115791420083053
 50
127.8828953968455977
 51
240.650199736530908
  0
ARC
  5
BA34
  8
0
 10
4215.0060055458179704
 20
212.1101697763546952
 30
0.0
 40
0.032752949736346
 50
236.4293635407464933
 51
303.9933989761685211
  0
ARC
  5
BA35
  8
0
 10
4215.0180475587685578
 20
212.0922144578779864
 30
0.0
 40
0.011133635903811
 50
304.274972317097081
 51
38.5082730697397082
  0
ARC
  5
BA36
  8
0
 10
4215.0047765807958058
 20
212.0648220294044108
 30
0.0
 40
0.0733931487839909
 50
49.4995775112360477
 51
128.1710518821161031
  0
ARC
  5
BA37
  8
0
 10
4214.9787990645818354
 20
212.1008198428984883
 30
0.0
 40
0.0290956275688429
 50
131.7659232832608041
 51
223.5468953394195921
  0
ARC
  5
BA38
  8
0
 10
4215.0063679077056804
 20
212.1296009104574125
 30
0.0
 40
0.0689317781371838
 50
225.099197909649007
 51
312.7048896711310135
  0
ARC
  5
BA39
  8
0
 10
4215.0318653337180876
 20
212.0994484359885064
 30
0.0
 40
0.0295308370765986
 50
316.0305713366681744
 51
45.8302307705096865
  0
LINE
  5
BA3A
  8
0
 10
4215.0613922773727609
 20
212.0999279532350954
 30
0.0
 11
4215.062818647844324
 21
212.1565408787006106
 31
0.0
  0
LINE
  5
BA3B
  8
0
 10
4214.9497670550135808
 20
212.1027428520015974
 30
0.0
 11
4214.9482007446731586
 21
212.1602346140471127
 31
0.0
  0
ARC
  5
BA3C
  8
0
 10
4215.0474442516006093
 20
212.138552242764689
 30
0.0
 40
0.0236635390989088
 50
307.6742042213138006
 51
49.4803922768623323
  0
ARC
  5
BA3D
  8
0
 10
4215.0038878793193362
 20
212.0877431143429135
 30
0.0
 40
0.0905867973805275
 50
49.4173111534571987
 51
86.9618077615106557
  0
ARC
  5
BA3E
  8
0
 10
4215.0030940487386033
 20
212.0859872152819889
 30
0.0
 40
0.0923849520250376
 50
86.5278914680266951
 51
125.2993664784435026
  0
ARC
  5
BA3F
  8
0
 10
4214.9624635641075656
 20
212.1431188349025945
 30
0.0
 40
0.0222795402546842
 50
124.9215870167137012
 51
233.3162504546934883
  0
ARC
  5
BA40
  8
0
 10
4215.4918669970857081
 20
212.1017662587198913
 30
0.0
 40
0.0311493552513651
 50
45.3529907191391999
 51
126.2307370019263999
  0
ARC
  5
BA41
  8
0
 10
4215.480566696905953
 20
212.1177536395663878
 30
0.0
 40
0.0115791420083053
 50
127.8828953968455977
 51
240.650199736530908
  0
ARC
  5
BA42
  8
0
 10
4215.493002515495391
 20
212.13495066768931
 30
0.0
 40
0.032752949736346
 50
236.4293635407464933
 51
303.9933989761685211
  0
ARC
  5
BA43
  8
0
 10
4215.5050445284459784
 20
212.1169953492126012
 30
0.0
 40
0.011133635903811
 50
304.274972317097081
 51
38.5082730697397082
  0
ARC
  5
BA44
  8
0
 10
4215.4917735504732264
 20
212.0896029207389972
 30
0.0
 40
0.0733931487839909
 50
49.4995775112360477
 51
128.1710518821161031
  0
ARC
  5
BA45
  8
0
 10
4215.4657960342601655
 20
212.1256007342331031
 30
0.0
 40
0.0290956275688429
 50
131.7659232832608041
 51
223.5468953394195921
  0
ARC
  5
BA46
  8
0
 10
4215.493364877383101
 20
212.1543818017919989
 30
0.0
 40
0.0689317781371838
 50
225.099197909649007
 51
312.7048896711310135
  0
ARC
  5
BA47
  8
0
 10
4215.5188623033936892
 20
212.1242293273230928
 30
0.0
 40
0.0295308370765986
 50
316.0305713366681744
 51
45.8302307705096865
  0
LINE
  5
BA48
  8
0
 10
4215.5483892470510909
 20
212.1247088445697102
 30
0.0
 11
4215.5498156175217446
 21
212.181321770035197
 31
0.0
  0
LINE
  5
BA49
  8
0
 10
4215.4367640246910014
 20
212.1275237433362122
 30
0.0
 11
4215.4351977143496697
 21
212.1850155053816138
 31
0.0
  0
ARC
  5
BA4A
  8
0
 10
4215.5344412212780298
 20
212.1633331340993038
 30
0.0
 40
0.0236635390989088
 50
307.6742042213138006
 51
49.4803922768623323
  0
ARC
  5
BA4B
  8
0
 10
4215.4908848489949378
 20
212.1125240056773862
 30
0.0
 40
0.0905867973805275
 50
49.4173111534571987
 51
86.9618077615106557
  0
ARC
  5
BA4C
  8
0
 10
4215.4900910184160239
 20
212.1107681066166037
 30
0.0
 40
0.0923849520250376
 50
86.5278914680266951
 51
125.2993664784435026
  0
ARC
  5
BA4D
  8
0
 10
4215.4494605337849862
 20
212.1678997262372093
 30
0.0
 40
0.0222795402546842
 50
124.9215870167137012
 51
233.3162504546934883
  0
ARC
  5
BA4E
  8
0
 10
4215.8773480520667363
 20
212.0180984674630054
 30
0.0
 40
0.0311493552513651
 50
45.3529907191391999
 51
126.2307370019263999
  0
ARC
  5
BA4F
  8
0
 10
4215.8660477518869811
 20
212.0340858483095019
 30
0.0
 40
0.0115791420083053
 50
127.8828953968455977
 51
240.650199736530908
  0
ARC
  5
BA50
  8
0
 10
4215.8784835704764191
 20
212.0512828764323956
 30
0.0
 40
0.032752949736346
 50
236.4293635407464933
 51
303.9933989761685211
  0
ARC
  5
BA51
  8
0
 10
4215.8905255834270065
 20
212.0333275579556869
 30
0.0
 40
0.011133635903811
 50
304.274972317097081
 51
38.5082730697397082
  0
ARC
  5
BA52
  8
0
 10
4215.8772546054542545
 20
212.0059351294821113
 30
0.0
 40
0.0733931487839909
 50
49.4995775112360477
 51
128.1710518821161031
  0
ARC
  5
BA53
  8
0
 10
4215.8512770892402841
 20
212.0419329429761888
 30
0.0
 40
0.0290956275688429
 50
131.7659232832608041
 51
223.5468953394195921
  0
ARC
  5
BA54
  8
0
 10
4215.8788459323650386
 20
212.0707140105351129
 30
0.0
 40
0.0689317781371838
 50
225.099197909649007
 51
312.7048896711310135
  0
ARC
  5
BA55
  8
0
 10
4215.9043433583747174
 20
212.0405615360660931
 30
0.0
 40
0.0295308370765986
 50
316.0305713366681744
 51
45.8302307705096865
  0
LINE
  5
BA56
  8
0
 10
4215.9338703020312096
 20
212.0410410533127958
 30
0.0
 11
4215.9352966725027727
 21
212.0976539787783111
 31
0.0
  0
LINE
  5
BA57
  8
0
 10
4215.8222450796720295
 20
212.0438559520792126
 30
0.0
 11
4215.8206787693316073
 21
212.1013477141246142
 31
0.0
  0
ARC
  5
BA58
  8
0
 10
4215.919922276259058
 20
212.0796653428423042
 30
0.0
 40
0.0236635390989088
 50
307.6742042213138006
 51
49.4803922768623323
  0
ARC
  5
BA59
  8
0
 10
4215.8763659039768754
 20
212.0288562144205002
 30
0.0
 40
0.0905867973805275
 50
49.4173111534571987
 51
86.9618077615106557
  0
ARC
  5
BA5A
  8
0
 10
4215.875572073397052
 20
212.0271003153596894
 30
0.0
 40
0.0923849520250376
 50
86.5278914680266951
 51
125.2993664784435026
  0
ARC
  5
BA5B
  8
0
 10
4215.8349415887660143
 20
212.0842319349802096
 30
0.0
 40
0.0222795402546842
 50
124.9215870167137012
 51
233.3162504546934883
  0
ARC
  5
BA5C
  8
0
 10
4215.7051347840442759
 20
212.4362505642779126
 30
0.0
 40
0.0311493552513651
 50
45.3529907191391999
 51
126.2307370019263999
  0
ARC
  5
BA5D
  8
0
 10
4215.6938344838636112
 20
212.4522379451244092
 30
0.0
 40
0.0115791420083053
 50
127.8828953968455977
 51
240.650199736530908
  0
ARC
  5
BA5E
  8
0
 10
4215.7062703024521397
 20
212.4694349732473029
 30
0.0
 40
0.032752949736346
 50
236.4293635407464933
 51
303.9933989761685211
  0
ARC
  5
BA5F
  8
0
 10
4215.7183123154027271
 20
212.4514796547705942
 30
0.0
 40
0.011133635903811
 50
304.274972317097081
 51
38.5082730697397082
  0
ARC
  5
BA60
  8
0
 10
4215.7050413374299751
 20
212.4240872262969901
 30
0.0
 40
0.0733931487839909
 50
49.4995775112360477
 51
128.1710518821161031
  0
ARC
  5
BA61
  8
0
 10
4215.6790638212169142
 20
212.4600850397910961
 30
0.0
 40
0.0290956275688429
 50
131.7659232832608041
 51
223.5468953394195921
  0
ARC
  5
BA62
  8
0
 10
4215.7066326643398497
 20
212.4888661073499918
 30
0.0
 40
0.0689317781371838
 50
225.099197909649007
 51
312.7048896711310135
  0
ARC
  5
BA63
  8
0
 10
4215.732130090350438
 20
212.4587136328811141
 30
0.0
 40
0.0295308370765986
 50
316.0305713366681744
 51
45.8302307705096865
  0
LINE
  5
BA64
  8
0
 10
4215.7616570340078397
 20
212.4591931501277884
 30
0.0
 11
4215.7630834044775838
 21
212.5158060755931899
 31
0.0
  0
LINE
  5
BA65
  8
0
 10
4215.6500318116468407
 20
212.4620080488942051
 30
0.0
 11
4215.6484655013073279
 21
212.5194998109396067
 31
0.0
  0
ARC
  5
BA66
  8
0
 10
4215.7477090082356881
 20
212.4978174396572967
 30
0.0
 40
0.0236635390989088
 50
307.6742042213138006
 51
49.4803922768623323
  0
ARC
  5
BA67
  8
0
 10
4215.704152635952596
 20
212.4470083112354075
 30
0.0
 40
0.0905867973805275
 50
49.4173111534571987
 51
86.9618077615106557
  0
ARC
  5
BA68
  8
0
 10
4215.7033588053727726
 20
212.4452524121745967
 30
0.0
 40
0.0923849520250376
 50
86.5278914680266951
 51
125.2993664784435026
  0
ARC
  5
BA69
  8
0
 10
4215.6627283207426444
 20
212.5023840317952022
 30
0.0
 40
0.0222795402546842
 50
124.9215870167137012
 51
233.3162504546934883
  0
ARC
  5
BA6A
  8
0
 10
4215.1575026283935586
 20
210.5663942492423075
 30
0.0
 40
0.0311493552513651
 50
45.3529907191391999
 51
126.2307370019263999
  0
ARC
  5
BA6B
  8
0
 10
4215.1462023282147129
 20
210.5823816300888893
 30
0.0
 40
0.0115791420083053
 50
127.8828953968455977
 51
240.650199736530908
  0
ARC
  5
BA6C
  8
0
 10
4215.1586381468032414
 20
210.5995786582118114
 30
0.0
 40
0.032752949736346
 50
236.4293635407464933
 51
303.9933989761685211
  0
ARC
  5
BA6D
  8
0
 10
4215.1706801597538288
 20
210.5816233397351027
 30
0.0
 40
0.011133635903811
 50
304.274972317097081
 51
38.5082730697397082
  0
ARC
  5
BA6E
  8
0
 10
4215.1561345369664195
 20
210.5351436132656033
 30
0.0
 40
0.1042251496548525
 50
48.1306344779204167
 51
129.5498461121048877
  0
ARC
  5
BA6F
  8
0
 10
4215.1167319583009885
 20
210.5907604422592954
 30
0.0
 40
0.0365986173467524
 50
137.4522371514518113
 51
216.4052613696376
  0
ARC
  5
BA70
  8
0
 10
4215.1599753190130286
 20
210.6356014135500914
 30
0.0
 40
0.0985682300861345
 50
222.4765537873938115
 51
311.9036836660836798
  0
ARC
  5
BA71
  8
0
 10
4215.1967476301106217
 20
210.5874358391940007
 30
0.0
 40
0.0384613420674797
 50
319.0734771084958084
 51
41.1740299746061424
  0
LINE
  5
BA72
  8
0
 10
4215.2352051826019306
 20
210.5879757373359098
 30
0.0
 11
4215.237441476035201
 21
210.6564522023678876
 31
0.0
  0
LINE
  5
BA73
  8
0
 10
4215.0803044759122713
 20
210.5942955969225068
 30
0.0
 11
4215.0783741260320312
 21
210.6585304563245131
 31
0.0
  0
ARC
  5
BA74
  8
0
 10
4215.2025363163565999
 20
210.6307115413750068
 30
0.0
 40
0.0433699412092784
 50
319.8522562528680737
 51
36.4067605415344033
  0
ARC
  5
BA75
  8
0
 10
4215.164190321186652
 20
210.5888209109421041
 30
0.0
 40
0.0996981607976655
 50
42.7156570180649311
 51
88.5015781882035668
  0
ARC
  5
BA76
  8
0
 10
4215.1537000592052209
 20
210.5808514686756041
 30
0.0
 40
0.1084274513001164
 50
83.0621112385119744
 51
131.7358134957966058
  0
ARC
  5
BA77
  8
0
 10
4215.1059126862292032
 20
210.6348708471867042
 30
0.0
 40
0.0363063273028535
 50
132.2100981645810975
 51
224.1099551555273877
  0
ARC
  5
BA78
  8
0
 10
4214.6459500827959346
 20
210.7708095178622898
 30
0.0
 40
0.0311493552513651
 50
45.3529907191391999
 51
126.2307370019263999
  0
ARC
  5
BA79
  8
0
 10
4214.6346497826170889
 20
210.7867968987087863
 30
0.0
 40
0.0115791420083053
 50
127.8828953968455977
 51
240.650199736530908
  0
ARC
  5
BA7A
  8
0
 10
4214.6470856012056174
 20
210.8039939268317084
 30
0.0
 40
0.032752949736346
 50
236.4293635407464933
 51
303.9933989761685211
  0
ARC
  5
BA7B
  8
0
 10
4214.6591276141571143
 20
210.7860386083549997
 30
0.0
 40
0.011133635903811
 50
304.274972317097081
 51
38.5082730697397082
  0
ARC
  5
BA7C
  8
0
 10
4214.6445819913678861
 20
210.739558881885614
 30
0.0
 40
0.1042251496548525
 50
48.1306344779204167
 51
129.5498461121048877
  0
ARC
  5
BA7D
  8
0
 10
4214.6051794127033645
 20
210.7951757108793061
 30
0.0
 40
0.0365986173467524
 50
137.4522371514518113
 51
216.4052613696376
  0
ARC
  5
BA7E
  8
0
 10
4214.6484227734163142
 20
210.8400166821701021
 30
0.0
 40
0.0985682300861345
 50
222.4765537873938115
 51
311.9036836660836798
  0
ARC
  5
BA7F
  8
0
 10
4214.6851950845129977
 20
210.7918511078138977
 30
0.0
 40
0.0384613420674797
 50
319.0734771084958084
 51
41.1740299746061424
  0
LINE
  5
BA80
  8
0
 10
4214.7236526370052161
 20
210.7923910059558921
 30
0.0
 11
4214.7258889304366676
 21
210.8608674709878983
 31
0.0
  0
LINE
  5
BA81
  8
0
 10
4214.5687519303137378
 20
210.7987108655424038
 30
0.0
 11
4214.5633815654773571
 21
210.9774166192540008
 31
0.0
  0
ARC
  5
BA82
  8
0
 10
4214.6909837707598854
 20
210.8351268099949891
 30
0.0
 40
0.0433699412092784
 50
319.8522562528680737
 51
36.4067605415344033
  0
ARC
  5
BA83
  8
0
 10
4214.652637775589028
 20
210.7932361795620011
 30
0.0
 40
0.0996981607976655
 50
42.7156570180649311
 51
88.5015781882035668
  0
ARC
  5
BA84
  8
0
 10
4214.6421475136066874
 20
210.7852667372955011
 30
0.0
 40
0.1084274513001164
 50
83.0621112385119744
 51
131.7358134957966058
  0
ARC
  5
BA85
  8
0
 10
4214.5943601406306698
 20
210.8392861158066012
 30
0.0
 40
0.0363063273028535
 50
132.2100981645810975
 51
224.1099551555273877
  0
ARC
  5
BA86
  8
0
 10
4214.5510026716719949
 20
211.1555122575757082
 30
0.0
 40
0.0311493552513651
 50
45.3529907191391999
 51
126.2307370019263999
  0
ARC
  5
BA87
  8
0
 10
4214.5397023714940588
 20
211.1714996384222047
 30
0.0
 40
0.0115791420083053
 50
127.8828953968455977
 51
240.650199736530908
  0
ARC
  5
BA88
  8
0
 10
4214.5521381900816777
 20
211.1886966665450984
 30
0.0
 40
0.032752949736346
 50
236.4293635407464933
 51
303.9933989761685211
  0
ARC
  5
BA89
  8
0
 10
4214.5641802030331746
 20
211.1707413480683897
 30
0.0
 40
0.011133635903811
 50
304.274972317097081
 51
38.5082730697397082
  0
ARC
  5
BA8A
  8
0
 10
4214.5496345802457654
 20
211.124261621599004
 30
0.0
 40
0.1042251496548525
 50
48.1306344779204167
 51
129.5498461121048877
  0
ARC
  5
BA8B
  8
0
 10
4214.5102320015803343
 20
211.1798784505926108
 30
0.0
 40
0.0365986173467524
 50
137.4522371514518113
 51
216.4052613696376
  0
ARC
  5
BA8C
  8
0
 10
4214.553475362293284
 20
211.2247194218834068
 30
0.0
 40
0.0985682300861345
 50
222.4765537873938115
 51
311.9036836660836798
  0
ARC
  5
BA8D
  8
0
 10
4214.5902476733899675
 20
211.1765538475272876
 30
0.0
 40
0.0384613420674797
 50
319.0734771084958084
 51
41.1740299746061424
  0
LINE
  5
BA8E
  8
0
 10
4214.6287052258812764
 20
211.1770937456693105
 30
0.0
 11
4214.6309415193127279
 21
211.2455702107012883
 31
0.0
  0
LINE
  5
BA8F
  8
0
 10
4214.4738045191897982
 20
211.1834136052557938
 30
0.0
 11
4214.4718741693095581
 21
211.2476484646578001
 31
0.0
  0
ARC
  5
BA90
  8
0
 10
4214.5960363596359457
 20
211.2198295497082938
 30
0.0
 40
0.0433699412092784
 50
319.8522562528680737
 51
36.4067605415344033
  0
ARC
  5
BA91
  8
0
 10
4214.5576903644659978
 20
211.1779389192753911
 30
0.0
 40
0.0996981607976655
 50
42.7156570180649311
 51
88.5015781882035668
  0
ARC
  5
BA92
  8
0
 10
4214.5472001024827478
 20
211.1699694770088911
 30
0.0
 40
0.1084274513001164
 50
83.0621112385119744
 51
131.7358134957966058
  0
ARC
  5
BA93
  8
0
 10
4214.4994127295067301
 20
211.2239888555199911
 30
0.0
 40
0.0363063273028535
 50
132.2100981645810975
 51
224.1099551555273877
  0
ARC
  5
BA94
  8
0
 10
4214.2900132089398539
 20
211.5377318576863104
 30
0.0
 40
0.0311493552513651
 50
45.3529907191391999
 51
126.2307370019263999
  0
ARC
  5
BA95
  8
0
 10
4214.2787129087600988
 20
211.5537192385328069
 30
0.0
 40
0.0115791420083053
 50
127.8828953968455977
 51
240.650199736530908
  0
ARC
  5
BA96
  8
0
 10
4214.2911487273486273
 20
211.5709162666555869
 30
0.0
 40
0.032752949736346
 50
236.4293635407464933
 51
303.9933989761685211
  0
ARC
  5
BA97
  8
0
 10
4214.3031907403001242
 20
211.5529609481789066
 30
0.0
 40
0.011133635903811
 50
304.274972317097081
 51
38.5082730697397082
  0
ARC
  5
BA98
  8
0
 10
4214.2886451175118054
 20
211.5064812217094925
 30
0.0
 40
0.1042251496548525
 50
48.1306344779204167
 51
129.5498461121048877
  0
ARC
  5
BA99
  8
0
 10
4214.2492425388472839
 20
211.5620980507032129
 30
0.0
 40
0.0365986173467524
 50
137.4522371514518113
 51
216.4052613696376
  0
ARC
  5
BA9A
  8
0
 10
4214.2924858995602335
 20
211.606939021994009
 30
0.0
 40
0.0985682300861345
 50
222.4765537873938115
 51
311.9036836660836798
  0
ARC
  5
BA9B
  8
0
 10
4214.3292582106560076
 20
211.5587734476378046
 30
0.0
 40
0.0384613420674797
 50
319.0734771084958084
 51
41.1740299746061424
  0
LINE
  5
BA9C
  8
0
 10
4214.367715763148226
 20
211.559313345779799
 30
0.0
 11
4214.3699520565796774
 21
211.6277898108118052
 31
0.0
  0
LINE
  5
BA9D
  8
0
 10
4214.2128150564576572
 20
211.5656332053663959
 30
0.0
 11
4214.2108847065783266
 21
211.6298680647684023
 31
0.0
  0
ARC
  5
BA9E
  8
0
 10
4214.3350468969028952
 20
211.602049149818896
 30
0.0
 40
0.0433699412092784
 50
319.8522562528680737
 51
36.4067605415344033
  0
ARC
  5
BA9F
  8
0
 10
4214.2967009017329474
 20
211.5601585193859933
 30
0.0
 40
0.0996981607976655
 50
42.7156570180649311
 51
88.5015781882035668
  0
ARC
  5
BAA0
  8
0
 10
4214.2862106397506068
 20
211.5521890771194933
 30
0.0
 40
0.1084274513001164
 50
83.0621112385119744
 51
131.7358134957966058
  0
ARC
  5
BAA1
  8
0
 10
4214.2384232667727701
 20
211.6062084556305933
 30
0.0
 40
0.0363063273028535
 50
132.2100981645810975
 51
224.1099551555273877
  0
ARC
  5
BAA2
  8
0
 10
4214.550582248282808
 20
211.8837910999440908
 30
0.0
 40
0.0311493552513651
 50
45.3529907191391999
 51
126.2307370019263999
  0
ARC
  5
BAA3
  8
0
 10
4214.5392819481030529
 20
211.8997784807905873
 30
0.0
 40
0.0115791420083053
 50
127.8828953968455977
 51
240.650199736530908
  0
ARC
  5
BAA4
  8
0
 10
4214.5517177666906719
 20
211.9169755089135094
 30
0.0
 40
0.032752949736346
 50
236.4293635407464933
 51
303.9933989761685211
  0
ARC
  5
BAA5
  8
0
 10
4214.5637597796421687
 20
211.8990201904368007
 30
0.0
 40
0.011133635903811
 50
304.274972317097081
 51
38.5082730697397082
  0
ARC
  5
BAA6
  8
0
 10
4214.54921415685385
 20
211.8525404639673866
 30
0.0
 40
0.1042251496548525
 50
48.1306344779204167
 51
129.5498461121048877
  0
ARC
  5
BAA7
  8
0
 10
4214.5098115781893284
 20
211.908157292961107
 30
0.0
 40
0.0365986173467524
 50
137.4522371514518113
 51
216.4052613696376
  0
ARC
  5
BAA8
  8
0
 10
4214.5530549389022781
 20
211.952998264251903
 30
0.0
 40
0.0985682300861345
 50
222.4765537873938115
 51
311.9036836660836798
  0
ARC
  5
BAA9
  8
0
 10
4214.5898272499989616
 20
211.9048326898956986
 30
0.0
 40
0.0384613420674797
 50
319.0734771084958084
 51
41.1740299746061424
  0
LINE
  5
BAAA
  8
0
 10
4214.6282848024902705
 20
211.905372588037693
 30
0.0
 11
4214.6305210959226315
 21
211.9738490530696993
 31
0.0
  0
LINE
  5
BAAB
  8
0
 10
4214.4733840957997018
 20
211.91169244762429
 30
0.0
 11
4214.4714537459203711
 21
211.9759273070262964
 31
0.0
  0
ARC
  5
BAAC
  8
0
 10
4214.5956159362449398
 20
211.9481083920767901
 30
0.0
 40
0.0433699412092784
 50
319.8522562528680737
 51
36.4067605415344033
  0
ARC
  5
BAAD
  8
0
 10
4214.5572699410749919
 20
211.9062177616438021
 30
0.0
 40
0.0996981607976655
 50
42.7156570180649311
 51
88.5015781882035668
  0
ARC
  5
BAAE
  8
0
 10
4214.5467796790917419
 20
211.8982483193773874
 30
0.0
 40
0.1084274513001164
 50
83.0621112385119744
 51
131.7358134957966058
  0
ARC
  5
BAAF
  8
0
 10
4214.4989923061157242
 20
211.9522676978884022
 30
0.0
 40
0.0363063273028535
 50
132.2100981645810975
 51
224.1099551555273877
  0
ARC
  5
BAB0
  8
0
 10
4214.6436332095618127
 20
212.3046380717042041
 30
0.0
 40
0.0311493552513651
 50
45.3529907191391999
 51
126.2307370019263999
  0
ARC
  5
BAB1
  8
0
 10
4214.632332909382967
 20
212.3206254525507006
 30
0.0
 40
0.0115791420083053
 50
127.8828953968455977
 51
240.650199736530908
  0
ARC
  5
BAB2
  8
0
 10
4214.644768727972405
 20
212.3378224806735943
 30
0.0
 40
0.032752949736346
 50
236.4293635407464933
 51
303.9933989761685211
  0
ARC
  5
BAB3
  8
0
 10
4214.6568107409229924
 20
212.319867162196914
 30
0.0
 40
0.011133635903811
 50
304.274972317097081
 51
38.5082730697397082
  0
ARC
  5
BAB4
  8
0
 10
4214.6422651181346737
 20
212.2733874357274999
 30
0.0
 40
0.1042251496548525
 50
48.1306344779204167
 51
129.5498461121048877
  0
ARC
  5
BAB5
  8
0
 10
4214.6028625394701521
 20
212.3290042647211919
 30
0.0
 40
0.0365986173467524
 50
137.4522371514518113
 51
216.4052613696376
  0
ARC
  5
BAB6
  8
0
 10
4214.6461059001821923
 20
212.3738452360119879
 30
0.0
 40
0.0985682300861345
 50
222.4765537873938115
 51
311.9036836660836798
  0
ARC
  5
BAB7
  8
0
 10
4214.6828782112797853
 20
212.325679661655812
 30
0.0
 40
0.0384613420674797
 50
319.0734771084958084
 51
41.1740299746061424
  0
LINE
  5
BAB8
  8
0
 10
4214.7213357637710942
 20
212.3262195597978064
 30
0.0
 11
4214.7235720572025457
 21
212.3946960248298126
 31
0.0
  0
LINE
  5
BAB9
  8
0
 10
4214.5664350570796159
 20
212.3325394193844033
 30
0.0
 11
4214.5645047072002853
 21
212.396774278786296
 31
0.0
  0
ARC
  5
BABA
  8
0
 10
4214.688666897524854
 20
212.3689553638369034
 30
0.0
 40
0.0433699412092784
 50
319.8522562528680737
 51
36.4067605415344033
  0
ARC
  5
BABB
  8
0
 10
4214.6503209023558156
 20
212.327064733403887
 30
0.0
 40
0.0996981607976655
 50
42.7156570180649311
 51
88.5015781882035668
  0
ARC
  5
BABC
  8
0
 10
4214.6398306403725655
 20
212.319095291137387
 30
0.0
 40
0.1084274513001164
 50
83.0621112385119744
 51
131.7358134957966058
  0
ARC
  5
BABD
  8
0
 10
4214.5920432673965479
 20
212.3731146696484871
 30
0.0
 40
0.0363063273028535
 50
132.2100981645810975
 51
224.1099551555273877
  0
ARC
  5
BABE
  8
0
 10
4215.1581461764117194
 20
212.4729882874044051
 30
0.0
 40
0.0311493552513651
 50
45.3529907191391999
 51
126.2307370019263999
  0
ARC
  5
BABF
  8
0
 10
4215.1468458762319642
 20
212.4889756682509017
 30
0.0
 40
0.0115791420083053
 50
127.8828953968455977
 51
240.650199736530908
  0
ARC
  5
BAC0
  8
0
 10
4215.1592816948195832
 20
212.5061726963737954
 30
0.0
 40
0.032752949736346
 50
236.4293635407464933
 51
303.9933989761685211
  0
ARC
  5
BAC1
  8
0
 10
4215.1713237077719896
 20
212.4882173778972003
 30
0.0
 40
0.011133635903811
 50
304.274972317097081
 51
38.5082730697397082
  0
ARC
  5
BAC2
  8
0
 10
4215.1567780849836709
 20
212.4417376514277009
 30
0.0
 40
0.1042251496548525
 50
48.1306344779204167
 51
129.5498461121048877
  0
ARC
  5
BAC3
  8
0
 10
4215.1173755063182398
 20
212.497354480421393
 30
0.0
 40
0.0365986173467524
 50
137.4522371514518113
 51
216.4052613696376
  0
ARC
  5
BAC4
  8
0
 10
4215.1606188670311894
 20
212.542195451712189
 30
0.0
 40
0.0985682300861345
 50
222.4765537873938115
 51
311.9036836660836798
  0
ARC
  5
BAC5
  8
0
 10
4215.1973911781269635
 20
212.4940298773560983
 30
0.0
 40
0.0384613420674797
 50
319.0734771084958084
 51
41.1740299746061424
  0
LINE
  5
BAC6
  8
0
 10
4215.2358487306191819
 20
212.4945697754980074
 30
0.0
 11
4215.2380850240524524
 21
212.5630462405300136
 31
0.0
  0
LINE
  5
BAC7
  8
0
 10
4215.0809480239286131
 20
212.5008896350844907
 30
0.0
 11
4215.0790176740492825
 21
212.565124494486497
 31
0.0
  0
ARC
  5
BAC8
  8
0
 10
4215.2031798643729417
 20
212.5373055795371044
 30
0.0
 40
0.0433699412092784
 50
319.8522562528680737
 51
36.4067605415344033
  0
ARC
  5
BAC9
  8
0
 10
4215.1648338692048128
 20
212.495414949104088
 30
0.0
 40
0.0996981607976655
 50
42.7156570180649311
 51
88.5015781882035668
  0
ARC
  5
BACA
  8
0
 10
4215.1543436072206532
 20
212.4874455068377017
 30
0.0
 40
0.1084274513001164
 50
83.0621112385119744
 51
131.7358134957966058
  0
ARC
  5
BACB
  8
0
 10
4215.1065562342437261
 20
212.5414648853486881
 30
0.0
 40
0.0363063273028535
 50
132.2100981645810975
 51
224.1099551555273877
  0
ARC
  5
BACC
  8
0
 10
4215.5674415109151596
 20
212.7787172961162128
 30
0.0
 40
0.0311493552513651
 50
45.3529907191391999
 51
126.2307370019263999
  0
ARC
  5
BACD
  8
0
 10
4215.556141210736314
 20
212.7947046769627093
 30
0.0
 40
0.0115791420083053
 50
127.8828953968455977
 51
240.650199736530908
  0
ARC
  5
BACE
  8
0
 10
4215.5685770293239329
 20
212.811901705085603
 30
0.0
 40
0.032752949736346
 50
236.4293635407464933
 51
303.9933989761685211
  0
ARC
  5
BACF
  8
0
 10
4215.5806190422763393
 20
212.793946386609008
 30
0.0
 40
0.011133635903811
 50
304.274972317097081
 51
38.5082730697397082
  0
ARC
  5
BAD0
  8
0
 10
4215.5660734194880206
 20
212.7474666601395086
 30
0.0
 40
0.1042251496548525
 50
48.1306344779204167
 51
129.5498461121048877
  0
ARC
  5
BAD1
  8
0
 10
4215.52667084082168
 20
212.8030834891332006
 30
0.0
 40
0.0365986173467524
 50
137.4522371514518113
 51
216.4052613696376
  0
ARC
  5
BAD2
  8
0
 10
4215.5699142015364487
 20
212.8479244604239966
 30
0.0
 40
0.0985682300861345
 50
222.4765537873938115
 51
311.9036836660836798
  0
ARC
  5
BAD3
  8
0
 10
4215.6066865126313132
 20
212.7997588860679059
 30
0.0
 40
0.0384613420674797
 50
319.0734771084958084
 51
41.1740299746061424
  0
LINE
  5
BAD4
  8
0
 10
4215.6451440651226221
 20
212.8002987842097866
 30
0.0
 11
4215.6473803585558926
 21
212.8687752492417928
 31
0.0
  0
LINE
  5
BAD5
  8
0
 10
4215.4902433584329629
 20
212.806618643796412
 30
0.0
 11
4215.4883130085527227
 21
212.8708535031983899
 31
0.0
  0
ARC
  5
BAD6
  8
0
 10
4215.6124751988782009
 20
212.8430345882489121
 30
0.0
 40
0.0433699412092784
 50
319.8522562528680737
 51
36.4067605415344033
  0
ARC
  5
BAD7
  8
0
 10
4215.574129203708253
 20
212.8011439578158956
 30
0.0
 40
0.0996981607976655
 50
42.7156570180649311
 51
88.5015781882035668
  0
ARC
  5
BAD8
  8
0
 10
4215.5636389417259124
 20
212.7931745155495094
 30
0.0
 40
0.1084274513001164
 50
83.0621112385119744
 51
131.7358134957966058
  0
ARC
  5
BAD9
  8
0
 10
4215.5158515687480758
 20
212.8471938940604957
 30
0.0
 40
0.0363063273028535
 50
132.2100981645810975
 51
224.1099551555273877
  0
ARC
  5
BADA
  8
0
 10
4215.811346941384727
 20
211.8270670959761901
 30
0.0
 40
0.0910815963678123
 50
230.7453535638398137
 51
312.346545227170111
  0
ARC
  5
BADB
  8
0
 10
4215.8422484171551332
 20
211.7909607245073005
 30
0.0
 40
0.043605533575228
 50
314.2954351651443972
 51
48.6938299707087126
  0
ARC
  5
BADC
  8
0
 10
4215.7296440336422165
 20
211.6171028415116098
 30
0.0
 40
0.2503594059721364
 50
55.6158544855671693
 51
86.2201972772086265
  0
ARC
  5
BADD
  8
0
 10
4215.7440418289361332
 20
211.8549353741825882
 30
0.0
 40
0.0121660265591114
 50
80.0295056205300739
 51
154.2874870881765048
  0
ARC
  5
BADE
  8
0
 10
4215.8517323685273368
 20
211.8296932122929093
 30
0.0
 40
0.0460048635768668
 50
317.8485981620167991
 51
32.6019435122595382
  0
ARC
  5
BADF
  8
0
 10
4215.7948876668178855
 20
211.7815081304975138
 30
0.0
 40
0.1202684029313789
 50
37.3546478872829226
 51
64.096639667162691
  0
ARC
  5
BAE0
  8
0
 10
4215.8663559974202144
 20
211.8733333683412923
 30
0.0
 40
0.1496260276863135
 50
163.4583499385556138
 51
203.8666374200425082
  0
ARC
  5
BAE1
  8
0
 10
4215.7333123252201403
 20
211.9095939430432907
 30
0.0
 40
0.0121713025355615
 50
81.3890866651945686
 51
148.608687554234109
  0
ARC
  5
BAE2
  8
0
 10
4215.7038458922952486
 20
211.5982094552649073
 30
0.0
 40
0.3249285671080642
 50
63.7756855969084597
 51
84.474181383898113
  0
LINE
  5
BAE3
  8
0
 10
4215.8858391149424278
 20
211.7920981007619048
 30
0.0
 11
4215.885839794518688
 21
211.8601986585827035
 31
0.0
  0
LINE
  5
BAE4
  8
0
 10
4215.7330804544371858
 20
211.8602136761203099
 30
0.0
 11
4215.7330804544371858
 21
211.9217630367380991
 31
0.0
  0
ARC
  5
BAE5
  8
0
 10
4216.3486014367272219
 20
212.133728502817803
 30
0.0
 40
0.3769328971008877
 50
187.0561938099901056
 51
218.6587628974438076
  0
ARC
  5
BAE6
  8
0
 10
4216.2692535892829255
 20
212.0646685822133861
 30
0.0
 40
0.2956074360651901
 50
141.7888311041147062
 51
175.5848883922188861
  0
ARC
  5
BAE7
  8
0
 10
4215.9629548894326945
 20
212.2809926773161067
 30
0.0
 40
0.0812449593956624
 50
335.6696435425546952
 51
66.2711975735765861
  0
ARC
  5
BAE8
  8
0
 10
4225.272000986788953
 20
226.4473506232054945
 30
0.0
 40
16.8711189619207609
 50
236.1034298806945912
 51
236.6442214982726
  0
ARC
  5
BAE9
  8
0
 10
4215.9027461325276818
 20
212.5129594510684967
 30
0.0
 40
0.079955331992792
 50
133.9307470256403008
 51
240.2369696877038052
  0
ARC
  5
BAEA
  8
0
 10
4223.3329402631215999
 20
203.6002334713687105
 30
0.0
 40
11.6833910517736097
 50
129.2279037307349938
 51
129.8447874809980078
  0
ARC
  5
BAEB
  8
0
 10
4215.8869551487732679
 20
212.7190097182927104
 30
0.0
 40
0.089244596217211
 50
309.971321723294011
 51
81.293061363604167
  0
ARC
  5
BAEC
  8
0
 10
4215.2378813384093519
 20
210.8820149625958038
 30
0.0
 40
2.036038804487414
 50
71.0085026206459133
 51
78.6967719704434217
  0
ARC
  5
BAED
  8
0
 10
4215.3004720901362816
 20
211.7556028005151916
 30
0.0
 40
0.5883251169717932
 50
11.07181629866737
 51
23.8963507932006394
  0
ARC
  5
BAEE
  8
0
 10
4215.6053666073721615
 20
211.8636689984165002
 30
0.0
 40
0.2669360951489803
 50
29.206679264906839
 51
58.844233042367911
  0
ARC
  5
BAEF
  8
0
 10
4219.1852665223777876
 20
219.1974146915019048
 30
0.0
 40
7.8950244327753252
 50
243.1955283437418132
 51
244.1545615140902044
  0
ARC
  5
BAF0
  8
0
 10
4215.6575130080482268
 20
212.2340935871135912
 30
0.0
 40
0.0894922359199944
 50
177.176153303769496
 51
248.7154654219847032
  0
ARC
  5
BAF1
  8
0
 10
4220.8163231956641539
 20
210.6506726534892096
 30
0.0
 40
5.4831324256051062
 50
161.5680271272539983
 51
163.166921549205199
  0
ARC
  5
BAF2
  8
0
 10
4215.5199247808086511
 20
212.4028784142062136
 30
0.0
 40
0.0963560625232951
 50
348.8960208819368063
 51
82.0169711841272857
  0
ARC
  5
BAF3
  8
0
 10
4211.6743010095751742
 20
192.1784108681264058
 30
0.0
 40
20.6830812063064009
 50
79.2468591761826247
 51
79.6360039876327335
  0
ARC
  5
BAF4
  8
0
 10
4215.3928881730680587
 20
212.6195947809733013
 30
0.0
 40
0.0955812973717883
 50
152.9634400272001926
 51
271.3913056789812117
  0
ARC
  5
BAF5
  8
0
 10
4229.635040446792118
 20
200.3866794021039084
 30
0.0
 40
18.8674393213678684
 50
138.5796356559328046
 51
139.4083199478880886
  0
ARC
  5
BAF6
  8
0
 10
4217.3812049060352365
 20
215.3995088375311866
 30
0.0
 40
3.9683387636883878
 50
243.3373442966459095
 51
245.5006820417819995
  0
ARC
  5
BAF7
  8
0
 10
4215.7106874004966812
 20
212.072654329434414
 30
0.0
 40
0.2456260895284079
 50
203.364381903088713
 51
243.3373442966459095
  0
ARC
  5
BAF8
  8
0
 10
4215.8700194505599939
 20
212.1414858985646958
 30
0.0
 40
0.4191901615188572
 50
190.5558265318441897
 51
203.364381903088713
  0
ARC
  5
BAF9
  8
0
 10
4215.3535570917129007
 20
212.0238671989245915
 30
0.0
 40
0.1120671671969873
 50
21.3643595422239194
 51
77.3809130855141518
  0
ARC
  5
BAFA
  8
0
 10
4213.3266917885312068
 20
195.7818689230115012
 30
0.0
 40
16.4795312544937183
 50
82.8493553265606266
 51
83.6329585514630764
  0
ARC
  5
BAFB
  8
0
 10
4215.1687532831474527
 20
212.2673951056806914
 30
0.0
 40
0.1086184978355509
 50
187.5665813656785019
 51
262.3142668365758254
  0
ARC
  5
BAFC
  8
0
 10
4217.6919786585067413
 20
211.8874196956847982
 30
0.0
 40
2.656189232555433
 50
169.4662008963628921
 51
172.0870641482675012
  0
ARC
  5
BAFD
  8
0
 10
4214.9587908129979041
 20
212.3550176554190898
 30
0.0
 40
0.1230852316101729
 50
8.4065859230572997
 51
103.8494071943883057
  0
ARC
  5
BAFE
  8
0
 10
4212.918765072901806
 20
222.6146535518963105
 30
0.0
 40
10.33753249262789
 50
279.7251249403814768
 51
281.2150229673085846
  0
ARC
  5
BAFF
  8
0
 10
4215.497686100878127
 20
211.6206012726968879
 30
0.0
 40
0.0085280509937044
 50
106.2145728684784984
 51
174.1123391972429886
  0
ARC
  5
BB00
  8
0
 10
4215.4980293599492143
 20
211.6205500724643116
 30
0.0
 40
0.0088747653047127
 50
174.0108553989857967
 51
219.9265811055254005
  0
ARC
  5
BB01
  8
0
 10
4215.6458149701293223
 20
211.7191821514888943
 30
0.0
 40
0.1865015175683257
 50
214.0139443902949097
 51
251.4258791961215991
  0
ARC
  5
BB02
  8
0
 10
4215.6106736438123335
 20
211.6235876123425896
 30
0.0
 40
0.0847409736936325
 50
253.3606880066668907
 51
318.7020360038101217
  0
ARC
  5
BB03
  8
0
 10
4215.641153474375642
 20
211.5940484843210072
 30
0.0
 40
0.0423976486433612
 50
321.5092604112090839
 51
28.9277223822005709
  0
ARC
  5
BB04
  8
0
 10
4215.6249329760639739
 20
211.5848131174471121
 30
0.0
 40
0.0610619869761519
 50
29.1502220489260004
 51
83.9495524398084711
  0
ARC
  5
BB05
  8
0
 10
4215.5994113918868607
 20
211.3440310084332907
 30
0.0
 40
0.3031928922319151
 50
83.9495524398084711
 51
110.0821815250099007
  0
LINE
  5
BB06
  8
0
 10
4215.6835151878722172
 20
211.5923032507160997
 30
0.0
 11
4215.6836421719381178
 21
211.6622278417030998
 31
0.0
  0
ARC
  5
BB07
  8
0
 10
4215.6513480744843037
 20
211.6320831459001965
 30
0.0
 40
0.0441777230859747
 50
316.7625426162350095
 51
43.0686209219760769
  0
ARC
  5
BB08
  8
0
 10
4215.6044661562318652
 20
211.5835985452661134
 30
0.0
 40
0.1115875049892778
 50
44.8173957088717714
 51
89.3029571033921172
  0
ARC
  5
BB09
  8
0
 10
4215.582503552516755
 20
211.4175585446216985
 30
0.0
 40
0.2785969748405037
 50
85.1984076346929555
 51
113.0311112020431068
  0
ARC
  5
BB0A
  8
0
 10
4215.575711366478572
 20
211.7184552913093114
 30
0.0
 40
0.1114735560926266
 50
203.531417353054394
 51
219.0655236664146059
  0
LINE
  5
BB0B
  8
0
 10
4215.4891671424784363
 20
211.6800553807007077
 30
0.0
 11
4215.4891545946447877
 21
211.6205500724643116
 31
0.0
  0
ARC
  5
BB0C
  8
0
 10
4215.8427399175980099
 20
211.8281471138404868
 30
0.0
 40
0.114251749482104
 50
163.7000522239214035
 51
218.8113781383829064
  0
ARC
  5
BB0D
  8
0
 10
4215.8125616831030129
 20
211.7689748410406878
 30
0.0
 40
0.0340034139990618
 50
50.7739060209289406
 51
136.1555610123014901
  0
ARC
  5
BB0E
  8
0
 10
4215.8000577639450057
 20
211.783277817138611
 30
0.0
 40
0.0151680516133774
 50
142.4163535496143993
 51
228.0423276746508918
  0
ARC
  5
BB0F
  8
0
 10
4215.8124502431510336
 20
211.7977172755605864
 30
0.0
 40
0.0341939873994109
 50
228.7769743739534931
 51
313.9315958372872046
  0
ARC
  5
BB10
  8
0
 10
4215.8243916289748086
 20
211.7831857038700036
 30
0.0
 40
0.0155148438057529
 50
319.4135937215551735
 51
51.4292333589663428
  0
ARC
  5
BB11
  8
0
 10
4215.6105974380698171
 20
211.5718639467542914
 30
0.0
 40
0.0346331996408818
 50
54.8167432923630216
 51
131.8396106686325027
  0
ARC
  5
BB12
  8
0
 10
4215.5982611719700799
 20
211.5869686960332956
 30
0.0
 40
0.0151768752130109
 50
135.1821244917759941
 51
230.9240398615507104
  0
ARC
  5
BB13
  8
0
 10
4215.61059331180968
 20
211.601379579881808
 30
0.0
 40
0.0341412800659414
 50
230.1022448652367984
 51
315.9306298328793901
  0
ARC
  5
BB14
  8
0
 10
4215.6224940693136887
 20
211.5868037156920991
 30
0.0
 40
0.0156078494053358
 50
324.0167171881000172
 51
58.9136369413447127
  0
ARC
  5
BB15
  8
0
 10
4215.1223259398466325
 20
211.0460710223127876
 30
0.0
 40
0.8196694864389915
 50
52.1395743803833085
 51
64.6593963871971766
  0
ARC
  5
BB16
  8
0
 10
4215.2905376794342374
 20
211.4012739835496006
 30
0.0
 40
0.4266499792811888
 50
72.4450697248210389
 51
102.4676306505408974
  0
ARC
  5
BB17
  8
0
 10
4215.2905376794342374
 20
211.4012739835496006
 30
0.0
 40
0.4266499792811888
 50
64.6593963871971766
 51
65.0881758255237912
  0
ARC
  5
BB18
  8
0
 10
4215.1767402069172022
 20
211.9159570844502127
 30
0.0
 40
0.1004634421983881
 50
199.7468014166464059
 51
282.4676306505409116
  0
ARC
  5
BB19
  8
0
 10
4214.6146682571215933
 20
211.7141880562606957
 30
0.0
 40
0.4967263245284813
 50
19.7468014166464485
 51
35.9085450785385802
  0
ARC
  5
BB1A
  8
0
 10
4214.8929047674610047
 20
211.9156609470736043
 30
0.0
 40
0.1532050276367802
 50
35.9085450785385802
 51
108.3781097222632042
  0
ARC
  5
BB1B
  8
0
 10
4214.4685481161322969
 20
213.1929532113720995
 30
0.0
 40
1.192734828361673
 50
282.6603677109353043
 51
288.3781097222632184
  0
ARC
  5
BB1C
  8
0
 10
4214.6998071855696253
 20
212.1634559103258937
 30
0.0
 40
0.1375829672252459
 50
196.0433204075785909
 51
282.6603677109353043
  0
ARC
  5
BB1D
  8
0
 10
4215.0027015285322705
 20
212.2505573629809135
 30
0.0
 40
0.4527522012125095
 50
166.9041888687210928
 51
196.0433204075785909
  0
ARC
  5
BB1E
  8
0
 10
4215.4533867386053316
 20
214.3111814986706918
 30
0.0
 40
2.7467934992311078
 50
269.0058837595206001
 51
271.8026652397031171
  0
ARC
  5
BB1F
  8
0
 10
4215.4115306931407758
 20
211.8990550308330967
 30
0.0
 40
0.3343039085002413
 50
238.9893963924889135
 51
269.0058837595206001
  0
ARC
  5
BB20
  8
0
 10
4215.8720195331316063
 20
212.6651159870571917
 30
0.0
 40
1.228115611493372
 50
233.3517863187404089
 51
238.9893963924889135
  0
ARC
  5
BB21
  8
0
 10
4215.0564618878988767
 20
211.5688950564822903
 30
0.0
 40
0.1382059470459136
 50
88.6201140291189375
 51
110.3418309809180045
  0
ARC
  5
BB22
  8
0
 10
4215.0564618878988767
 20
211.5688950564822903
 30
0.0
 40
0.1382059470459136
 50
53.3517863187404799
 51
69.3447980155368242
  0
ARC
  5
BB23
  8
0
 10
4222.1655826747501123
 20
192.393480868346586
 30
0.0
 40
20.5890276334380289
 50
110.3418309809180045
 51
110.8314840128350056
  0
ARC
  5
BB24
  8
0
 10
4214.7930925343571289
 20
211.769618056346701
 30
0.0
 40
0.1423086283279864
 50
216.0372249012310988
 51
290.8314840128350056
  0
ARC
  5
BB25
  8
0
 10
4218.8841062763613081
 20
214.7459763809191884
 30
0.0
 40
5.2014688663035109
 50
214.7706222805294942
 51
216.0372249012310988
  0
ARC
  5
BB26
  8
0
 10
4214.5061768355317326
 20
211.7065640171269933
 30
0.0
 40
0.1280990060521237
 50
34.7706222805295226
 51
131.1301903470618981
  0
ARC
  5
BB27
  8
0
 10
4216.4028546449353598
 20
209.3738710872677871
 30
0.0
 40
3.1344898127753482
 50
129.1964234156565965
 51
133.2843223036736902
  0
LINE
  5
BB28
  8
0
 10
4215.4891927797370954
 20
211.3939623628467075
 30
0.0
 11
4215.4891911149070438
 21
211.3283314341007042
 31
0.0
  0
ARC
  5
BB29
  8
0
 10
4215.5009967691530619
 20
211.3283311346318953
 30
0.0
 40
0.0118056542486071
 50
179.9985466036947912
 51
248.2992497134108021
  0
ARC
  5
BB2A
  8
0
 10
4215.6150920599702658
 20
211.6317949997315111
 30
0.0
 40
0.3360072926959662
 50
249.3564235182072082
 51
269.2116039138444989
  0
ARC
  5
BB2B
  8
0
 10
4215.6093152540552182
 20
211.3862771679241064
 30
0.0
 40
0.0904650052320105
 50
270.7305577844355184
 51
311.1563495682016764
  0
ARC
  5
BB2C
  8
0
 10
4215.6383924477577239
 20
211.3507377305722059
 30
0.0
 40
0.0445957202892739
 50
313.0792259795019277
 51
32.9048312154008613
  0
ARC
  5
BB2D
  8
0
 10
4215.6106612961593783
 20
211.3191501492372026
 30
0.0
 40
0.0858059715096096
 50
40.5768573909426067
 51
100.7047243173173001
  0
ARC
  5
BB2E
  8
0
 10
4215.6350243666629467
 20
211.2327353789802089
 30
0.0
 40
0.1754197163377137
 50
103.2818996023113982
 51
145.5832460174489995
  0
ARC
  5
BB2F
  8
0
 10
4215.4957616652473007
 20
211.328211233219406
 30
0.0
 40
0.0065716442509038
 50
146.0210278746314998
 51
178.954565122910509
  0
LINE
  5
BB30
  8
0
 10
4215.6829606874871388
 20
211.3523030661982034
 30
0.0
 11
4215.6836215103394352
 21
211.4178640465800072
 31
0.0
  0
ARC
  5
BB31
  8
0
 10
4215.6061842918034017
 20
211.3371041539766964
 30
0.0
 40
0.1118869208967628
 50
46.2032281289366367
 51
100.4682795250302973
  0
ARC
  5
BB32
  8
0
 10
4215.6137457038312277
 20
211.2819659835527943
 30
0.0
 40
0.1675011041011057
 50
99.5848486573740246
 51
146.3363621133950119
  0
ARC
  5
BB33
  8
0
 10
4215.5004857923149757
 20
211.389626522835897
 30
0.0
 40
0.0300555349484357
 50
209.526044160005597
 51
247.9283749675279012
  0
ARC
  5
BB34
  8
0
 10
4215.6537299154442735
 20
211.388628247384986
 30
0.0
 40
0.0417809182246449
 50
314.5231276812581882
 51
43.6707203403726183
  0
ARC
  5
BB35
  8
0
 10
4215.6104217880147189
 20
211.3284854702058055
 30
0.0
 40
0.034983755472703
 50
50.0928551712197674
 51
129.9080510798683008
  0
ARC
  5
BB36
  8
0
 10
4215.597786570388962
 20
211.3443755089722913
 30
0.0
 40
0.0146972690780417
 50
131.8662563713016027
 51
215.934972956241694
  0
ARC
  5
BB37
  8
0
 10
4215.6111724290713028
 20
211.3589500309408891
 30
0.0
 40
0.0343163966868725
 50
222.5363302792704872
 51
308.6273424396135852
  0
ARC
  5
BB38
  8
0
 10
4215.623156591361294
 20
211.3438430319069994
 30
0.0
 40
0.0150334787900792
 50
308.8875823685618229
 51
49.7731202472546599
  0
ARC
  5
BB39
  8
0
 10
4215.3960666645980382
 20
210.2882780869130954
 30
0.0
 40
1.169395776714188
 50
81.3250036564692351
 51
92.3416474254356956
  0
ARC
  5
BB3A
  8
0
 10
4215.4157204317170908
 20
210.993437176164889
 30
0.0
 40
0.4681423101643631
 50
105.4062118260745962
 51
124.3755364889938022
  0
ARC
  5
BB3B
  8
0
 10
4215.0707668541381281
 20
211.5178547927444015
 30
0.0
 40
0.1598599664738163
 50
245.8296353190135051
 51
300.2916149355373818
  0
ARC
  5
BB3C
  8
0
 10
4220.6871418048403939
 20
222.8376742016035053
 30
0.0
 40
12.7962751875193508
 50
242.8498095870361908
 51
243.6392059106495935
  0
ARC
  5
BB3D
  8
0
 10
4214.7752236130909296
 20
211.3195108558475965
 30
0.0
 40
0.1505611957846842
 50
61.1434040496866515
 51
125.3603692936201952
  0
ARC
  5
BB3E
  8
0
 10
4195.5467499142350789
 20
227.7409659371328132
 30
0.0
 40
25.1403566486875398
 50
319.3172724121085935
 51
319.5859248669132171
  0
ARC
  5
BB3F
  8
0
 10
4214.5244265998617266
 20
211.477528068276996
 30
0.0
 40
0.152151754036527
 50
235.100421452249293
 51
304.8904449645634145
  0
ARC
  5
BB40
  8
0
 10
4216.9369133268319274
 20
214.0738826815617983
 30
0.0
 40
3.6949035694668391
 50
223.9468809573112935
 51
227.4305937424398962
  0
ARC
  5
BB41
  8
0
 10
4215.3482993494208131
 20
211.6341678782424935
 30
0.0
 40
0.4135725431590365
 50
265.0029291825429141
 51
305.3653405902633722
  0
ARC
  5
BB42
  8
0
 10
4217.8559525565824515
 20
234.4685519710787958
 30
0.0
 40
23.3851383708079084
 50
263.4585631344414196
 51
263.7553966904565073
  0
ARC
  5
BB43
  8
0
 10
4215.1794826589830336
 20
211.1095207983944988
 30
0.0
 40
0.1267439148157694
 50
84.3881490944706485
 51
136.1157598657316896
  0
ARC
  5
BB44
  8
0
 10
4210.1097447782403833
 20
214.2798347653314863
 30
0.0
 40
5.8554142484536031
 50
326.8051131128625002
 51
328.2355675606577279
  0
ARC
  5
BB45
  8
0
 10
4214.9143306196938283
 20
211.1911230179327958
 30
0.0
 40
0.1509490676561436
 50
243.2174598579561859
 51
309.1499173111723735
  0
ARC
  5
BB46
  8
0
 10
4214.2510660274747352
 20
209.6521722787707063
 30
0.0
 40
1.525149681818047
 50
67.0276408249383451
 51
72.9857582580362845
  0
ARC
  5
BB47
  8
0
 10
4214.6645845854764048
 20
211.0174209413667086
 30
0.0
 40
0.0987394402428397
 50
70.6263464456433354
 51
168.3255650223921123
  0
ARC
  5
BB48
  8
0
 10
4215.546416006378422
 20
210.9337297851197945
 30
0.0
 40
0.984004700941103
 50
173.952303787217005
 51
177.45540418546301
  0
ARC
  5
BB49
  8
0
 10
4216.380893092416045
 20
216.9047397092614062
 30
0.0
 40
6.3770043143776096
 50
254.6871155857016049
 51
257.3117393616242907
  0
ARC
  5
BB4A
  8
0
 10
4214.9802075495927056
 20
210.7811786755042078
 30
0.0
 40
0.0977140795712575
 50
270.0
 51
347.9261596768205891
  0
ARC
  5
BB4B
  8
0
 10
4214.6146937070825516
 20
210.7389727732013114
 30
0.0
 40
0.461579891318679
 50
2.7029142659191261
 51
14.3911296539355291
  0
ARC
  5
BB4C
  8
0
 10
4215.141272609031148
 20
210.8530072711974128
 30
0.0
 40
0.079485590553001
 50
82.2636829207128955
 51
179.5051161910915027
  0
ARC
  5
BB4D
  8
0
 10
4215.2460482988317381
 20
202.6628846177835044
 30
0.0
 40
8.2694199086993034
 50
89.1424177329542573
 51
90.6518307483047749
  0
ARC
  5
BB4E
  8
0
 10
4215.3698173293460059
 20
211.0275819410761926
 30
0.0
 40
0.0962036966713216
 50
270.0
 51
342.0301187226073125
  0
ARC
  5
BB4F
  8
0
 10
4215.6979307313404206
 20
210.9494793534244081
 30
0.0
 40
0.2415067442399859
 50
107.3452564955864972
 51
168.4337987107111871
  0
ARC
  5
BB50
  8
0
 10
4210.0843931200060979
 20
225.5842460400776019
 30
0.0
 40
15.4334323504123905
 50
291.0425154076273202
 51
291.4811167768449991
  0
ARC
  5
BB51
  8
0
 10
4215.848733187374819
 20
211.1204488893044982
 30
0.0
 40
0.1199052864029882
 50
155.7581714838202913
 51
195.6948540621872894
  0
ARC
  5
BB52
  8
0
 10
4215.7456901104123972
 20
211.0926300168029002
 30
0.0
 40
0.01322390944926
 50
200.4355931369302084
 51
269.7540369975444037
  0
ARC
  5
BB53
  8
0
 10
4215.7156629997671189
 20
211.4155712683779029
 30
0.0
 40
0.3374983777520482
 50
275.0946586424342968
 51
291.0392317965910252
  0
ARC
  5
BB54
  8
0
 10
4215.804730784982894
 20
211.1893188929803955
 30
0.0
 40
0.0943723944454508
 50
289.8832771379993005
 51
319.8911493260185921
  0
ARC
  5
BB55
  8
0
 10
4215.8444388299149068
 20
211.154132476423797
 30
0.0
 40
0.0413556369483065
 50
321.7337705236781744
 51
30.883001772257451
  0
ARC
  5
BB56
  8
0
 10
4215.8152267256409687
 20
211.1271599407774033
 30
0.0
 40
0.0806837064157124
 50
36.6833690124361667
 51
93.5952830970607437
  0
ARC
  5
BB57
  8
0
 10
4215.8101671830318082
 20
211.1227973716318047
 30
0.0
 40
0.0848874814993092
 50
90.0
 51
146.4751098105710128
  0
LINE
  5
BB58
  8
0
 10
4215.7290490314580893
 20
211.1277276618583016
 30
0.0
 11
4215.7290483169881554
 21
211.2138757029275951
 31
0.0
  0
LINE
  5
BB59
  8
0
 10
4215.8857944668634445
 20
211.154132476423797
 30
0.0
 11
4215.8858452370968735
 21
211.2220936970367973
 31
0.0
  0
ARC
  5
BB5A
  8
0
 10
4215.8561607756428202
 20
211.1931252288632948
 30
0.0
 40
0.0414769743370534
 50
315.61378613927468
 51
56.6429496604234117
  0
ARC
  5
BB5B
  8
0
 10
4215.8092507477831532
 20
211.1313702172703017
 30
0.0
 40
0.1189670157293063
 50
54.1253411733252818
 51
119.8724683201862007
  0
ARC
  5
BB5C
  8
0
 10
4215.7873837502556853
 20
211.1756624549628896
 30
0.0
 40
0.069737185881088
 50
122.4194487565196994
 51
179.5299287103285906
  0
ARC
  5
BB5D
  8
0
 10
4215.7665045189432931
 20
211.1750220123606994
 30
0.0
 40
0.0488706531722167
 50
178.5782291542882092
 51
219.9661961033640978
  0
ARC
  5
BB5E
  8
0
 10
4215.8125150261776071
 20
211.1318756505386034
 30
0.0
 40
0.0350739969398166
 50
53.6654486518003466
 51
132.5129062981280867
  0
ARC
  5
BB5F
  8
0
 10
4215.7993313861179558
 20
211.1478103741007999
 30
0.0
 40
0.0144573638002792
 50
136.6778012482454869
 51
221.9634486334670953
  0
ARC
  5
BB60
  8
0
 10
4215.8129718504069388
 20
211.1635140032219056
 30
0.0
 40
0.0351932965203191
 50
226.1283435835468936
 51
298.810573201560203
  0
ARC
  5
BB61
  8
0
 10
4215.8242979652886788
 20
211.1473002077214005
 30
0.0
 40
0.0156710138285313
 50
291.0708497743844987
 51
54.9560360981367424
  0
ARC
  5
BB62
  8
0
 10
4215.5437640977952469
 20
211.191558793274794
 30
0.0
 40
0.3358171367478875
 50
331.3412156817045116
 51
348.3642389229444234
  0
ARC
  5
BB63
  8
0
 10
4215.6340348339072079
 20
211.1658953111248991
 30
0.0
 40
0.2451789799684103
 50
290.7876219378204041
 51
326.4807965662128026
  0
ARC
  5
BB64
  8
0
 10
4215.9187612160130811
 20
210.2438551736231034
 30
0.0
 40
0.7204801456080214
 50
105.9272028223319069
 51
113.9905500278353969
  0
ARC
  5
BB65
  8
0
 10
4215.6381165917173348
 20
210.8344541999059913
 30
0.0
 40
0.0687485597822838
 50
100.3000806488394971
 51
194.0823725740162047
  0
ARC
  5
BB66
  8
0
 10
4236.4513591814156825
 20
218.7366863719392995
 30
0.0
 40
22.3311709220038992
 50
200.7698275913591033
 51
201.0785762663005016
  0
ARC
  5
BB67
  8
0
 10
4215.5410695510709047
 20
210.6926782056355876
 30
0.0
 40
0.0744230062315633
 50
268.5631780583822206
 51
9.7852266014823162
  0
ARC
  5
BB68
  8
0
 10
4215.5692764538607662
 20
209.6450873055387092
 30
0.0
 40
0.9736558332930391
 50
91.7699600883333346
 51
104.2023468235187948
  0
ARC
  5
BB69
  8
0
 10
4215.3490942700009327
 20
210.5382354359906003
 30
0.0
 40
0.0540844195679594
 50
110.2295692738383934
 51
228.241442556062907
  0
ARC
  5
BB6A
  8
0
 10
4224.6483453337577885
 20
220.1357312062552012
 30
0.0
 40
13.4177215640157801
 50
225.9136345083391006
 51
226.9561639456090916
  0
LINE
  5
BB6B
  8
0
 10
4216.0529936409875518
 20
211.1155870739493139
 30
0.0
 11
4215.9885389245819169
 21
211.0128486511210895
 31
0.0
  0
ARC
  5
BB6C
  8
0
 10
4216.1149032636640186
 20
210.9461886573087099
 30
0.0
 40
0.1428688243350582
 50
152.1873581815287935
 51
214.8338496438086054
  0
ARC
  5
BB6D
  8
0
 10
4215.7660857092796505
 20
210.6762460845959026
 30
0.0
 40
0.2984719146354586
 50
28.4397142207922791
 51
39.1240192767024126
  0
ARC
  5
BB6E
  8
0
 10
4215.9617622942296293
 20
210.7822233697818888
 30
0.0
 40
0.0759398700371216
 50
310.230783436228478
 51
28.4397142207922791
  0
ARC
  5
BB6F
  8
0
 10
4212.7993731910082715
 20
216.6395105015317029
 30
0.0
 40
6.7307996023672416
 50
297.0916245503408959
 51
298.4978326027109006
  0
ARC
  5
BB70
  8
0
 10
4215.8799547232965779
 20
210.5916026596206905
 30
0.0
 40
0.0576754850229628
 50
105.358673716790193
 51
242.1626465861504016
  0
ARC
  5
BB71
  8
0
 10
4215.3852307890983866
 20
209.7045736836911942
 30
0.0
 40
0.9580039723726237
 50
53.3380910219215423
 51
60.7712123880938222
  0
ARC
  5
BB72
  8
0
 10
4215.9218772085660021
 20
210.4284875917630018
 30
0.0
 40
0.056899895379527
 50
285.5780227839688905
 51
51.5655197204681599
  0
ARC
  5
BB73
  8
0
 10
4215.1690824172255816
 20
213.2482320257819026
 30
0.0
 40
2.9753993322501322
 50
279.1940766769922107
 51
284.9598384117372802
  0
ARC
  5
BB74
  8
0
 10
4216.1151422897182783
 20
211.280837766949503
 30
0.0
 40
0.5929154676427764
 50
127.110066326762805
 51
138.5459779353994065
  0
ARC
  5
BB75
  8
0
 10
4216.1151422897182783
 20
211.280837766949503
 30
0.0
 40
0.5929154676427764
 50
94.864235435222497
 51
111.5189029746638028
  0
ARC
  5
BB76
  8
0
 10
4216.1044637586946919
 20
211.7141861675403902
 30
0.0
 40
0.5780429782409399
 50
248.6348825294620042
 51
265.4038624760452194
  0
ARC
  5
BB77
  8
0
 10
4216.1044637586946919
 20
211.7141861675403902
 30
0.0
 40
0.5780429782409399
 50
222.1305048950405876
 51
234.5392595116213101
  0
ARC
  5
BB78
  8
0
 10
4215.8775999156232501
 20
211.5041253811870092
 30
0.0
 40
0.2638903572606909
 50
172.4023463767697137
 51
192.241829502644805
  0
ENDSEC
  0
EOF
