  0
SECTION
  2
HEADER
  9
$ACADVER
  1
AC1009
  9
$INSBASE
 10
964.7121575523951833
 20
139.7767723174520995
 30
0.0
  9
$EXTMIN
 10
957.7206634236067657
 20
139.7593443665448945
 30
-0.0015258207003583
  9
$EXTMAX
 10
965.8265725164133073
 20
150.395676712294204
 30
0.0000000349246037
  9
$LIMMIN
 10
0.0
 20
0.0
  9
$LIMMAX
 10
11.6929133858000007
 20
8.2677165353999982
  9
$ORTHOMODE
 70
     0
  9
$REGENMODE
 70
     1
  9
$FILLMODE
 70
     1
  9
$QTEXTMODE
 70
     0
  9
$MIRRTEXT
 70
     0
  9
$DRAGMODE
 70
     2
  9
$LTSCALE
 40
0.6431102362
  9
$OSMODE
 70
  4095
  9
$ATTMODE
 70
     1
  9
$TEXTSIZE
 40
0.2
  9
$TRACEWID
 40
0.05
  9
$TEXTSTYLE
  7
STANDARD
  9
$CLAYER
  8
0
  9
$CELTYPE
  6
BYLAYER
  9
$CECOLOR
 62
   256
  9
$DIMSCALE
 40
1.0
  9
$DIMASZ
 40
0.1875
  9
$DIMEXO
 40
0.0625
  9
$DIMDLI
 40
0.4443307087
  9
$DIMRND
 40
0.0
  9
$DIMDLE
 40
0.0
  9
$DIMEXE
 40
0.125
  9
$DIMTP
 40
0.01
  9
$DIMTM
 40
0.01
  9
$DIMTXT
 40
1.0
  9
$DIMCEN
 40
0.1052362205
  9
$DIMTSZ
 40
0.0
  9
$DIMTOL
 70
     1
  9
$DIMLIM
 70
     0
  9
$DIMTIH
 70
     0
  9
$DIMTOH
 70
     1
  9
$DIMSE1
 70
     0
  9
$DIMSE2
 70
     0
  9
$DIMTAD
 70
     0
  9
$DIMZIN
 70
     0
  9
$DIMBLK
  1

  9
$DIMASO
 70
     1
  9
$DIMSHO
 70
     1
  9
$DIMPOST
  1
\X
  9
$DIMAPOST
  1

  9
$DIMALT
 70
     1
  9
$DIMALTD
 70
     2
  9
$DIMALTF
 40
25.3999999999999986
  9
$DIMLFAC
 40
1.0
  9
$DIMTOFL
 70
     0
  9
$DIMTVP
 40
0.0
  9
$DIMTIX
 70
     0
  9
$DIMSOXD
 70
     0
  9
$DIMSAH
 70
     0
  9
$DIMBLK1
  1

  9
$DIMBLK2
  1

  9
$DIMSTYLE
  2
STANDARD
  9
$DIMCLRD
 70
     0
  9
$DIMCLRE
 70
     0
  9
$DIMCLRT
 70
     0
  9
$DIMTFAC
 40
1.0
  9
$DIMGAP
 40
0.09
  9
$LUNITS
 70
     2
  9
$LUPREC
 70
     4
  9
$SKETCHINC
 40
0.1
  9
$FILLETRAD
 40
0.0
  9
$AUNITS
 70
     0
  9
$AUPREC
 70
     0
  9
$MENU
  1
.
  9
$ELEVATION
 40
0.0
  9
$PELEVATION
 40
0.0
  9
$THICKNESS
 40
0.0
  9
$LIMCHECK
 70
     0
  9
$BLIPMODE
 70
     0
  9
$CHAMFERA
 40
0.0
  9
$CHAMFERB
 40
0.0
  9
$SKPOLY
 70
     0
  9
$TDCREATE
 40
2458172.5207638889551163
  9
$TDUPDATE
 40
2459207.796435184776783
  9
$TDINDWG
 40
0.445058588
  9
$TDUSRTIMER
 40
0.445058588
  9
$USRTIMER
 70
     1
  9
$ANGBASE
 50
0.0
  9
$ANGDIR
 70
     0
  9
$PDMODE
 70
     0
  9
$PDSIZE
 40
0.3125
  9
$PLINEWID
 40
0.0
  9
$COORDS
 70
     1
  9
$SPLFRAME
 70
     0
  9
$SPLINETYPE
 70
     6
  9
$SPLINESEGS
 70
     8
  9
$ATTDIA
 70
     1
  9
$ATTREQ
 70
     1
  9
$HANDLING
 70
     1
  9
$HANDSEED
  5
BCED
  9
$SURFTAB1
 70
     6
  9
$SURFTAB2
 70
     6
  9
$SURFTYPE
 70
     6
  9
$SURFU
 70
     6
  9
$SURFV
 70
     6
  9
$UCSNAME
  2

  9
$UCSORG
 10
0.0
 20
0.0
 30
0.0
  9
$UCSXDIR
 10
1.0
 20
0.0
 30
0.0
  9
$UCSYDIR
 10
0.0
 20
1.0
 30
0.0
  9
$PUCSNAME
  2

  9
$PUCSORG
 10
0.0
 20
0.0
 30
0.0
  9
$PUCSXDIR
 10
1.0
 20
0.0
 30
0.0
  9
$PUCSYDIR
 10
0.0
 20
1.0
 30
0.0
  9
$USERI1
 70
     0
  9
$USERI2
 70
     0
  9
$USERI3
 70
     0
  9
$USERI4
 70
     0
  9
$USERI5
 70
     0
  9
$USERR1
 40
0.0
  9
$USERR2
 40
0.0
  9
$USERR3
 40
0.0
  9
$USERR4
 40
0.0
  9
$USERR5
 40
0.0
  9
$WORLDVIEW
 70
     1
  9
$SHADEDGE
 70
     3
  9
$SHADEDIF
 70
    70
  9
$TILEMODE
 70
     1
  9
$MAXACTVP
 70
    64
  9
$PLIMCHECK
 70
     0
  9
$PEXTMIN
 10
1.0000000000000000E+20
 20
1.0000000000000000E+20
 30
1.0000000000000000E+20
  9
$PEXTMAX
 10
-1.0000000000000000E+20
 20
-1.0000000000000000E+20
 30
-1.0000000000000000E+20
  9
$PLIMMIN
 10
0.0
 20
0.0
  9
$PLIMMAX
 10
12.0
 20
9.0
  9
$UNITMODE
 70
     0
  9
$VISRETAIN
 70
     1
  9
$PLINEGEN
 70
     0
  9
$PSLTSCALE
 70
     1
  0
ENDSEC
  0
SECTION
  2
TABLES
  0
TABLE
  2
VPORT
 70
     1
  0
VPORT
  2
*ACTIVE
 70
     0
 10
0.0
 20
0.0
 11
1.0
 21
1.0
 12
495.0314162621800165
 22
55.944363419489811
 13
0.0
 23
0.0
 14
1.0
 24
1.0
 15
0.0
 25
0.0
 16
0.0
 26
0.0
 36
24.1179433675886514
 17
466.74220170783002
 27
89.133147119929788
 37
0.0
 40
10.7732808308876802
 41
2.9182795698924728
 42
50.0
 43
0.0
 44
0.0
 50
0.0
 51
0.0
 71
     0
 72
   100
 73
     1
 74
     1
 75
     0
 76
     0
 77
     0
 78
     0
  0
ENDTAB
  0
TABLE
  2
LTYPE
 70
     2
  0
LTYPE
  2
CONTINUOUS
 70
     0
  3
Solid line
 72
    65
 73
     0
 40
0.0
  0
LTYPE
  2
PHANTOM2
 70
     0
  3
___ _ _ ___ _ _ ___ _ _ ___ _ _
 72
    65
 73
     6
 40
1.25
 49
0.625
 49
-0.125
 49
0.125
 49
-0.125
 49
0.125
 49
-0.125
  0
ENDTAB
  0
TABLE
  2
LAYER
 70
     2
  0
LAYER
  2
0
 70
     0
 62
   255
  6
CONTINUOUS
  0
LAYER
  2
DEFPOINTS
 70
     0
 62
     7
  6
CONTINUOUS
  0
ENDTAB
  0
TABLE
  2
STYLE
 70
     1
  0
STYLE
  2
STANDARD
 70
     0
 40
0.0
 41
0.8
 50
0.0
 71
     0
 42
0.2
  3
txt
  4

  0
ENDTAB
  0
TABLE
  2
VIEW
 70
     0
  0
ENDTAB
  0
TABLE
  2
UCS
 70
     0
  0
ENDTAB
  0
TABLE
  2
APPID
 70
    11
  0
APPID
  2
ACAD
 70
     0
  0
APPID
  2
ACAD_MLEADERVER
 70
     0
  0
APPID
  2
ACAD_EXEMPT_FROM_CAD_STANDARDS
 70
     0
  0
APPID
  2
ACAD_DSTYLE_DIMJAG
 70
     0
  0
APPID
  2
ACAD_DSTYLE_DIMTALN
 70
     0
  0
APPID
  2
ACAD_NAV_VCDISPLAY
 70
     0
  0
APPID
  2
ACAECLAYERSTANDARD
 70
     0
  0
APPID
  2
ACCMTRANSPARENCY
 70
     0
  0
APPID
  2
DCO15
 70
     0
  0
APPID
  2
ACDBATTR
 70
     0
  0
APPID
  2
ACADANNOTATIVE
 70
     0
  0
ENDTAB
  0
TABLE
  2
DIMSTYLE
 70
     1
  0
DIMSTYLE
  2
STANDARD
 70
     0
  3

  4

  5

  6

  7

 40
1.0
 41
0.1875
 42
0.0625
 43
0.38
 44
0.125
 45
0.0
 46
0.0
 47
0.01
 48
0.01
140
0.15625
141
0.09
142
0.0
143
25.3999999999999986
144
1.0
145
0.0
146
1.0
147
0.09
 71
     1
 72
     0
 73
     1
 74
     1
 75
     0
 76
     0
 77
     0
 78
     4
170
     0
171
     2
172
     0
173
     0
174
     0
175
     0
176
     0
177
     0
178
     0
  0
ENDTAB
  0
ENDSEC
  0
SECTION
  2
BLOCKS
  0
BLOCK
  8
0
  2
$MODEL_SPACE
 70
     0
 10
0.0
 20
0.0
 30
0.0
  3
$MODEL_SPACE
  1

  0
ENDBLK
  5
21
  8
0
  0
BLOCK
 67
     1
  8
0
  2
$PAPER_SPACE
 70
     0
 10
0.0
 20
0.0
 30
0.0
  3
$PAPER_SPACE
  1

  0
ENDBLK
  5
1D
 67
     1
  8
0
  0
ENDSEC
  0
SECTION
  2
ENTITIES
  0
ATTDEF
  5
829
  8
DEFPOINTS
 10
964.7063947929190135
 20
139.7737341091896042
 30
0.0
 40
0.001
  1
K-72337AR-4ND
  3

  2
MODELNUMBER
 70
     0
1001
ACDBATTR
1070
     0
1070
     1
  0
ATTDEF
  5
82A
  8
DEFPOINTS
 10
964.7063947929190135
 20
139.7720674425229959
 30
0.0
 40
0.001
  1
ALEO
  3

  2
TRADENAME
 70
     0
1001
ACDBATTR
1070
     0
1070
     1
  0
ATTDEF
  5
82B
  8
DEFPOINTS
 10
964.7063947929190135
 20
139.7704007758563023
 30
0.0
 40
0.001
  1
BATHROOM SINK FAUCET
  3

  2
PRODUCT
 70
     0
1001
ACDBATTR
1070
     0
1070
     1
  0
LINE
  5
BB17
  8
0
 10
963.6037449788452705
 20
139.7767723174520995
 30
0.0
 11
965.8205701259452098
 21
139.7767723174520995
 31
0.0
  0
LINE
  5
BB18
  8
0
 10
965.8205701259452098
 20
139.7767723174520995
 30
0.0
 11
965.8205701259452098
 21
148.8712565694521004
 31
0.0
  0
LINE
  5
BB19
  8
0
 10
963.6037449788452705
 20
146.789712462142603
 30
0.0
 11
963.6037449788452705
 21
139.7767723174520995
 31
0.0
  0
LINE
  5
BB1A
  8
0
 10
957.7841994141908799
 20
148.9027565694520945
 30
0.0
 11
965.7890701259451589
 21
148.9027565694520945
 31
0.0
  0
LINE
  5
BB1B
  8
0
 10
963.8741202550452272
 20
149.4348431836521058
 30
0.0
 11
965.7542727312453508
 21
149.4348431836521058
 31
0.0
  0
LINE
  5
BB1C
  8
0
 10
960.2574207042868011
 20
150.3859170990484984
 30
0.0
 11
965.7193164319343168
 21
150.3382521335738033
 31
0.0
  0
ARC
  5
BB1D
  8
0
 10
956.6157279588454685
 20
146.9017565801273122
 30
0.0
 40
6.9889152059657853
 50
359.0814125062689186
 51
4.262025747936975
  0
ARC
  5
BB1E
  8
0
 10
959.5369811408442047
 20
147.1237400212301054
 30
0.0
 40
1.1027779381838261
 50
109.4143016116908029
 51
119.5896589333016067
  0
ARC
  5
BB1F
  8
0
 10
956.9424780939244783
 20
147.5536064700191048
 30
0.0
 40
1.379803825626011
 50
37.4661958813967928
 51
41.7461902121750725
  0
ARC
  5
BB20
  8
0
 10
958.7038115061359349
 20
149.1372458636664078
 30
0.0
 40
0.9888070062878096
 50
196.1320239160320966
 51
222.2563225801337978
  0
ARC
  5
BB21
  8
0
 10
957.7841994141908799
 20
148.8712565694521004
 30
0.0
 40
0.0315
 50
90.0
 51
196.1320239160203869
  0
LINE
  5
BB22
  8
0
 10
958.037645454738481
 20
148.3929318235142887
 30
0.0
 11
958.9924460169512486
 21
148.0826981432520881
 31
0.0
  0
LINE
  5
BB23
  8
0
 10
958.143071629038559
 20
148.342118302976786
 30
0.0
 11
958.8772872208498939
 21
148.1035570639515129
 31
0.0
  0
LINE
  5
BB24
  8
0
 10
958.8772872208498939
 20
148.1035570639515129
 30
0.0
 11
958.8971308997153074
 21
148.1136679193236887
 31
0.0
  0
LINE
  5
BB25
  8
0
 10
958.1400520903986262
 20
148.3480444835745971
 30
0.0
 11
958.143071629038559
 21
148.342118302976786
 31
0.0
  0
LINE
  5
BB26
  8
0
 10
958.1453718834842448
 20
148.3491765584757047
 30
0.0
 11
958.1400520903986262
 21
148.3480444835745971
 31
0.0
  0
LINE
  5
BB27
  8
0
 10
958.1453718834842448
 20
148.3491765584757047
 30
0.0
 11
958.1479442701424887
 21
148.3570935460921874
 31
0.0
  0
ARC
  5
BB28
  8
0
 10
892.3345126685333071
 20
-65.6782239557121841
 30
0.0
 40
223.9142974458048059
 50
72.7090425674438592
 51
72.9091807274058823
  0
ARC
  5
BB29
  8
0
 10
958.1459869300413175
 20
148.3440481044654007
 30
0.0
 40
0.005165203074725
 50
77.8574430795644474
 51
96.8387212311156844
  0
ARC
  5
BB2A
  8
0
 10
954.7270399225120627
 20
136.2647697249117016
 30
0.0
 40
12.5589654341736594
 50
72.8446117111701454
 51
74.1977466011693139
  0
LINE
  5
BB2B
  8
0
 10
958.7696646036205266
 20
148.0498683893898999
 30
0.0
 11
958.8073845705785061
 21
148.1262698244075011
 31
0.0
  0
LINE
  5
BB2C
  8
0
 10
958.1985827094523529
 20
148.2354242476581874
 30
0.0
 11
958.212974279249238
 21
148.319405542540494
 31
0.0
  0
LINE
  5
BB2D
  8
0
 10
958.733493908125979
 20
148.0346175184602941
 30
0.0
 11
958.218881168858502
 21
148.2018254259079129
 31
0.0
  0
ARC
  5
BB2E
  8
0
 10
958.7427644225974745
 20
148.0631492124414024
 30
0.0
 40
0.03
 50
251.9999906819712976
 51
333.7240978210189724
  0
ARC
  5
BB2F
  8
0
 10
958.2281516833298838
 20
148.2303571198889927
 30
0.0
 40
0.03
 50
170.2758835232542083
 51
251.9999906819712976
  0
ARC
  5
BB30
  8
0
 10
965.7890701259451589
 20
148.8712565694521004
 30
0.0
 40
0.0315
 50
359.9999999999968168
 51
90.0
  0
ARC
  5
BB31
  8
0
 10
958.5785352690620584
 20
148.4370940644471943
 30
0.0
 40
0.3997931685551829
 50
218.8944340215890065
 51
244.9886067572149955
  0
LINE
  5
BB32
  8
0
 10
958.3934625389740631
 20
148.1273469117807906
 30
0.0
 11
958.3888034315139066
 21
148.1130076612882931
 31
0.0
  0
LINE
  5
BB33
  8
0
 10
958.3883875148436573
 20
148.1117276020989095
 30
0.0
 11
958.3849913605014308
 21
148.1012753195018092
 31
0.0
  0
LINE
  5
BB34
  8
0
 10
958.3847331807502314
 20
148.1004807243664061
 30
0.0
 11
958.3825450421630876
 21
148.0937463299393926
 31
0.0
  0
LINE
  5
BB35
  8
0
 10
958.3823758081556434
 20
148.0932254815054989
 30
0.0
 11
958.3813152611287478
 21
148.0899614551638876
 31
0.0
  0
LINE
  5
BB36
  8
0
 10
958.3940296124609404
 20
148.1290921835619088
 30
0.0
 11
958.3986801807649272
 21
148.1434051532484091
 31
0.0
  0
LINE
  5
BB37
  8
0
 10
958.3701073028205428
 20
148.0993194467125988
 30
0.0
 11
958.3694912032202637
 21
148.0974232881532089
 31
0.0
  0
LINE
  5
BB38
  8
0
 10
958.3710044135559656
 20
148.1020804681442087
 30
0.0
 11
958.3722290318855812
 21
148.1058494537547006
 31
0.0
  0
LINE
  5
BB39
  8
0
 10
958.3737652600921137
 20
148.1105774754290962
 30
0.0
 11
958.3756398018075515
 21
148.1163467184512115
 31
0.0
  0
LINE
  5
BB3A
  8
0
 10
958.3778320212918516
 20
148.1230936725768004
 30
0.0
 11
958.3804606590389312
 21
148.1311837832714957
 31
0.0
  0
LINE
  5
BB3B
  8
0
 10
958.3833885362095089
 20
148.1401948577095027
 30
0.0
 11
958.3857922423853779
 21
148.1475927005890014
 31
0.0
  0
LINE
  5
BB3C
  8
0
 10
958.3811268238218872
 20
148.1491085878103036
 30
0.0
 11
958.3791793750039005
 21
148.1431149600246897
 31
0.0
  0
LINE
  5
BB3D
  8
0
 10
958.3761892635990307
 20
148.1339123485716982
 30
0.0
 11
958.3735686492490231
 21
148.1258469314801118
 31
0.0
  0
LINE
  5
BB3E
  8
0
 10
958.3713695014963605
 20
148.1190786544648859
 30
0.0
 11
958.3694755334551019
 21
148.1132496234926919
 31
0.0
  0
LINE
  5
BB3F
  8
0
 10
958.3679545706014551
 20
148.1085685837983021
 30
0.0
 11
958.3667271969043213
 21
148.1047911181078973
 31
0.0
  0
LINE
  5
BB40
  8
0
 10
958.3658375442754505
 20
148.1020530504027022
 30
0.0
 11
958.3652334527433823
 21
148.1001938488886935
 31
0.0
  0
LINE
  5
BB41
  8
0
 10
958.3652177920480426
 20
148.1542777484420981
 30
0.0
 11
958.3504287879072763
 21
148.1087618989826922
 31
0.0
  0
LINE
  5
BB42
  8
0
 10
958.3646100718398202
 20
148.1544752088167911
 30
0.0
 11
958.349880824429988
 21
148.109143271532389
 31
0.0
  0
LINE
  5
BB43
  8
0
 10
958.335945913359069
 20
148.1203881469500914
 30
0.0
 11
958.3365547026521654
 21
148.1222618066967982
 31
0.0
  0
LINE
  5
BB44
  8
0
 10
958.3374542464201795
 20
148.1250303162078126
 30
0.0
 11
958.3387330941134223
 21
148.1289662025176881
 31
0.0
  0
LINE
  5
BB45
  8
0
 10
958.3402801062612753
 20
148.1337274136978976
 30
0.0
 11
958.3422697565700901
 21
148.1398509243038859
 31
0.0
  0
LINE
  5
BB46
  8
0
 10
958.3445308890381966
 20
148.1468099706187047
 30
0.0
 11
958.3472533934630064
 21
148.1551889730224048
 31
0.0
  0
LINE
  5
BB47
  8
0
 10
958.3432478432744119
 20
148.1587357258374027
 30
0.0
 11
958.3405010794978125
 21
148.1502820608064894
 31
0.0
  0
LINE
  5
BB48
  8
0
 10
958.3382081709033855
 20
148.1432252176340967
 30
0.0
 11
958.3362548036279804
 21
148.137213374617204
 31
0.0
  0
LINE
  5
BB49
  8
0
 10
958.3346782095743492
 20
148.1323611197080083
 30
0.0
 11
958.333403284326323
 21
148.1284373054076866
 31
0.0
  0
LINE
  5
BB4A
  8
0
 10
958.3324963443784554
 20
148.1256460327878983
 30
0.0
 11
958.3318517967248908
 21
148.1236623201706948
 31
0.0
  0
LINE
  5
BB4B
  8
0
 10
958.3103962436882739
 20
148.1679609808250859
 30
0.0
 11
958.3083185803658353
 21
148.1615665941723137
 31
0.0
  0
LINE
  5
BB4C
  8
0
 10
958.3066940524987558
 20
148.1565668142752941
 30
0.0
 11
958.3053686138581497
 21
148.1524875358560962
 31
0.0
  0
LINE
  5
BB4D
  8
0
 10
958.3044316119726318
 20
148.1496037421798917
 30
0.0
 11
958.303763284931506
 21
148.1475468441896055
 31
0.0
  0
LINE
  5
BB4E
  8
0
 10
958.3281265899445316
 20
148.1663294172315091
 30
0.0
 11
958.3176669899794433
 21
148.134138096372908
 31
0.0
  0
LINE
  5
BB4F
  8
0
 10
958.3275188697141402
 20
148.1665268776133928
 30
0.0
 11
958.3171421958185192
 21
148.1345907770540009
 31
0.0
  0
LINE
  5
BB50
  8
0
 10
958.306944419350998
 20
148.1732119254747886
 30
0.0
 11
958.304616828500798
 21
148.1660483413965039
 31
0.0
  0
LINE
  5
BB51
  8
0
 10
958.3029877508046184
 20
148.1610345585629887
 30
0.0
 11
958.3015196963052631
 21
148.1565163538978993
 31
0.0
  0
LINE
  5
BB52
  8
0
 10
958.3006000418216672
 20
148.1536859499994137
 30
0.0
 11
958.299907715789459
 21
148.1515551907463077
 31
0.0
  0
LINE
  5
BB53
  8
0
 10
958.2910353877506395
 20
148.1783810860501944
 30
0.0
 11
958.2864115243515926
 21
148.1641503057720115
 31
0.0
  0
LINE
  5
BB54
  8
0
 10
958.2904276675585606
 20
148.1785785464196863
 30
0.0
 11
958.2859132419019943
 21
148.164684580683911
 31
0.0
  0
LINE
  5
BB55
  8
0
 10
958.2731882194098034
 20
148.1796531083593038
 30
0.0
 11
958.2738738214651448
 21
148.1817631733713085
 31
0.0
  0
LINE
  5
BB56
  8
0
 10
958.3934625389740631
 20
148.1273469117807906
 30
0.0
 11
958.3804606590389312
 21
148.1311837832714957
 31
0.0
  0
LINE
  5
BB57
  8
0
 10
958.3940296124609404
 20
148.1290921835619088
 30
0.0
 11
958.3833885362095089
 21
148.1401948577095027
 31
0.0
  0
LINE
  5
BB58
  8
0
 10
958.3888034315139066
 20
148.1130076612882931
 30
0.0
 11
958.3778320212918516
 21
148.1230936725768004
 31
0.0
  0
LINE
  5
BB59
  8
0
 10
958.3883875148436573
 20
148.1117276020989095
 30
0.0
 11
958.3756398018075515
 21
148.1163467184512115
 31
0.0
  0
LINE
  5
BB5A
  8
0
 10
958.3849913605014308
 20
148.1012753195018092
 30
0.0
 11
958.3737652600921137
 21
148.1105774754290962
 31
0.0
  0
LINE
  5
BB5B
  8
0
 10
958.3847331807502314
 20
148.1004807243664061
 30
0.0
 11
958.3722290318855812
 21
148.1058494537547006
 31
0.0
  0
LINE
  5
BB5C
  8
0
 10
958.3825450421630876
 20
148.0937463299393926
 30
0.0
 11
958.3710044135559656
 21
148.1020804681442087
 31
0.0
  0
LINE
  5
BB5D
  8
0
 10
958.3823758081556434
 20
148.0932254815054989
 30
0.0
 11
958.3701073028205428
 21
148.0993194467125988
 31
0.0
  0
LINE
  5
BB5E
  8
0
 10
958.3813152611287478
 20
148.0899614551638876
 30
0.0
 11
958.3694912032202637
 21
148.0974232881532089
 31
0.0
  0
LINE
  5
BB5F
  8
0
 10
958.3652334527433823
 20
148.1001938488886935
 30
0.0
 11
958.3504664749565336
 21
148.1088778877295056
 31
0.0
  0
LINE
  5
BB60
  8
0
 10
958.3517340529615467
 20
148.1127790895353087
 30
0.0
 11
958.3658375442754505
 21
148.1020530504027022
 31
0.0
  0
LINE
  5
BB61
  8
0
 10
958.3517340529615467
 20
148.1127790895353087
 30
0.0
 11
958.3667271969043213
 21
148.1047911181078973
 31
0.0
  0
LINE
  5
BB62
  8
0
 10
958.3542061405355525
 20
148.120387388565689
 30
0.0
 11
958.3679545706014551
 21
148.1085685837983021
 31
0.0
  0
LINE
  5
BB63
  8
0
 10
958.3542061405355525
 20
148.120387388565689
 30
0.0
 11
958.3694755334551019
 21
148.1132496234926919
 31
0.0
  0
LINE
  5
BB64
  8
0
 10
958.3580257588134828
 20
148.1321429583713893
 30
0.0
 11
958.3713695014963605
 21
148.1190786544648859
 31
0.0
  0
LINE
  5
BB65
  8
0
 10
958.3580257588134828
 20
148.1321429583713893
 30
0.0
 11
958.3735686492490231
 21
148.1258469314801118
 31
0.0
  0
LINE
  5
BB66
  8
0
 10
958.3633520216294528
 20
148.1485355007094995
 30
0.0
 11
958.3761892635990307
 21
148.1339123485716982
 31
0.0
  0
LINE
  5
BB67
  8
0
 10
958.3633520216294528
 20
148.1485355007094995
 30
0.0
 11
958.3791793750039005
 21
148.1431149600246897
 31
0.0
  0
LINE
  5
BB68
  8
0
 10
958.3628070160413017
 20
148.1489259767280089
 30
0.0
 11
958.3472533934630064
 21
148.1551889730224048
 31
0.0
  0
LINE
  5
BB69
  8
0
 10
958.3628070160413017
 20
148.1489259767280089
 30
0.0
 11
958.3560592108393621
 21
148.1572535535129873
 31
0.0
  0
LINE
  5
BB6A
  8
0
 10
958.3575017084497176
 20
148.1325979278921068
 30
0.0
 11
958.3445308890381966
 21
148.1468099706187047
 31
0.0
  0
LINE
  5
BB6B
  8
0
 10
958.3575017084497176
 20
148.1325979278921068
 30
0.0
 11
958.3422697565700901
 21
148.1398509243038859
 31
0.0
  0
LINE
  5
BB6C
  8
0
 10
958.3537076989173329
 20
148.1209211736500038
 30
0.0
 11
958.3402801062612753
 21
148.1337274136978976
 31
0.0
  0
LINE
  5
BB6D
  8
0
 10
958.3537076989173329
 20
148.1209211736500038
 30
0.0
 11
958.3387330941134223
 21
148.1289662025176881
 31
0.0
  0
LINE
  5
BB6E
  8
0
 10
958.351233419533969
 20
148.1133061289218915
 30
0.0
 11
958.3374542464201795
 21
148.1250303162078126
 31
0.0
  0
LINE
  5
BB6F
  8
0
 10
958.351233419533969
 20
148.1133061289218915
 30
0.0
 11
958.3365547026521654
 21
148.1222618066967982
 31
0.0
  0
LINE
  5
BB70
  8
0
 10
958.3500133746908887
 20
148.1095512190630075
 30
0.0
 11
958.335945913359069
 21
148.1203881469500914
 31
0.0
  0
LINE
  5
BB71
  8
0
 10
958.3318517967248908
 20
148.1236623201706948
 30
0.0
 11
958.3177162390321655
 21
148.1342896692885915
 31
0.0
  0
LINE
  5
BB72
  8
0
 10
958.3324767356391476
 20
148.125585683326392
 30
0.0
 11
958.3189806157524799
 21
148.1381810185582992
 31
0.0
  0
LINE
  5
BB73
  8
0
 10
958.333403284326323
 20
148.1284373054076866
 30
0.0
 11
958.3189806157524799
 21
148.1381810185582992
 31
0.0
  0
LINE
  5
BB74
  8
0
 10
958.3346782095743492
 20
148.1323611197080083
 30
0.0
 11
958.3215452208717124
 21
148.1460740571585006
 31
0.0
  0
LINE
  5
BB75
  8
0
 10
958.3362548036279804
 20
148.137213374617204
 30
0.0
 11
958.3215452208717124
 21
148.1460740571585006
 31
0.0
  0
LINE
  5
BB76
  8
0
 10
958.3382081709033855
 20
148.1432252176340967
 30
0.0
 11
958.3255097244708622
 21
148.1582755378877039
 31
0.0
  0
LINE
  5
BB77
  8
0
 10
958.3405010794978125
 20
148.1502820608064894
 30
0.0
 11
958.3255097244708622
 21
148.1582755378877039
 31
0.0
  0
LINE
  5
BB78
  8
0
 10
958.3432478432744119
 20
148.1587357258374027
 30
0.0
 11
958.3405182768093482
 21
148.1623031118714948
 31
0.0
  0
LINE
  5
BB79
  8
0
 10
958.3250484459520067
 20
148.1589236993227132
 30
0.0
 11
958.3103962436882739
 21
148.1679609808250859
 31
0.0
  0
LINE
  5
BB7A
  8
0
 10
958.3250484459520067
 20
148.1589236993227132
 30
0.0
 11
958.3165812732297582
 21
148.1700807201071939
 31
0.0
  0
LINE
  5
BB7B
  8
0
 10
958.3210820598525288
 20
148.1467164249490054
 30
0.0
 11
958.3083185803658353
 21
148.1615665941723137
 31
0.0
  0
LINE
  5
BB7C
  8
0
 10
958.3210820598525288
 20
148.1467164249490054
 30
0.0
 11
958.3066940524987558
 21
148.1565668142752941
 31
0.0
  0
LINE
  5
BB7D
  8
0
 10
958.3185088836428349
 20
148.1387970073189138
 30
0.0
 11
958.3053686138581497
 21
148.1524875358560962
 31
0.0
  0
LINE
  5
BB7E
  8
0
 10
958.3185088836428349
 20
148.1387970073189138
 30
0.0
 11
958.3044316119726318
 21
148.1496037421798917
 31
0.0
  0
LINE
  5
BB7F
  8
0
 10
958.317246220797756
 20
148.1349109328409099
 30
0.0
 11
958.303763284931506
 21
148.1475468441896055
 31
0.0
  0
LINE
  5
BB80
  8
0
 10
958.2879903701574449
 20
148.1624702502141133
 30
0.0
 11
958.299907715789459
 21
148.1515551907463077
 31
0.0
  0
LINE
  5
BB81
  8
0
 10
958.287722987021084
 20
148.1681865705753012
 30
0.0
 11
958.3006000418216672
 21
148.1536859499994137
 31
0.0
  0
LINE
  5
BB82
  8
0
 10
958.287722987021084
 20
148.1681865705753012
 30
0.0
 11
958.3015196963052631
 21
148.1565163538978993
 31
0.0
  0
LINE
  5
BB83
  8
0
 10
958.2905163879323709
 20
148.1767837697499886
 30
0.0
 11
958.3029877508046184
 21
148.1610345585629887
 31
0.0
  0
LINE
  5
BB84
  8
0
 10
958.2905163879323709
 20
148.1767837697499886
 30
0.0
 11
958.304616828500798
 21
148.1660483413965039
 31
0.0
  0
LINE
  5
BB85
  8
0
 10
958.2873727693247474
 20
148.1795711435750889
 30
0.0
 11
958.2900205994382077
 21
148.1773257202690957
 31
0.0
  0
LINE
  5
BB86
  8
0
 10
958.2887341408202246
 20
148.1791288069175891
 30
0.0
 11
958.2900205994382077
 21
148.1773257202690957
 31
0.0
  0
LINE
  5
BB87
  8
0
 10
958.2760514914011765
 20
148.183249651794597
 30
0.0
 11
958.2873020929005179
 21
148.1689590221417916
 31
0.0
  0
LINE
  5
BB88
  8
0
 10
958.2738738214651448
 20
148.1817631733713085
 30
0.0
 11
958.2873020929005179
 21
148.1689590221417916
 31
0.0
  0
LINE
  5
BB89
  8
0
 10
958.2859569228838836
 20
148.164819016846991
 30
0.0
 11
958.2731882194098034
 21
148.1796531083593038
 31
0.0
  0
LINE
  5
BB8A
  8
0
 10
958.2683474450217318
 20
148.1857528495891074
 30
0.0
 11
958.2695652883512594
 21
148.1843774410521064
 31
0.0
  0
LINE
  5
BB8B
  8
0
 10
958.2695652883512594
 20
148.1843774410521064
 30
0.0
 11
958.2698532171640409
 21
148.1852635942913139
 31
0.0
  0
LINE
  5
BB8C
  8
0
 10
958.4095033281512315
 20
148.0747920073521016
 30
0.0
 11
958.428634715196381
 21
148.1336723296344076
 31
0.0
  0
ARC
  5
BB8D
  8
0
 10
958.5808151956365464
 20
148.4363532709874107
 30
0.0
 40
0.3997931685551829
 50
259.0113746151292844
 51
285.1055473507539091
  0
LINE
  5
BB8E
  8
0
 10
958.5484772543586587
 20
148.0769795496873087
 30
0.0
 11
958.5438181468424546
 21
148.0626402992130863
 31
0.0
  0
LINE
  5
BB8F
  8
0
 10
958.5434022301669756
 20
148.0613602400252944
 30
0.0
 11
958.5400060757839356
 21
148.0509079574414955
 31
0.0
  0
LINE
  5
BB90
  8
0
 10
958.5397478960296667
 20
148.0501133623072008
 30
0.0
 11
958.5375597574159201
 21
148.043378967888799
 31
0.0
  0
LINE
  5
BB91
  8
0
 10
958.5373905234065433
 20
148.0428581194555875
 30
0.0
 11
958.5363299763669147
 21
148.0395940931180974
 31
0.0
  0
LINE
  5
BB92
  8
0
 10
958.5490443278524708
 20
148.07872482146621
 30
0.0
 11
958.5536948962126189
 21
148.093037791134492
 31
0.0
  0
LINE
  5
BB93
  8
0
 10
958.5508978948535059
 20
148.0405769899761026
 30
0.0
 11
958.5502817952464056
 21
148.0386808314189011
 31
0.0
  0
LINE
  5
BB94
  8
0
 10
958.5517950055988194
 20
148.0433380114043871
 30
0.0
 11
958.5530196239420775
 21
148.047106997010502
 31
0.0
  0
LINE
  5
BB95
  8
0
 10
958.5545558521656631
 20
148.0518350186794123
 30
0.0
 11
958.5564303939021329
 21
148.0576042616947063
 31
0.0
  0
LINE
  5
BB96
  8
0
 10
958.5586226134106482
 20
148.064351215812394
 30
0.0
 11
958.5612512511869454
 21
148.0724413264975112
 31
0.0
  0
LINE
  5
BB97
  8
0
 10
958.5641791283901512
 20
148.0814524009250022
 30
0.0
 11
958.5665828345927366
 21
148.0888502437958039
 31
0.0
  0
LINE
  5
BB98
  8
0
 10
958.5712482531564547
 20
148.0873343565752975
 30
0.0
 11
958.5693008043772352
 21
148.0813407287770076
 31
0.0
  0
LINE
  5
BB99
  8
0
 10
958.5663106930321646
 20
148.0721381173044904
 30
0.0
 11
958.5636900787349077
 21
148.0640727001959078
 31
0.0
  0
LINE
  5
BB9A
  8
0
 10
958.5614909310263556
 20
148.0573044231663005
 30
0.0
 11
958.5595969630229547
 21
148.0514753921817999
 31
0.0
  0
LINE
  5
BB9B
  8
0
 10
958.5580760001996623
 20
148.046794352477491
 30
0.0
 11
958.5568486265273123
 21
148.0430168867790997
 31
0.0
  0
LINE
  5
BB9C
  8
0
 10
958.5559589739161765
 20
148.0402788190681065
 30
0.0
 11
958.5553548823962728
 21
148.0384196175502041
 31
0.0
  0
LINE
  5
BB9D
  8
0
 10
958.5871572849312088
 20
148.0821651959458052
 30
0.0
 11
958.5723682807551995
 21
148.0366493464977964
 31
0.0
  0
LINE
  5
BB9E
  8
0
 10
958.5877650051394312
 20
148.0819677355711121
 30
0.0
 11
958.5730357576763936
 21
148.0366357983039904
 31
0.0
  0
LINE
  5
BB9F
  8
0
 10
958.5909189097773151
 20
148.0375423525829035
 30
0.0
 11
958.5915276990689335
 21
148.0394160123300935
 31
0.0
  0
LINE
  5
BBA0
  8
0
 10
958.5924272428352424
 20
148.0421845218417047
 30
0.0
 11
958.593706090525302
 21
148.0461204081524897
 31
0.0
  0
LINE
  5
BBA1
  8
0
 10
958.5952531026699717
 20
148.0508816193338077
 30
0.0
 11
958.5972427529745801
 21
148.0570051299411034
 31
0.0
  0
LINE
  5
BBA2
  8
0
 10
958.5995038854375707
 20
148.0639641762575991
 30
0.0
 11
958.6022263898565825
 21
148.0723431786632034
 31
0.0
  0
LINE
  5
BBA3
  8
0
 10
958.6075516771968523
 20
148.0728581569057951
 30
0.0
 11
958.6048049133902396
 21
148.064404491884801
 31
0.0
  0
LINE
  5
BBA4
  8
0
 10
958.6025120047705741
 20
148.0573476487203948
 30
0.0
 11
958.6005586374739096
 21
148.0513358057104938
 31
0.0
  0
LINE
  5
BBA5
  8
0
 10
958.5989820434028843
 20
148.0464835508068973
 30
0.0
 11
958.5977071181409883
 21
148.0425597365112083
 31
0.0
  0
LINE
  5
BBA6
  8
0
 10
958.5967805694434674
 20
148.0397081144332105
 30
0.0
 11
958.5961556305226168
 21
148.0377847512795881
 31
0.0
  0
LINE
  5
BBA7
  8
0
 10
958.6395516445334124
 20
148.0610118488137061
 30
0.0
 11
958.6374739812187045
 21
148.0546174621584044
 31
0.0
  0
LINE
  5
BBA8
  8
0
 10
958.6358494533575367
 20
148.0496176822595089
 30
0.0
 11
958.6345240147217055
 21
148.045538403838691
 31
0.0
  0
LINE
  5
BBA9
  8
0
 10
958.6335870128397119
 20
148.0426546101612928
 30
0.0
 11
958.6329186858008597
 21
148.0405977121702961
 31
0.0
  0
LINE
  5
BBAA
  8
0
 10
958.6242484870364251
 20
148.070113527161908
 30
0.0
 11
958.613788887044052
 21
148.0379222063120039
 31
0.0
  0
LINE
  5
BBAB
  8
0
 10
958.6248562072668165
 20
148.0699160667801095
 30
0.0
 11
958.6144795334860191
 21
148.0379799661832863
 31
0.0
  0
LINE
  5
BBAC
  8
0
 10
958.6454306576309818
 20
148.0632310189216128
 30
0.0
 11
958.6431030667807818
 21
148.0560674348432997
 31
0.0
  0
LINE
  5
BBAD
  8
0
 10
958.6414739890846022
 20
148.0510536520098128
 30
0.0
 11
958.6400059345852469
 21
148.0465354473446098
 31
0.0
  0
LINE
  5
BBAE
  8
0
 10
958.639086280101651
 20
148.0437050434460957
 30
0.0
 11
958.6383939540695565
 21
148.0415742841931035
 31
0.0
  0
LINE
  5
BBAF
  8
0
 10
958.6613396892319088
 20
148.0580618583485943
 30
0.0
 11
958.6567158258985728
 21
148.0438310780490099
 31
0.0
  0
LINE
  5
BBB0
  8
0
 10
958.6619474094241014
 20
148.0578643979791877
 30
0.0
 11
958.6574329838275617
 21
148.0439704322238867
 31
0.0
  0
LINE
  5
BBB1
  8
0
 10
958.6765260245990703
 20
148.0486006387305906
 30
0.0
 11
958.6772116266663488
 21
148.0507107037387016
 31
0.0
  0
LINE
  5
BBB2
  8
0
 10
958.5484772543586587
 20
148.0769795496873087
 30
0.0
 11
958.5612512511869454
 21
148.0724413264975112
 31
0.0
  0
LINE
  5
BBB3
  8
0
 10
958.5490443278524708
 20
148.07872482146621
 30
0.0
 11
958.5641791283901512
 21
148.0814524009250022
 31
0.0
  0
LINE
  5
BBB4
  8
0
 10
958.5438181468424546
 20
148.0626402992130863
 30
0.0
 11
958.5586226134106482
 21
148.064351215812394
 31
0.0
  0
LINE
  5
BBB5
  8
0
 10
958.5434022301669756
 20
148.0613602400252944
 30
0.0
 11
958.5564303939021329
 21
148.0576042616947063
 31
0.0
  0
LINE
  5
BBB6
  8
0
 10
958.5400060757839356
 20
148.0509079574414955
 30
0.0
 11
958.5545558521656631
 21
148.0518350186794123
 31
0.0
  0
LINE
  5
BBB7
  8
0
 10
958.5397478960296667
 20
148.0501133623072008
 30
0.0
 11
958.5530196239420775
 21
148.047106997010502
 31
0.0
  0
LINE
  5
BBB8
  8
0
 10
958.5375597574159201
 20
148.043378967888799
 30
0.0
 11
958.5517950055988194
 21
148.0433380114043871
 31
0.0
  0
LINE
  5
BBB9
  8
0
 10
958.5373905234065433
 20
148.0428581194555875
 30
0.0
 11
958.5508978948535059
 21
148.0405769899761026
 31
0.0
  0
LINE
  5
BBBA
  8
0
 10
958.5363299763669147
 20
148.0395940931180974
 30
0.0
 11
958.5502817952464056
 21
148.0386808314189011
 31
0.0
  0
LINE
  5
BBBB
  8
0
 10
958.5553548823962728
 20
148.0384196175502041
 30
0.0
 11
958.5724059678045705
 21
148.0367653352446098
 31
0.0
  0
LINE
  5
BBBC
  8
0
 10
958.5736735458126532
 20
148.0406665370493897
 30
0.0
 11
958.5559589739161765
 21
148.0402788190681065
 31
0.0
  0
LINE
  5
BBBD
  8
0
 10
958.5736735458126532
 20
148.0406665370493897
 30
0.0
 11
958.5568486265273123
 21
148.0430168867790997
 31
0.0
  0
LINE
  5
BBBE
  8
0
 10
958.5761456333924571
 20
148.0482748360778942
 30
0.0
 11
958.5580760001996623
 21
148.046794352477491
 31
0.0
  0
LINE
  5
BBBF
  8
0
 10
958.5761456333924571
 20
148.0482748360778942
 30
0.0
 11
958.5595969630229547
 21
148.0514753921817999
 31
0.0
  0
LINE
  5
BBC0
  8
0
 10
958.5799652516794822
 20
148.0600304058806103
 30
0.0
 11
958.5614909310263556
 21
148.0573044231663005
 31
0.0
  0
LINE
  5
BBC1
  8
0
 10
958.5799652516794822
 20
148.0600304058806103
 30
0.0
 11
958.5636900787349077
 21
148.0640727001959078
 31
0.0
  0
LINE
  5
BBC2
  8
0
 10
958.5852915145081852
 20
148.0764229482145993
 30
0.0
 11
958.5663106930321646
 21
148.0721381173044904
 31
0.0
  0
LINE
  5
BBC3
  8
0
 10
958.5852915145081852
 20
148.0764229482145993
 30
0.0
 11
958.5693008043772352
 21
148.0813407287770076
 31
0.0
  0
LINE
  5
BBC4
  8
0
 10
958.5859619493345463
 20
148.0764185034844047
 30
0.0
 11
958.6022263898565825
 21
148.0723431786632034
 31
0.0
  0
LINE
  5
BBC5
  8
0
 10
958.5859619493345463
 20
148.0764185034844047
 30
0.0
 11
958.5963158661401167
 21
148.0791893908761949
 31
0.0
  0
LINE
  5
BBC6
  8
0
 10
958.5806566417237491
 20
148.0600904546546985
 30
0.0
 11
958.5995038854375707
 21
148.0639641762575991
 31
0.0
  0
LINE
  5
BBC7
  8
0
 10
958.5806566417237491
 20
148.0600904546546985
 30
0.0
 11
958.5972427529745801
 21
148.0570051299411034
 31
0.0
  0
LINE
  5
BBC8
  8
0
 10
958.5768626321778356
 20
148.0484137004170861
 30
0.0
 11
958.5952531026699717
 21
148.0508816193338077
 31
0.0
  0
LINE
  5
BBC9
  8
0
 10
958.5768626321778356
 20
148.0484137004170861
 30
0.0
 11
958.593706090525302
 21
148.0461204081524897
 31
0.0
  0
LINE
  5
BBCA
  8
0
 10
958.5743883527853768
 20
148.0407986556919013
 30
0.0
 11
958.5924272428352424
 21
148.0421845218417047
 31
0.0
  0
LINE
  5
BBCB
  8
0
 10
958.5743883527853768
 20
148.0407986556919013
 30
0.0
 11
958.5915276990689335
 21
148.0394160123300935
 31
0.0
  0
LINE
  5
BBCC
  8
0
 10
958.573168307937749
 20
148.0370437458344952
 30
0.0
 11
958.5909189097773151
 21
148.0375423525829035
 31
0.0
  0
LINE
  5
BBCD
  8
0
 10
958.5961556305226168
 20
148.0377847512795881
 30
0.0
 11
958.6138381360973426
 21
148.0380737792276875
 31
0.0
  0
LINE
  5
BBCE
  8
0
 10
958.5967805694434674
 20
148.0397081144332105
 30
0.0
 11
958.6151025128208403
 21
148.0419651284962868
 31
0.0
  0
LINE
  5
BBCF
  8
0
 10
958.5977071181409883
 20
148.0425597365112083
 30
0.0
 11
958.6151025128208403
 21
148.0419651284962868
 31
0.0
  0
LINE
  5
BBD0
  8
0
 10
958.5989820434028843
 20
148.0464835508068973
 30
0.0
 11
958.6176671179465529
 21
148.0498581670944986
 31
0.0
  0
LINE
  5
BBD1
  8
0
 10
958.6005586374739096
 20
148.0513358057104938
 30
0.0
 11
958.6176671179465529
 21
148.0498581670944986
 31
0.0
  0
LINE
  5
BBD2
  8
0
 10
958.6025120047705741
 20
148.0573476487203948
 30
0.0
 11
958.6216316215560482
 21
148.0620596478202913
 31
0.0
  0
LINE
  5
BBD3
  8
0
 10
958.6048049133902396
 20
148.064404491884801
 30
0.0
 11
958.6216316215560482
 21
148.0620596478202913
 31
0.0
  0
LINE
  5
BBD4
  8
0
 10
958.6075516771968523
 20
148.0728581569057951
 30
0.0
 11
958.6118568001708127
 21
148.0741398325199896
 31
0.0
  0
LINE
  5
BBD5
  8
0
 10
958.622385783531854
 20
148.0623128884805055
 30
0.0
 11
958.6395516445334124
 21
148.0610118488137061
 31
0.0
  0
LINE
  5
BBD6
  8
0
 10
958.622385783531854
 20
148.0623128884805055
 30
0.0
 11
958.6357938037516533
 21
148.0663622242879001
 31
0.0
  0
LINE
  5
BBD7
  8
0
 10
958.618419397476373
 20
148.0501056140925016
 30
0.0
 11
958.6374739812187045
 21
148.0546174621584044
 31
0.0
  0
LINE
  5
BBD8
  8
0
 10
958.618419397476373
 20
148.0501056140925016
 30
0.0
 11
958.6358494533575367
 21
148.0496176822595089
 31
0.0
  0
LINE
  5
BBD9
  8
0
 10
958.6158462212951008
 20
148.0421861964530876
 30
0.0
 11
958.6345240147217055
 21
148.045538403838691
 31
0.0
  0
LINE
  5
BBDA
  8
0
 10
958.6158462212951008
 20
148.0421861964530876
 30
0.0
 11
958.6335870128397119
 21
148.0426546101612928
 31
0.0
  0
LINE
  5
BBDB
  8
0
 10
958.6145835584641191
 20
148.0383001219705932
 30
0.0
 11
958.6329186858008597
 21
148.0405977121702961
 31
0.0
  0
LINE
  5
BBDC
  8
0
 10
958.6544510007902318
 20
148.0433999075677889
 30
0.0
 11
958.6383939540695565
 21
148.0415742841931035
 31
0.0
  0
LINE
  5
BBDD
  8
0
 10
958.658027288549647
 20
148.0478673428584102
 30
0.0
 11
958.639086280101651
 21
148.0437050434460957
 31
0.0
  0
LINE
  5
BBDE
  8
0
 10
958.658027288549647
 20
148.0478673428584102
 30
0.0
 11
958.6400059345852469
 21
148.0465354473446098
 31
0.0
  0
LINE
  5
BBDF
  8
0
 10
958.6608206894211435
 20
148.056464542046001
 30
0.0
 11
958.6414739890846022
 21
148.0510536520098128
 31
0.0
  0
LINE
  5
BBE0
  8
0
 10
958.6608206894211435
 20
148.056464542046001
 30
0.0
 11
958.6431030667807818
 21
148.0560674348432997
 31
0.0
  0
LINE
  5
BBE1
  8
0
 10
958.6650023076581419
 20
148.0568718008242115
 30
0.0
 11
958.6615403413090917
 21
148.0566115718268065
 31
0.0
  0
LINE
  5
BBE2
  8
0
 10
958.663640936162551
 20
148.0573141374815123
 30
0.0
 11
958.6615403413090917
 21
148.0566115718268065
 31
0.0
  0
LINE
  5
BBE3
  8
0
 10
958.6763235855822813
 20
148.0531932926064087
 30
0.0
 11
958.6588218348075543
 21
148.0482448736877927
 31
0.0
  0
LINE
  5
BBE4
  8
0
 10
958.6772116266663488
 20
148.0507107037387016
 30
0.0
 11
958.6588218348075543
 21
148.0482448736877927
 31
0.0
  0
LINE
  5
BBE5
  8
0
 10
958.6574766648086552
 20
148.0441048683871941
 30
0.0
 11
958.6765260245990703
 21
148.0486006387305906
 31
0.0
  0
LINE
  5
BBE6
  8
0
 10
958.6840276319619534
 20
148.050690094812893
 30
0.0
 11
958.6822339310289181
 21
148.0502931968642031
 31
0.0
  0
LINE
  5
BBE7
  8
0
 10
958.6822339310289181
 20
148.0502931968642031
 30
0.0
 11
958.682521859819758
 21
148.0511793501106013
 31
0.0
  0
LINE
  5
BBE8
  8
0
 10
958.5046089747945643
 20
148.0438902924423985
 30
0.0
 11
958.5237403617795735
 21
148.1027706147442018
 31
0.0
  0
LINE
  5
BBE9
  8
0
 10
958.4758836784509413
 20
148.1183202023509864
 30
0.0
 11
958.4750730823512868
 21
148.1158254456520922
 31
0.0
  0
LINE
  5
BBEA
  8
0
 10
958.4750730823512868
 20
148.1158254456520922
 30
0.0
 11
958.4732906767914073
 21
148.115920525364487
 31
0.0
  0
LINE
  5
BBEB
  8
0
 10
958.4732906767914073
 20
148.115920525364487
 30
0.0
 11
958.4401169726395437
 21
148.1275961880982095
 31
0.0
  0
LINE
  5
BBEC
  8
0
 10
958.4401169726395437
 20
148.1275961880982095
 30
0.0
 11
958.438926151751275
 21
148.1287154519521039
 31
0.0
  0
LINE
  5
BBED
  8
0
 10
958.438926151751275
 20
148.1287154519521039
 30
0.0
 11
958.4394001964358267
 21
148.1301744108046137
 31
0.0
  0
LINE
  5
BBEE
  8
0
 10
958.438926151751275
 20
148.1287154519521039
 30
0.0
 11
958.4450512338524959
 21
148.1283382764277121
 31
0.0
  0
LINE
  5
BBEF
  8
0
 10
958.473290732651094
 20
148.1159205224520861
 30
0.0
 11
958.4664847134715728
 21
148.1213741128869117
 31
0.0
  0
LINE
  5
BBF0
  8
0
 10
958.4387924762417015
 20
148.1303718711747877
 30
0.0
 11
958.4383409161891905
 21
148.1289821129848008
 31
0.0
  0
LINE
  5
BBF1
  8
0
 10
958.4383409161891905
 20
148.1289821129848008
 30
0.0
 11
958.4361221252512451
 21
148.129151845702097
 31
0.0
  0
LINE
  5
BBF2
  8
0
 10
958.4361221252512451
 20
148.129151845702097
 30
0.0
 11
958.4281554238420995
 21
148.1321972233419046
 31
0.0
  0
LINE
  5
BBF3
  8
0
 10
958.4383409161891905
 20
148.1289821129848008
 30
0.0
 11
958.4359051722293543
 21
148.1313100136364937
 31
0.0
  0
LINE
  5
BBF4
  8
0
 10
958.4764913985229668
 20
148.1181227420206028
 30
0.0
 11
958.4756808025364307
 21
148.1156279852849025
 31
0.0
  0
LINE
  5
BBF5
  8
0
 10
958.4756808025364307
 20
148.1156279852849025
 30
0.0
 11
958.477178685062313
 21
148.1146572341993988
 31
0.0
  0
LINE
  5
BBF6
  8
0
 10
958.477178685062313
 20
148.1146572341993988
 30
0.0
 11
958.510879554584676
 21
148.1046040187505071
 31
0.0
  0
LINE
  5
BBF7
  8
0
 10
958.510879554584676
 20
148.1046040187505071
 30
0.0
 11
958.5125008357741763
 21
148.1048095747462128
 31
0.0
  0
LINE
  5
BBF8
  8
0
 10
958.5125008357741763
 20
148.1048095747462128
 30
0.0
 11
958.5129748805397867
 21
148.1062685335724041
 31
0.0
  0
LINE
  5
BBF9
  8
0
 10
958.5125008357741763
 20
148.1048095747462128
 30
0.0
 11
958.5073238431227765
 21
148.1081046679485098
 31
0.0
  0
LINE
  5
BBFA
  8
0
 10
958.4771786381588754
 20
148.1146572646767936
 30
0.0
 11
958.4858903635025626
 21
148.1150688314860986
 31
0.0
  0
LINE
  5
BBFB
  8
0
 10
958.5135826007340256
 20
148.1060710732022869
 30
0.0
 11
958.5131310406702596
 21
148.1046813150161086
 31
0.0
  0
LINE
  5
BBFC
  8
0
 10
958.5131310406702596
 20
148.1046813150161086
 30
0.0
 11
958.5150258462547299
 21
148.1035144584614898
 31
0.0
  0
LINE
  5
BBFD
  8
0
 10
958.5150258462547299
 20
148.1035144584614898
 30
0.0
 11
958.5232610704267699
 21
148.101295508451301
 31
0.0
  0
LINE
  5
BBFE
  8
0
 10
958.5131310406702596
 20
148.1046813150161086
 30
0.0
 11
958.5164699047463728
 21
148.1051329307410072
 31
0.0
  0
LINE
  5
BBFF
  8
0
 10
964.7252138588133903
 20
139.7767723174520995
 30
0.0
 11
964.7252139164149867
 21
147.211757489259611
 31
0.0
  0
LINE
  5
BC00
  8
0
 10
963.1167885458951332
 20
148.7005482313520872
 30
0.0
 11
957.8166618718490781
 21
148.7005482313520872
 31
0.0
  0
ARC
  5
BC01
  8
0
 10
963.0671407048416768
 20
140.1153438524196986
 30
0.0
 40
8.5853479333200031
 50
86.1155957494024165
 51
89.6686648425550601
  0
ARC
  5
BC02
  8
0
 10
963.495608646013352
 20
146.7626625326460896
 30
0.0
 40
1.924409187641646
 50
70.7408340579871435
 51
85.4358444701242234
  0
ARC
  5
BC03
  8
0
 10
963.8812271335965534
 20
147.8663370146049942
 30
0.0
 40
0.7553074041799706
 50
24.5146042430809388
 51
70.7408340579871435
  0
ARC
  5
BC04
  8
0
 10
963.1446753355769488
 20
147.530444262779298
 30
0.0
 40
1.5648334951092271
 50
0.803368860402235
 51
24.5146042430809388
  0
ARC
  5
BC05
  8
0
 10
969.955387538085688
 20
147.6259464575815912
 30
0.0
 40
5.2465482571210389
 50
180.803368860401406
 51
184.5279292564555931
  0
LINE
  5
BC06
  8
0
 10
965.8006789244452648
 20
148.9106305852521075
 30
0.0
 11
963.8719573905451625
 21
148.9106305852521075
 31
0.0
  0
LINE
  5
BC07
  8
0
 10
963.9112157827453302
 20
148.9027565694520945
 30
0.0
 11
963.9112157827453302
 21
148.9106305852521075
 31
0.0
  0
LINE
  5
BC08
  8
0
 10
965.7614205321953023
 20
148.9027565694520945
 30
0.0
 11
965.7614205321953023
 21
148.9106305852521075
 31
0.0
  0
LINE
  5
BC09
  8
0
 10
965.7996376708497337
 20
148.9702839655431887
 30
0.0
 11
965.8006789244452648
 21
148.9106305852521075
 31
0.0
  0
LINE
  5
BC0A
  8
0
 10
963.8729702602275893
 20
148.9686578510442132
 30
0.0
 11
963.8719573905451625
 21
148.9106305852521075
 31
0.0
  0
ARC
  5
BC0B
  8
0
 10
962.3336052365001478
 20
150.5551533883246975
 30
0.0
 40
2.1937434367793749
 50
315.1965440085767796
 51
329.2905824723661112
  0
ARC
  5
BC0C
  8
0
 10
963.9320612590114479
 20
148.9676264138336137
 30
0.0
 40
0.0591
 50
135.1965440085928094
 51
179.000000009533295
  0
ARC
  5
BC0D
  8
0
 10
965.9966885225792339
 20
149.2215692051406108
 30
0.0
 40
0.3004446466987962
 50
202.2325014122623088
 51
224.5689674494699091
  0
ARC
  5
BC0E
  8
0
 10
966.2906828409746822
 20
149.3417406532375082
 30
0.0
 40
0.6180510638042359
 50
185.7565422279101028
 51
202.2325014122623088
  0
ARC
  5
BC0F
  8
0
 10
970.8859333067127864
 20
149.8049880717973963
 30
0.0
 40
5.2365925017116304
 50
184.0532922220762941
 51
185.7565422279101028
  0
ARC
  5
BC10
  8
0
 10
965.7405466720656477
 20
148.9692525283531097
 30
0.0
 40
0.0591
 50
0.9999999705639528
 51
44.56896744961103
  0
ARC
  5
BC11
  8
0
 10
967.1681635394527348
 20
149.5852192349055088
 30
0.0
 40
3.2974738992659258
 50
180.5093254173528976
 51
182.6137893780349089
  0
ARC
  5
BC12
  8
0
 10
956.3757937744087485
 20
149.0642717462654048
 30
0.0
 40
7.5111332207032122
 50
3.752933004249503
 51
5.272909497360958
  0
ARC
  5
BC13
  8
0
 10
963.3457068642401282
 20
149.6635867224613037
 30
0.0
 40
0.5174911448325193
 50
10.1231439176966607
 51
35.1459789596110497
  0
ARC
  5
BC14
  8
0
 10
963.4085766519544904
 20
149.6811526055703894
 30
0.0
 40
0.4564934525772464
 50
37.8867569951236192
 51
69.9005680581728512
  0
ARC
  5
BC15
  8
0
 10
963.129877018011598
 20
148.8970024476687968
 30
0.0
 40
1.2886855545093869
 50
70.2450213064954312
 51
87.6319279797471467
  0
ARC
  5
BC16
  8
0
 10
960.7367217654241358
 20
87.7831926575385637
 30
0.0
 40
62.4493311393433217
 50
87.7549094568147154
 51
89.8163499491997044
  0
ARC
  5
BC17
  8
0
 10
960.905661554807125
 20
155.7746493516796136
 30
0.0
 40
5.5425343318486231
 50
265.6175978791612238
 51
270.3228262802138033
  0
ARC
  5
BC18
  8
0
 10
960.5204396578172918
 20
151.0418067476416866
 30
0.0
 40
0.7944105737875516
 50
252.7716973874370012
 51
267.2366939671068167
  0
LINE
  5
BC19
  8
0
 10
960.2574207042868011
 20
150.3206718572411091
 30
0.0
 11
960.2574207042868011
 21
150.3859170990484984
 31
0.0
  0
ARC
  5
BC1A
  8
0
 10
960.2968207042868016
 20
150.3206718572411091
 30
0.0
 40
0.0394
 50
180.0000000000073044
 51
252.7716973874165092
  0
LINE
  5
BC1B
  8
0
 10
965.7542727312453508
 20
149.4348431836521058
 30
0.0
 11
965.7388415197765426
 21
150.3188966960877906
 31
0.0
  0
ARC
  5
BC1C
  8
0
 10
965.7191445201818851
 20
150.3185528836808089
 30
0.0
 40
0.0197
 50
1.0000000005897669
 51
89.5000028995373356
  0
LINE
  5
BC1E
  8
0
 10
965.7826498809560007
 20
149.0107269759220117
 30
0.0
 11
963.8915710009138138
 21
149.0107269759220117
 31
0.0
  0
ARC
  5
BC1F
  8
0
 10
962.5521216956850594
 20
147.2349111969676869
 30
0.0
 40
1.0498467866989361
 50
10.2185403997088304
 51
34.8532829842127825
  0
ARC
  5
BC20
  8
0
 10
962.8757488682798567
 20
147.460284571110094
 30
0.0
 40
0.6554767769186181
 50
34.8532829842127825
 51
69.7631628708950444
  0
ARC
  5
BC21
  8
0
 10
962.596269460989447
 20
146.7021861955259965
 30
0.0
 40
1.4634507159555239
 50
69.7631628708950444
 51
90.3177284615452862
  0
ARC
  5
BC22
  8
0
 10
960.1532828019974204
 20
89.8096995577614052
 30
0.0
 40
58.4066896538742029
 50
87.6107482121423544
 51
90.343755158780624
  0
ARC
  5
BC23
  8
0
 10
959.6866694808666125
 20
145.3998136635680112
 30
0.0
 40
2.8179209866234829
 50
87.6367749093748358
 51
96.568351937144854
  0
ARC
  5
BC24
  8
0
 10
959.4939618950252225
 20
146.9412168400768905
 30
0.0
 40
1.2646823414061259
 50
95.8831514094609076
 51
104.8226157385835933
  0
ENDSEC
  0
EOF
