  0
SECTION
  2
HEADER
  9
$ACADVER
  1
AC1009
  9
$INSBASE
 10
-94.3055013761188405
 20
-5.5258383018599311
 30
0.0
  9
$EXTMIN
 10
-96.5365034942830249
 20
-8.7998402877548756
 30
-0.0000000349181948
  9
$EXTMAX
 10
-92.0777251009919837
 20
-2.2640439916773971
 30
0.0000000814935746
  9
$LIMMIN
 10
0.0
 20
0.0
  9
$LIMMAX
 10
11.6929133858000007
 20
8.2677165353999982
  9
$ORTHOMODE
 70
     0
  9
$REGENMODE
 70
     1
  9
$FILLMODE
 70
     1
  9
$QTEXTMODE
 70
     0
  9
$MIRRTEXT
 70
     0
  9
$DRAGMODE
 70
     2
  9
$LTSCALE
 40
0.6431102362
  9
$OSMODE
 70
  2039
  9
$ATTMODE
 70
     1
  9
$TEXTSIZE
 40
0.2
  9
$TRACEWID
 40
0.05
  9
$TEXTSTYLE
  7
STANDARD
  9
$CLAYER
  8
0
  9
$CELTYPE
  6
BYLAYER
  9
$CECOLOR
 62
   256
  9
$DIMSCALE
 40
1.0
  9
$DIMASZ
 40
0.1875
  9
$DIMEXO
 40
0.0625
  9
$DIMDLI
 40
0.4443307087
  9
$DIMRND
 40
0.0
  9
$DIMDLE
 40
0.0
  9
$DIMEXE
 40
0.125
  9
$DIMTP
 40
0.01
  9
$DIMTM
 40
0.01
  9
$DIMTXT
 40
1.0
  9
$DIMCEN
 40
0.1052362205
  9
$DIMTSZ
 40
0.0
  9
$DIMTOL
 70
     1
  9
$DIMLIM
 70
     0
  9
$DIMTIH
 70
     1
  9
$DIMTOH
 70
     1
  9
$DIMSE1
 70
     0
  9
$DIMSE2
 70
     0
  9
$DIMTAD
 70
     0
  9
$DIMZIN
 70
     0
  9
$DIMBLK
  1

  9
$DIMASO
 70
     1
  9
$DIMSHO
 70
     1
  9
$DIMPOST
  1
\X
  9
$DIMAPOST
  1

  9
$DIMALT
 70
     1
  9
$DIMALTD
 70
     2
  9
$DIMALTF
 40
25.3999999999999986
  9
$DIMLFAC
 40
1.0
  9
$DIMTOFL
 70
     0
  9
$DIMTVP
 40
0.0
  9
$DIMTIX
 70
     0
  9
$DIMSOXD
 70
     0
  9
$DIMSAH
 70
     0
  9
$DIMBLK1
  1

  9
$DIMBLK2
  1

  9
$DIMSTYLE
  2
STANDARD
  9
$DIMCLRD
 70
     0
  9
$DIMCLRE
 70
     0
  9
$DIMCLRT
 70
     0
  9
$DIMTFAC
 40
1.0
  9
$DIMGAP
 40
0.09
  9
$LUNITS
 70
     2
  9
$LUPREC
 70
     4
  9
$SKETCHINC
 40
0.1
  9
$FILLETRAD
 40
0.0
  9
$AUNITS
 70
     0
  9
$AUPREC
 70
     0
  9
$MENU
  1
.
  9
$ELEVATION
 40
0.0
  9
$PELEVATION
 40
0.0
  9
$THICKNESS
 40
0.0
  9
$LIMCHECK
 70
     0
  9
$BLIPMODE
 70
     0
  9
$CHAMFERA
 40
0.0
  9
$CHAMFERB
 40
0.0
  9
$SKPOLY
 70
     0
  9
$TDCREATE
 40
2458172.4620254631154239
  9
$TDUPDATE
 40
2459131.8327893521636724
  9
$TDINDWG
 40
0.1518693634
  9
$TDUSRTIMER
 40
0.1518693634
  9
$USRTIMER
 70
     1
  9
$ANGBASE
 50
0.0
  9
$ANGDIR
 70
     0
  9
$PDMODE
 70
     0
  9
$PDSIZE
 40
0.3125
  9
$PLINEWID
 40
0.0
  9
$COORDS
 70
     1
  9
$SPLFRAME
 70
     0
  9
$SPLINETYPE
 70
     6
  9
$SPLINESEGS
 70
     8
  9
$ATTDIA
 70
     1
  9
$ATTREQ
 70
     1
  9
$HANDLING
 70
     1
  9
$HANDSEED
  5
1522A
  9
$SURFTAB1
 70
     6
  9
$SURFTAB2
 70
     6
  9
$SURFTYPE
 70
     6
  9
$SURFU
 70
     6
  9
$SURFV
 70
     6
  9
$UCSNAME
  2

  9
$UCSORG
 10
0.0
 20
0.0
 30
0.0
  9
$UCSXDIR
 10
1.0
 20
0.0
 30
0.0
  9
$UCSYDIR
 10
0.0
 20
1.0
 30
0.0
  9
$PUCSNAME
  2

  9
$PUCSORG
 10
0.0
 20
0.0
 30
0.0
  9
$PUCSXDIR
 10
1.0
 20
0.0
 30
0.0
  9
$PUCSYDIR
 10
0.0
 20
1.0
 30
0.0
  9
$USERI1
 70
     0
  9
$USERI2
 70
     0
  9
$USERI3
 70
     0
  9
$USERI4
 70
     0
  9
$USERI5
 70
     0
  9
$USERR1
 40
0.0
  9
$USERR2
 40
0.0
  9
$USERR3
 40
0.0
  9
$USERR4
 40
0.0
  9
$USERR5
 40
0.0
  9
$WORLDVIEW
 70
     1
  9
$SHADEDGE
 70
     3
  9
$SHADEDIF
 70
    70
  9
$TILEMODE
 70
     1
  9
$MAXACTVP
 70
    64
  9
$PLIMCHECK
 70
     0
  9
$PEXTMIN
 10
1.0000000000000000E+20
 20
1.0000000000000000E+20
 30
1.0000000000000000E+20
  9
$PEXTMAX
 10
-1.0000000000000000E+20
 20
-1.0000000000000000E+20
 30
-1.0000000000000000E+20
  9
$PLIMMIN
 10
0.0
 20
0.0
  9
$PLIMMAX
 10
12.0
 20
9.0
  9
$UNITMODE
 70
     0
  9
$VISRETAIN
 70
     1
  9
$PLINEGEN
 70
     0
  9
$PSLTSCALE
 70
     1
  0
ENDSEC
  0
SECTION
  2
TABLES
  0
TABLE
  2
VPORT
 70
     1
  0
VPORT
  2
*ACTIVE
 70
     0
 10
0.0
 20
0.0
 11
1.0
 21
1.0
 12
-218.9182728977100965
 22
-10.8442163100939606
 13
0.0
 23
0.0
 14
1.0
 24
1.0
 15
0.0
 25
0.0
 16
0.0
 26
0.0
 36
30.6214257250603907
 17
124.6111586000725993
 27
5.3122741703778242
 37
0.0
 40
6.5901857243388724
 41
2.6486111111111108
 42
50.0
 43
0.0
 44
0.0
 50
0.0
 51
0.0
 71
     0
 72
   100
 73
     1
 74
     1
 75
     0
 76
     0
 77
     0
 78
     0
  0
ENDTAB
  0
TABLE
  2
LTYPE
 70
     2
  0
LTYPE
  2
CONTINUOUS
 70
     0
  3
Solid line
 72
    65
 73
     0
 40
0.0
  0
LTYPE
  2
PHANTOM2
 70
     0
  3
___ _ _ ___ _ _ ___ _ _ ___ _ _
 72
    65
 73
     6
 40
1.25
 49
0.625
 49
-0.125
 49
0.125
 49
-0.125
 49
0.125
 49
-0.125
  0
ENDTAB
  0
TABLE
  2
LAYER
 70
     2
  0
LAYER
  2
0
 70
     0
 62
   255
  6
CONTINUOUS
  0
LAYER
  2
DEFPOINTS
 70
     0
 62
     7
  6
CONTINUOUS
  0
ENDTAB
  0
TABLE
  2
STYLE
 70
     1
  0
STYLE
  2
STANDARD
 70
     0
 40
0.0
 41
0.8
 50
0.0
 71
     0
 42
0.2
  3
txt
  4

  0
ENDTAB
  0
TABLE
  2
VIEW
 70
     0
  0
ENDTAB
  0
TABLE
  2
UCS
 70
     0
  0
ENDTAB
  0
TABLE
  2
APPID
 70
     9
  0
APPID
  2
ACAD
 70
     0
  0
APPID
  2
ACAD_MLEADERVER
 70
     0
  0
APPID
  2
ACAD_EXEMPT_FROM_CAD_STANDARDS
 70
     0
  0
APPID
  2
ACAD_DSTYLE_DIMJAG
 70
     0
  0
APPID
  2
ACAD_DSTYLE_DIMTALN
 70
     0
  0
APPID
  2
ACAD_NAV_VCDISPLAY
 70
     0
  0
APPID
  2
ACAECLAYERSTANDARD
 70
     0
  0
APPID
  2
ACCMTRANSPARENCY
 70
     0
  0
APPID
  2
ACDBATTR
 70
     0
  0
ENDTAB
  0
TABLE
  2
DIMSTYLE
 70
     1
  0
DIMSTYLE
  2
STANDARD
 70
     0
  3

  4

  5

  6

  7

 40
1.0
 41
0.1875
 42
0.0625
 43
0.38
 44
0.125
 45
0.0
 46
0.0
 47
0.01
 48
0.01
140
0.15625
141
0.09
142
0.0
143
25.3999999999999986
144
1.0
145
0.0
146
1.0
147
0.09
 71
     1
 72
     0
 73
     1
 74
     1
 75
     0
 76
     0
 77
     0
 78
     4
170
     0
171
     2
172
     0
173
     0
174
     0
175
     0
176
     0
177
     0
178
     0
  0
ENDTAB
  0
ENDSEC
  0
SECTION
  2
BLOCKS
  0
BLOCK
  8
0
  2
$MODEL_SPACE
 70
     0
 10
0.0
 20
0.0
 30
0.0
  3
$MODEL_SPACE
  1

  0
ENDBLK
  5
21
  8
0
  0
BLOCK
 67
     1
  8
0
  2
$PAPER_SPACE
 70
     0
 10
0.0
 20
0.0
 30
0.0
  3
$PAPER_SPACE
  1

  0
ENDBLK
  5
1D
 67
     1
  8
0
  0
BLOCK
  8
0
  2
_FILLED
 70
     0
 10
0.0
 20
0.0
 30
0.0
  3
_FILLED
  1

  0
SOLID
  5
69C2
  8
0
  6
BYBLOCK
 62
     0
 10
0.0
 20
0.0
 30
0.0
 11
-1.0
 21
0.1666666667
 31
0.0
 12
-1.0
 22
-0.1666666667
 32
0.0
 13
-1.0
 23
-0.1666666667
 33
0.0
  0
ENDBLK
  5
69C3
  8
0
  6
BYBLOCK
 62
     0
  0
ENDSEC
  0
SECTION
  2
ENTITIES
  0
ATTDEF
  5
14953
  8
DEFPOINTS
 10
-94.3044368259079278
 20
-5.5273687968515057
 30
0.0
 40
0.001
  1
K-72328IN-4FP
  3

  2
MODELNUMBER
 70
     0
1001
ACDBATTR
1070
     0
1070
     1
  0
ATTDEF
  5
14954
  8
DEFPOINTS
 10
-94.3044368259079278
 20
-5.5290354635181709
 30
0.0
 40
0.001
  1
ALEO
  3

  2
TRADENAME
 70
     0
1001
ACDBATTR
1070
     0
1070
     1
  0
ATTDEF
  5
14955
  8
DEFPOINTS
 10
-94.3044368259079278
 20
-5.530702130184836
 30
0.0
 40
0.001
  1
VALVE TRIM
  3

  2
PRODUCT
 70
     0
1001
ACDBATTR
1070
     0
1070
     1
  0
LINE
  5
14E46
  8
0
 10
-92.7863872639624674
 20
-2.2641276313584342
 30
0.0
 11
-95.8232766681624639
 21
-2.2641276313584329
 31
0.0
  0
ARC
  5
14E47
  8
0
 10
-95.8232766681624639
 20
-2.9700923780584332
 30
0.0
 40
0.7059647467000004
 50
90.0
 51
180.0000000000001137
  0
LINE
  5
14E48
  8
0
 10
-96.5292414148624687
 20
-2.970092378058435
 30
0.0
 11
-96.5292414148624687
 21
-8.0935959555584347
 31
0.0
  0
ARC
  5
14E49
  8
0
 10
-95.8232766681624639
 20
-8.0935959555584347
 30
0.0
 40
0.7059647467000018
 50
180.0
 51
269.9999999999992042
  0
LINE
  5
14E4A
  8
0
 10
-95.8232766681624639
 20
-8.7995607022584341
 30
0.0
 11
-94.863052326862686
 21
-8.7995607022584466
 31
0.0
  0
ARC
  5
14E4B
  8
0
 10
-94.863052326862686
 20
-8.3957564212593425
 30
0.0
 40
0.4038042809991051
 50
269.9999999999992042
 51
273.4045663952692848
  0
ARC
  5
14E4C
  8
0
 10
-94.8464037337186454
 20
-8.67560738132061
 30
0.0
 40
0.1234585382083721
 50
273.4045663952692848
 51
278.5266972370566236
  0
ARC
  5
14E4D
  8
0
 10
-94.8313851550999374
 20
-8.7757797244468367
 30
0.0
 40
0.022166603528828
 50
278.5266972370574763
 51
285.3889857604656868
  0
ARC
  5
14E4E
  8
0
 10
-94.8278577851801145
 20
-8.7885953823563874
 30
0.0
 40
0.0088743717295448
 50
285.3889857604673921
 51
293.4367984331969978
  0
ARC
  5
14E4F
  8
0
 10
-94.8250944295483436
 20
-8.7949698848832831
 30
0.0
 40
0.0019266802558908
 50
293.4367984332013748
 51
321.1706679504191015
  0
LINE
  5
14E50
  8
0
 10
-94.8235935127237326
 20
-8.7961779186138003
 30
0.0
 11
-94.8197872229820149
 21
-8.7923716287779765
 31
0.0
  0
ARC
  5
14E51
  8
0
 10
-94.8189314425039669
 20
-8.7932274092348628
 30
0.0
 40
0.0012102563435037
 50
117.0354251386080051
 51
135.0000007082813056
  0
ARC
  5
14E52
  8
0
 10
-94.8153781031506071
 20
-8.8001905839136771
 30
0.0
 40
0.0090276742143794
 50
114.251896187587306
 51
117.0354251386071951
  0
ARC
  5
14E53
  8
0
 10
-94.8142885913877365
 20
-8.8048137316136668
 30
0.0
 40
0.0137202568864545
 50
100.7287846655213031
 51
110.4673904175098045
  0
ARC
  5
14E54
  8
0
 10
-94.8030769512550791
 20
-8.8650557573404001
 30
0.0
 40
0.074996641343442
 50
94.8117502362377991
 51
100.5767404107920981
  0
ARC
  5
14E55
  8
0
 10
-94.7812989636431809
 20
-9.1429549780556201
 30
0.0
 40
0.3537469029960877
 50
89.4011715129339848
 51
94.5510510499604635
  0
ARC
  5
14E56
  8
0
 10
-94.6583159798931177
 20
57753.0806268991000252
 30
0.0
 40
57761.8698544178332668
 50
269.999881676682719
 51
270.000118323317281
  0
ARC
  5
14E57
  8
0
 10
-94.5378368656308652
 20
-9.2190581121443511
 30
0.0
 40
0.4298323728912499
 50
87.7162579179973818
 51
90.1590591913242321
  0
ARC
  5
14E58
  8
0
 10
-94.5305028380801247
 20
-9.0351554407003363
 30
0.0
 40
0.2457835192562404
 50
85.2653938159422893
 51
87.7162579179973818
  0
ARC
  5
14E59
  8
0
 10
-94.5186004364735908
 20
-8.8914466703939325
 30
0.0
 40
0.1015826946158038
 50
80.6215965759669615
 51
85.2653938159422893
  0
ARC
  5
14E5A
  8
0
 10
-94.5046614495091148
 20
-8.8070506639327082
 30
0.0
 40
0.0160433395551167
 50
71.0401869740104956
 51
80.6215965759694484
  0
ARC
  5
14E5B
  8
0
 10
-94.5004675119032242
 20
-8.7948427756493714
 30
0.0
 40
0.0031351387129951
 50
52.0185228834211628
 51
71.0401869740062466
  0
LINE
  5
14E5C
  8
0
 10
-94.4985381265624653
 20
-8.7923716287584348
 30
0.0
 11
-94.4928072255269598
 21
-8.7981025296946953
 31
0.0
  0
ARC
  5
14E5D
  8
0
 10
-94.4920307337388721
 20
-8.7973693054694095
 30
0.0
 40
0.0010679687549294
 50
223.3583863993790999
 51
261.8567598201436795
  0
ARC
  5
14E5E
  8
0
 10
-94.4896031470981086
 20
-8.7897713098745918
 30
0.0
 40
0.0090312209284367
 50
253.4082889388737101
 51
259.7153891277490061
  0
ARC
  5
14E5F
  8
0
 10
-94.4831796038430127
 20
-8.7497867431013052
 30
0.0
 40
0.0495269656190212
 50
260.6622368348949976
 51
266.7037679855287138
  0
ARC
  5
14E60
  8
0
 10
-94.4715169608400913
 20
-8.5123616407485834
 30
0.0
 40
0.2872368751419186
 50
267.1043530854086043
 51
270.9297078440441169
  0
LINE
  5
14E61
  8
0
 10
-94.4668563268537582
 20
-8.7995607022584341
 30
0.0
 11
-94.1378357834876596
 21
-8.7995607022584341
 31
0.0
  0
ARC
  5
14E62
  8
0
 10
-94.1354648050575804
 20
-8.5736012473166792
 30
0.0
 40
0.2259718938635768
 50
269.3988210315937977
 51
272.019817256779902
  0
ARC
  5
14E63
  8
0
 10
-94.1314505386034028
 20
-8.6874260204994371
 30
0.0
 40
0.1120763569656294
 50
272.019817256779902
 51
275.0325782385842786
  0
ARC
  5
14E64
  8
0
 10
-94.124696432165635
 20
-8.7641235053352666
 30
0.0
 40
0.0350820576057753
 50
275.0325782385850744
 51
281.1574298010251027
  0
ARC
  5
14E65
  8
0
 10
-94.118476907290713
 20
-8.7956573491090957
 30
0.0
 40
0.0029407167373222
 50
281.1574298010226016
 51
327.1671894956168103
  0
LINE
  5
14E66
  8
0
 10
-94.116005951655751
 20
-8.7972517747672043
 30
0.0
 11
-94.1112354295276674
 21
-8.7924812527217391
 31
0.0
  0
ARC
  5
14E67
  8
0
 10
-94.1079681055643249
 20
-8.7956962897206754
 30
0.0
 40
0.0045838705027639
 50
132.3427620012558918
 51
135.4621398646077921
  0
ARC
  5
14E68
  8
0
 10
-94.1103561260518688
 20
-8.7930758210883475
 30
0.0
 40
0.0010385217608096
 50
114.5466012704490026
 51
132.3427620012462
  0
ARC
  5
14E69
  8
0
 10
-94.1062657311259159
 20
-8.8020320622468038
 30
0.0
 40
0.0108846167399701
 50
109.021666599000298
 51
114.5466012704453931
  0
ARC
  5
14E6A
  8
0
 10
-94.1021824524955548
 20
-8.8189209833389786
 30
0.0
 40
0.0282300935870865
 50
97.8769478457235635
 51
105.6826684663373044
  0
ARC
  5
14E6B
  8
0
 10
-94.0814990838705683
 20
-8.9846080409940186
 30
0.0
 40
0.1952010221344082
 50
91.4151524708201748
 51
97.2257446045441043
  0
LINE
  5
14E6C
  8
0
 10
-94.0863198774025875
 20
-8.7894665564448857
 30
0.0
 11
-94.0719055418624777
 21
-8.7892273955584344
 31
0.0
  0
LINE
  5
14E6D
  8
0
 10
-94.0719055418624777
 20
-8.789227395591082
 30
0.0
 11
-93.8290969729624749
 21
-8.789227395591082
 31
0.0
  0
ARC
  5
14E6E
  8
0
 10
-93.8286693328236794
 20
-9.1909160068369893
 30
0.0
 40
0.4016888388799897
 50
87.241961909918615
 51
90.0609974123245252
  0
ARC
  5
14E6F
  8
0
 10
-93.819156915001912
 20
-8.9934566734967838
 30
0.0
 40
0.2040005124265183
 50
84.1682238860753955
 51
87.241961909918615
  0
ARC
  5
14E70
  8
0
 10
-93.8047702441890578
 20
-8.8525995847646541
 30
0.0
 40
0.0624106266889825
 50
78.4581238919041937
 51
84.1682238860753955
  0
ARC
  5
14E71
  8
0
 10
-93.7942473887289339
 20
-8.8010708988117496
 30
0.0
 40
0.0098184603229922
 50
66.9285602411357132
 51
78.4581238919041937
  0
ARC
  5
14E72
  8
0
 10
-93.7911813631308036
 20
-8.793872761987771
 30
0.0
 40
0.0019945427170217
 50
39.1038644585646367
 51
66.9285602411338516
  0
LINE
  5
14E73
  8
0
 10
-93.7896335902679539
 20
-8.7926147477529462
 30
0.0
 11
-93.7859086542629541
 21
-8.7963396837579673
 31
0.0
  0
ARC
  5
14E74
  8
0
 10
-93.7845889567117155
 20
-8.7950735651383205
 30
0.0
 40
0.0018288406124433
 50
223.812983122880496
 51
249.6037394491874011
  0
ARC
  5
14E75
  8
0
 10
-93.779571279718283
 20
-8.7815787425541671
 30
0.0
 40
0.0162263167450252
 50
249.6037394491881969
 51
255.4340024165329908
  0
ARC
  5
14E76
  8
0
 10
-93.7793051539836569
 20
-8.7805545788321666
 30
0.0
 40
0.0172844917003549
 50
255.434002416532195
 51
261.3203553124974974
  0
ARC
  5
14E77
  8
0
 10
-93.7505568319087672
 20
-8.5922360236836255
 30
0.0
 40
0.2077847390370849
 50
261.3203553124974974
 51
262.3267319878106036
  0
ARC
  5
14E78
  8
0
 10
-93.7705225028709322
 20
-8.7404259943055518
 30
0.0
 40
0.0582558274183071
 50
262.3267319878113994
 51
265.9999743356268027
  0
ARC
  5
14E79
  8
0
 10
-93.6922564220507326
 20
-7.6211760978738283
 30
0.0
 40
1.180238853167527
 50
265.9999743356268027
 51
266.4363141867179934
  0
ARC
  5
14E7A
  8
0
 10
-93.7507256743410693
 20
-8.560013150567034
 30
0.0
 40
0.239582877279926
 50
266.4363141867179934
 51
270.9839199840569108
  0
LINE
  5
14E7B
  8
0
 10
-93.7466116052624727
 20
-8.7995607022584341
 30
0.0
 11
-92.786528845407517
 21
-8.7995607022584341
 31
0.0
  0
ARC
  5
14E7C
  8
0
 10
-92.7857959811562552
 20
-8.0941872383646345
 30
0.0
 40
0.7053737117166305
 50
269.951971539768806
 51
0.0480284602312906
  0
LINE
  5
14E7D
  8
0
 10
-92.0804225172624768
 20
-8.0935959555584347
 30
0.0
 11
-92.0804225172109341
 21
-2.9700838426703262
 31
0.0
  0
ARC
  5
14E7E
  8
0
 10
-92.7852857500796802
 20
-2.9689908509608069
 30
0.0
 40
0.7048640802885731
 50
359.9111547334501893
 51
90.0895380031587649
  0
ARC
  5
14E80
  8
0
 10
-94.3029289624455345
 20
-6.8335464314549377
 30
0.0
 40
1.482403548247438
 50
269.2800258651354284
 51
269.9259714385398183
  0
ARC
  5
14E81
  8
0
 10
-94.2935814048668135
 20
-6.0897038651170234
 30
0.0
 40
2.2263048456847141
 50
267.854131920196096
 51
269.2800258651354284
  0
ARC
  5
14E82
  8
0
 10
-94.3274604626272435
 20
-6.993869111361275
 30
0.0
 40
1.3215050981876979
 50
264.1380948597977749
 51
267.8541319201953002
  0
ARC
  5
14E83
  8
0
 10
-94.425267687489594
 20
-7.9465243990901211
 30
0.0
 40
0.363842135307226
 50
249.8812070930752043
 51
264.1380948597977749
  0
ARC
  5
14E84
  8
0
 10
-94.4663824681999245
 20
-8.1029192447520462
 30
0.0
 40
0.2034159680953486
 50
217.205538900025914
 51
245.5990340100470917
  0
ARC
  5
14E85
  8
0
 10
-94.437132835634614
 20
-8.0817225622070321
 30
0.0
 40
0.2395309428192997
 50
192.2163584427603098
 51
217.0132214944574116
  0
ARC
  5
14E86
  8
0
 10
-93.8636560020358246
 20
-7.9575002068770839
 30
0.0
 40
0.8263076219843586
 50
183.9523155073881071
 51
192.2204841140502083
  0
ARC
  5
14E87
  8
0
 10
-85.6419184343101563
 20
-7.3588154579640754
 30
0.0
 40
9.0698085126326902
 50
182.3503780723515035
 51
184.1454174293737935
  0
ARC
  5
14E88
  8
0
 10
225.040891455988401
 20
6.685845869449885
 30
0.0
 40
320.0698303733421994
 50
182.1590651208422003
 51
182.5815956302785139
  0
ARC
  5
14E89
  8
0
 10
-79.2491940902044121
 20
-4.2389671022883633
 30
0.0
 40
15.5937714450771505
 50
179.1742604281351987
 51
184.1683128042446924
  0
ARC
  5
14E8A
  8
0
 10
-93.6755291241713905
 20
-4.0243154484517119
 30
0.0
 40
1.165860551734945
 50
170.1704188312610029
 51
179.5048106095607068
  0
ARC
  5
14E8B
  8
0
 10
-94.5555639586006151
 20
-3.866662024714004
 30
0.0
 40
0.2718782699476478
 50
138.8510475202076861
 51
171.2454829068236961
  0
ARC
  5
14E8C
  8
0
 10
-94.563800626181532
 20
-3.8804782820161701
 30
0.0
 40
0.2752226576059511
 50
109.6705506338640959
 51
135.5550887434536946
  0
ARC
  5
14E8D
  8
0
 10
-94.3988479277327883
 20
-4.3379147174209827
 30
0.0
 40
0.7614909251628424
 50
96.4068029122315551
 51
109.7720056248781049
  0
ARC
  5
14E8E
  8
0
 10
-94.3062566411956738
 20
-5.0417591784454787
 30
0.0
 40
1.4713333162908091
 50
89.9450010491553371
 51
96.9314749416933381
  0
ARC
  5
14E8F
  8
0
 10
-94.3058666505575189
 20
-7.0480929064430766
 30
0.0
 40
0.5309256884059981
 50
146.1339242013224009
 51
180.0257218325066049
  0
ARC
  5
14E90
  8
0
 10
-94.3046634451945067
 20
-7.0480923662872552
 30
0.0
 40
0.5321288938902609
 50
180.0257218325066049
 51
218.748956990985107
  0
ARC
  5
14E91
  8
0
 10
-94.3050797103397542
 20
-7.0477051802819979
 30
0.0
 40
0.51161192885111
 50
149.3582798868112036
 51
215.5667232521315952
  0
ARC
  5
14E92
  8
0
 10
-94.2903309816859547
 20
-7.0470158791618438
 30
0.0
 40
0.485672606104893
 50
158.3778312038006959
 51
206.5471522247055987
  0
ARC
  5
14E93
  8
0
 10
-94.3067596170793934
 20
-6.8335464314549377
 30
0.0
 40
1.482403548247438
 50
270.0740285614593859
 51
270.7199741348645716
  0
ARC
  5
14E94
  8
0
 10
-94.3161071746581285
 20
-6.0897038651170234
 30
0.0
 40
2.2263048456847141
 50
270.7199741348645716
 51
272.1458680798037904
  0
ARC
  5
14E95
  8
0
 10
-94.2822281168976843
 20
-6.993869111361275
 30
0.0
 40
1.3215050981876979
 50
272.1458680798037904
 51
275.8619051402022251
  0
ARC
  5
14E96
  8
0
 10
-94.1844208920353338
 20
-7.9465243990901211
 30
0.0
 40
0.363842135307226
 50
275.8619051402022251
 51
290.1187929069247957
  0
ARC
  5
14E97
  8
0
 10
-94.1433061113250034
 20
-8.1029192447520462
 30
0.0
 40
0.2034159680953486
 50
294.4009659899529083
 51
322.7944610999740007
  0
ARC
  5
14E98
  8
0
 10
-94.172555743890328
 20
-8.0817225622070321
 30
0.0
 40
0.2395309428192997
 50
322.9867785055425884
 51
347.7836415572397186
  0
ARC
  5
14E99
  8
0
 10
-94.7460325774891174
 20
-7.9575002068770839
 30
0.0
 40
0.8263076219843586
 50
347.7795158859497064
 51
356.0476844926118929
  0
ARC
  5
14E9A
  8
0
 10
-102.9677701452148
 20
-7.3588154579640754
 30
0.0
 40
9.0698085126326902
 50
355.854582570626178
 51
357.6496219276484112
  0
ARC
  5
14E9B
  8
0
 10
-413.650580035513201
 20
6.685845869449885
 30
0.0
 40
320.0698303733421994
 50
357.4184043697214861
 51
357.8409348791577145
  0
ARC
  5
14E9C
  8
0
 10
-109.3604944893205015
 20
-4.2389671022883633
 30
0.0
 40
15.5937714450771505
 50
355.8316871957551939
 51
0.825739571864806
  0
ARC
  5
14E9D
  8
0
 10
-94.9341594553535515
 20
-4.0243154484517119
 30
0.0
 40
1.165860551734945
 50
0.4951893904392902
 51
9.8295811687389953
  0
ARC
  5
14E9E
  8
0
 10
-94.0541246209243269
 20
-3.866662024714004
 30
0.0
 40
0.2718782699476478
 50
8.7545170931762541
 51
41.1489524797923067
  0
ARC
  5
14E9F
  8
0
 10
-94.04588795334341
 20
-3.8804782820161701
 30
0.0
 40
0.2752226576059511
 50
44.4449112565462983
 51
70.3294493661359326
  0
ARC
  5
14EA0
  8
0
 10
-94.2108406517921537
 20
-4.3379147174209827
 30
0.0
 40
0.7614909251628424
 50
70.2279943751218667
 51
83.5931970877684591
  0
ARC
  5
14EA1
  8
0
 10
-94.3009127006299934
 20
-4.9998282862814127
 30
0.0
 40
1.4294071531943211
 50
82.9659315781932776
 51
90.1575924309576635
  0
ARC
  5
14EA2
  8
0
 10
-94.3054416738321919
 20
-4.4917068508073061
 30
0.0
 40
1.0179645236334101
 50
70.7357377633083644
 51
89.9663764432707751
  0
ARC
  5
14EA3
  8
0
 10
-94.3036081731148101
 20
-4.4864607069522497
 30
0.0
 40
1.0124072086136731
 50
47.66339080143063
 51
70.7357377633083644
  0
ARC
  5
14EA4
  8
0
 10
-94.306799663052999
 20
-4.4899636096602844
 30
0.0
 40
1.017145978011684
 50
26.5962042848007911
 51
47.6633908014312482
  0
ARC
  5
14EA5
  8
0
 10
-94.3033497589749459
 20
-4.4882363122375439
 30
0.0
 40
1.0132878185366989
 50
0.0071655518213654
 51
26.5962042848007911
  0
ARC
  5
14EA6
  8
0
 10
-94.3039570741671866
 20
-4.4882363881898817
 30
0.0
 40
1.0138951337337121
 50
341.4015118841019785
 51
0.0071655518213145
  0
ARC
  5
14EA7
  8
0
 10
-94.3028697649848766
 20
-4.4886022762169624
 30
0.0
 40
1.0127479130459951
 50
321.5242217975302879
 51
341.4015118841019785
  0
ARC
  5
14EA8
  8
0
 10
-94.3049986343363145
 20
-4.4869103659925074
 30
0.0
 40
1.015467222686895
 50
299.3048885849512999
 51
321.5242217975302879
  0
ARC
  5
14EA9
  8
0
 10
-94.3048566060930966
 20
-4.4885370312666719
 30
0.0
 40
0.9940944387183961
 50
78.5948560821735924
 51
89.9992901340797431
  0
ARC
  5
14EAA
  8
0
 10
-94.3048566134624622
 20
-4.4885370802584097
 30
0.0
 40
0.9940944881999737
 50
50.8323543686087476
 51
78.5948562241911759
  0
ARC
  5
14EAB
  8
0
 10
-94.3048895205999003
 20
-4.4885774749460303
 30
0.0
 40
0.9941465901239537
 50
0.003856170622653
 51
50.8323543686087476
  0
ARC
  5
14EAC
  8
0
 10
-94.3047480126713253
 20
-4.4885774654221393
 30
0.0
 40
0.9940050821950631
 50
300.099633195756212
 51
0.003856170622653
  0
ARC
  5
14EAD
  8
0
 10
-94.3201754906879444
 20
-4.5792808356386523
 30
0.0
 40
1.0552159015429039
 50
77.2459461741334934
 51
89.1675220078375048
  0
ARC
  5
14EAE
  8
0
 10
-94.3045261607261835
 20
-4.4888996024045174
 30
0.0
 40
0.9636212373992465
 50
49.8521708644001365
 51
76.9670871464978603
  0
ARC
  5
14EAF
  8
0
 10
-94.3039471482382368
 20
-4.4882131667991541
 30
0.0
 40
0.962723212176029
 50
18.811619452193721
 51
49.8521708643995183
  0
ARC
  5
14EB0
  8
0
 10
-94.3201986857573331
 20
-4.4786564569763501
 30
0.0
 40
0.9817415281807571
 50
322.002808553292482
 51
347.0108652902279118
  0
ARC
  5
14EB1
  8
0
 10
-94.3050067624423178
 20
-4.4878850988374683
 30
0.0
 40
0.9640905516620732
 50
306.4834644035087194
 51
321.8791974369667059
  0
ARC
  5
14EB2
  8
0
 10
-94.3012406807213921
 20
-4.4929777393102004
 30
0.0
 40
0.9577566461912651
 50
301.3020307626571253
 51
306.4834644035087763
  0
ARC
  5
14EB3
  8
0
 10
-94.3038219289674089
 20
-7.0480929064430766
 30
0.0
 40
0.5309256884059981
 50
359.9742781674933099
 51
33.8660757986776702
  0
ARC
  5
14EB4
  8
0
 10
-94.3050251343304353
 20
-7.0480923662872552
 30
0.0
 40
0.5321288938902609
 50
321.2473111935508996
 51
359.9742781674934236
  0
ARC
  5
14EB5
  8
0
 10
-94.3046088691851878
 20
-7.0477051802819979
 30
0.0
 40
0.51161192885111
 50
324.4332767478683763
 51
30.6417201131887289
  0
ARC
  5
14EB6
  8
0
 10
-94.3193575978389873
 20
-7.0470158791618438
 30
0.0
 40
0.485672606104893
 50
333.4528477752938898
 51
21.6221687961992686
  0
ARC
  5
14EB7
  8
0
 10
-94.3048247052368822
 20
-4.48853790577735
 30
0.0
 40
0.9645596257578674
 50
347.3772043364638762
 51
355.4704325527312108
  0
ARC
  5
14EB8
  8
0
 10
-94.2981114180164042
 20
-4.4890697389273759
 30
0.0
 40
0.9578253053167403
 50
355.4704325527312108
 51
358.8736099683189877
  0
ARC
  5
14EB9
  8
0
 10
-94.3115128427211573
 20
-4.488806243495099
 30
0.0
 40
0.9712293201615411
 50
358.8736099683189877
 51
7.1368730702153478
  0
ARC
  5
14EBA
  8
0
 10
-94.2583016504513722
 20
-4.4821436606562051
 30
0.0
 40
0.9176026384363259
 50
7.1368730702153478
 51
19.3719367868646692
  0
ARC
  5
14EBB
  8
0
 10
-94.3042469056927501
 20
-4.4917068508073061
 30
0.0
 40
1.0179645236334101
 50
90.0336235567284149
 51
109.264262236691593
  0
ARC
  5
14EBC
  8
0
 10
-94.3060804064101319
 20
-4.4864607069522497
 30
0.0
 40
1.0124072086136731
 50
109.264262236691593
 51
132.336609198569306
  0
ARC
  5
14EBD
  8
0
 10
-94.302888916471943
 20
-4.4899636096602844
 30
0.0
 40
1.017145978011684
 50
132.3366091985687092
 51
153.4037957151992089
  0
ARC
  5
14EBE
  8
0
 10
-94.3063388205499962
 20
-4.4882363122375439
 30
0.0
 40
1.0132878185366989
 50
153.4037957151992089
 51
179.9928344481785984
  0
ARC
  5
14EBF
  8
0
 10
-94.3057315053577412
 20
-4.4882363881898817
 30
0.0
 40
1.0138951337337121
 50
179.9928344481785984
 51
198.5984881158979931
  0
ARC
  5
14EC0
  8
0
 10
-94.3068188145400654
 20
-4.4886022762169624
 30
0.0
 40
1.0127479130459951
 50
198.5984881158979931
 51
218.4757782024695985
  0
ARC
  5
14EC1
  8
0
 10
-94.3046899451886276
 20
-4.4869103659925074
 30
0.0
 40
1.015467222686895
 50
218.4757782024695985
 51
240.6951114150487001
  0
ARC
  5
14EC2
  8
0
 10
-94.3048319734318454
 20
-4.4885370312666719
 30
0.0
 40
0.9940944387183961
 50
90.0007098659202569
 51
101.4051439178263934
  0
ARC
  5
14EC3
  8
0
 10
-94.3048319660624799
 20
-4.4885370802584097
 30
0.0
 40
0.9940944881999737
 50
101.4051437758087957
 51
129.1676456313911956
  0
ARC
  5
14EC4
  8
0
 10
-94.3047990589250418
 20
-4.4885774749460303
 30
0.0
 40
0.9941465901239537
 50
129.1676456313911956
 51
179.9961438293773028
  0
ARC
  5
14EC5
  8
0
 10
-94.3049405668536167
 20
-4.4885774654221393
 30
0.0
 40
0.9940050821950631
 50
179.9961438293773028
 51
239.9003668042437027
  0
ARC
  5
14EC6
  8
0
 10
-94.2895130888369977
 20
-4.5792808356386523
 30
0.0
 40
1.0552159015429039
 50
90.8324779921624952
 51
102.7540538258665066
  0
ARC
  5
14EC7
  8
0
 10
-94.3051624187987443
 20
-4.4888996024045174
 30
0.0
 40
0.9636212373992465
 50
103.0329128535020971
 51
130.1478291355998067
  0
ARC
  5
14EC8
  8
0
 10
-94.3057414312867053
 20
-4.4882131667991541
 30
0.0
 40
0.962723212176029
 50
130.1478291355998067
 51
161.1883805478063039
  0
ARC
  5
14EC9
  8
0
 10
-94.2894898937676089
 20
-4.4786564569763501
 30
0.0
 40
0.9817415281807571
 50
192.9891347097720882
 51
217.9971914467074043
  0
ARC
  5
14ECA
  8
0
 10
-94.3046818170826242
 20
-4.4878850988374683
 30
0.0
 40
0.9640905516620732
 50
218.1208025630332088
 51
238.6650547115779091
  0
ARC
  5
14ECB
  8
0
 10
-94.3048638742880456
 20
-4.48853790577735
 30
0.0
 40
0.9645596257578674
 50
184.529567447268704
 51
192.6227956635360101
  0
ARC
  5
14ECC
  8
0
 10
-94.3115771615085237
 20
-4.4890697389273759
 30
0.0
 40
0.9578253053167403
 50
181.1263900316808986
 51
184.529567447268704
  0
ARC
  5
14ECD
  8
0
 10
-94.2981757368037847
 20
-4.488806243495099
 30
0.0
 40
0.9712293201615411
 50
172.8631269297846131
 51
181.1263900316808986
  0
ARC
  5
14ECE
  8
0
 10
-94.3513869290735556
 20
-4.4821436606562051
 30
0.0
 40
0.9176026384363259
 50
160.6280632131353059
 51
172.8631269297846131
  0
ARC
  5
14ED0
  8
0
 10
-94.3048319660624657
 20
-4.4885370802584372
 30
0.0
 40
0.9842519684999976
 50
182.1197557055241987
 51
239.5063851524215011
  0
ARC
  5
14ED1
  8
0
 10
-94.3048319660624657
 20
-4.4885370802584363
 30
0.0
 40
0.9842519685000013
 50
90.0007173935337477
 51
182.1197557055241987
  0
ARC
  5
14ED2
  8
0
 10
-94.3048319660624657
 20
-4.4885370802584319
 30
0.0
 40
0.9842519684999976
 50
359.9999999999997726
 51
90.0007173935337477
  0
ARC
  5
14ED3
  8
0
 10
-94.3048319660624799
 20
-4.4885370802584328
 30
0.0
 40
0.9842519685000032
 50
300.4918775755202205
 51
359.9999999999997726
  0
ARC
  5
14ED4
  8
0
 10
-94.3046299297490265
 20
-7.0476027902853682
 30
0.0
 40
0.5017662911454361
 50
326.2086791087247093
 51
28.8663541009172384
  0
ARC
  5
14ED5
  8
0
 10
-94.3048695922227154
 20
-7.0475932202257443
 30
0.0
 40
0.5019308777407984
 50
151.1443390286108865
 51
213.7806272460983052
  0
ENDSEC
  0
EOF
