  0
SECTION
  2
HEADER
  9
$ACADVER
  1
AC1009
  9
$INSBASE
 10
130.0092969295675971
 20
-1.325557422005704
 30
0.0
  9
$EXTMIN
 10
129.0101838564723096
 20
-1.331925435344139
 30
-0.0000000000112498
  9
$EXTMAX
 10
131.0091638947249919
 20
4.3168614236118499
 30
0.0000000000002956
  9
$LIMMIN
 10
0.0
 20
0.0
  9
$LIMMAX
 10
11.6929133858000007
 20
8.2677165353999982
  9
$ORTHOMODE
 70
     0
  9
$REGENMODE
 70
     1
  9
$FILLMODE
 70
     1
  9
$QTEXTMODE
 70
     0
  9
$MIRRTEXT
 70
     0
  9
$DRAGMODE
 70
     2
  9
$LTSCALE
 40
0.6431102362
  9
$OSMODE
 70
  4095
  9
$ATTMODE
 70
     1
  9
$TEXTSIZE
 40
0.2
  9
$TRACEWID
 40
0.05
  9
$TEXTSTYLE
  7
STANDARD
  9
$CLAYER
  8
0
  9
$CELTYPE
  6
BYLAYER
  9
$CECOLOR
 62
   256
  9
$DIMSCALE
 40
1.0
  9
$DIMASZ
 40
0.1875
  9
$DIMEXO
 40
0.0625
  9
$DIMDLI
 40
0.4443307087
  9
$DIMRND
 40
0.0
  9
$DIMDLE
 40
0.0
  9
$DIMEXE
 40
0.125
  9
$DIMTP
 40
0.01
  9
$DIMTM
 40
0.01
  9
$DIMTXT
 40
1.0
  9
$DIMCEN
 40
0.1052362205
  9
$DIMTSZ
 40
0.0
  9
$DIMTOL
 70
     1
  9
$DIMLIM
 70
     0
  9
$DIMTIH
 70
     1
  9
$DIMTOH
 70
     1
  9
$DIMSE1
 70
     0
  9
$DIMSE2
 70
     0
  9
$DIMTAD
 70
     0
  9
$DIMZIN
 70
     0
  9
$DIMBLK
  1

  9
$DIMASO
 70
     1
  9
$DIMSHO
 70
     1
  9
$DIMPOST
  1
\X
  9
$DIMAPOST
  1

  9
$DIMALT
 70
     1
  9
$DIMALTD
 70
     2
  9
$DIMALTF
 40
25.3999999999999986
  9
$DIMLFAC
 40
1.0
  9
$DIMTOFL
 70
     0
  9
$DIMTVP
 40
0.0
  9
$DIMTIX
 70
     0
  9
$DIMSOXD
 70
     0
  9
$DIMSAH
 70
     0
  9
$DIMBLK1
  1

  9
$DIMBLK2
  1

  9
$DIMSTYLE
  2
STANDARD
  9
$DIMCLRD
 70
     0
  9
$DIMCLRE
 70
     0
  9
$DIMCLRT
 70
     0
  9
$DIMTFAC
 40
1.0
  9
$DIMGAP
 40
0.09
  9
$LUNITS
 70
     2
  9
$LUPREC
 70
     4
  9
$SKETCHINC
 40
0.1
  9
$FILLETRAD
 40
0.0
  9
$AUNITS
 70
     0
  9
$AUPREC
 70
     0
  9
$MENU
  1
.
  9
$ELEVATION
 40
0.0
  9
$PELEVATION
 40
0.0
  9
$THICKNESS
 40
0.0
  9
$LIMCHECK
 70
     0
  9
$BLIPMODE
 70
     0
  9
$CHAMFERA
 40
0.0
  9
$CHAMFERB
 40
0.0
  9
$SKPOLY
 70
     0
  9
$TDCREATE
 40
2458172.4620254631154239
  9
$TDUPDATE
 40
2459207.7883449080400169
  9
$TDINDWG
 40
0.1060013079
  9
$TDUSRTIMER
 40
0.1060013079
  9
$USRTIMER
 70
     1
  9
$ANGBASE
 50
0.0
  9
$ANGDIR
 70
     0
  9
$PDMODE
 70
     0
  9
$PDSIZE
 40
0.3125
  9
$PLINEWID
 40
0.0
  9
$COORDS
 70
     1
  9
$SPLFRAME
 70
     0
  9
$SPLINETYPE
 70
     6
  9
$SPLINESEGS
 70
     8
  9
$ATTDIA
 70
     1
  9
$ATTREQ
 70
     1
  9
$HANDLING
 70
     1
  9
$HANDSEED
  5
94FF
  9
$SURFTAB1
 70
     6
  9
$SURFTAB2
 70
     6
  9
$SURFTYPE
 70
     6
  9
$SURFU
 70
     6
  9
$SURFV
 70
     6
  9
$UCSNAME
  2

  9
$UCSORG
 10
0.0
 20
0.0
 30
0.0
  9
$UCSXDIR
 10
1.0
 20
0.0
 30
0.0
  9
$UCSYDIR
 10
0.0
 20
1.0
 30
0.0
  9
$PUCSNAME
  2

  9
$PUCSORG
 10
0.0
 20
0.0
 30
0.0
  9
$PUCSXDIR
 10
1.0
 20
0.0
 30
0.0
  9
$PUCSYDIR
 10
0.0
 20
1.0
 30
0.0
  9
$USERI1
 70
     0
  9
$USERI2
 70
     0
  9
$USERI3
 70
     0
  9
$USERI4
 70
     0
  9
$USERI5
 70
     0
  9
$USERR1
 40
0.0
  9
$USERR2
 40
0.0
  9
$USERR3
 40
0.0
  9
$USERR4
 40
0.0
  9
$USERR5
 40
0.0
  9
$WORLDVIEW
 70
     1
  9
$SHADEDGE
 70
     3
  9
$SHADEDIF
 70
    70
  9
$TILEMODE
 70
     1
  9
$MAXACTVP
 70
    64
  9
$PLIMCHECK
 70
     0
  9
$PEXTMIN
 10
1.0000000000000000E+20
 20
1.0000000000000000E+20
 30
1.0000000000000000E+20
  9
$PEXTMAX
 10
-1.0000000000000000E+20
 20
-1.0000000000000000E+20
 30
-1.0000000000000000E+20
  9
$PLIMMIN
 10
0.0
 20
0.0
  9
$PLIMMAX
 10
12.0
 20
9.0
  9
$UNITMODE
 70
     0
  9
$VISRETAIN
 70
     1
  9
$PLINEGEN
 70
     0
  9
$PSLTSCALE
 70
     1
  0
ENDSEC
  0
SECTION
  2
TABLES
  0
TABLE
  2
VPORT
 70
     1
  0
VPORT
  2
*ACTIVE
 70
     0
 10
0.0
 20
0.0
 11
1.0
 21
1.0
 12
26.9138181627080293
 22
6.0522215787088651
 13
0.0
 23
0.0
 14
1.0
 24
1.0
 15
0.0
 25
0.0
 16
0.0
 26
0.0
 36
24.7332413121020203
 17
103.0958557128905966
 27
-4.5597535845750086
 37
0.0
 40
5.7215180202300999
 41
2.9182795698924728
 42
50.0
 43
0.0
 44
0.0
 50
0.0
 51
0.0
 71
     0
 72
   100
 73
     1
 74
     1
 75
     0
 76
     0
 77
     0
 78
     0
  0
ENDTAB
  0
TABLE
  2
LTYPE
 70
     2
  0
LTYPE
  2
CONTINUOUS
 70
     0
  3
Solid line
 72
    65
 73
     0
 40
0.0
  0
LTYPE
  2
PHANTOM2
 70
     0
  3
___ _ _ ___ _ _ ___ _ _ ___ _ _
 72
    65
 73
     6
 40
1.25
 49
0.625
 49
-0.125
 49
0.125
 49
-0.125
 49
0.125
 49
-0.125
  0
ENDTAB
  0
TABLE
  2
LAYER
 70
     2
  0
LAYER
  2
0
 70
     0
 62
   255
  6
CONTINUOUS
  0
LAYER
  2
DEFPOINTS
 70
     0
 62
     7
  6
CONTINUOUS
  0
ENDTAB
  0
TABLE
  2
STYLE
 70
     1
  0
STYLE
  2
STANDARD
 70
     0
 40
0.0
 41
0.8
 50
0.0
 71
     0
 42
0.2
  3
txt
  4

  0
ENDTAB
  0
TABLE
  2
VIEW
 70
     0
  0
ENDTAB
  0
TABLE
  2
UCS
 70
     0
  0
ENDTAB
  0
TABLE
  2
APPID
 70
     9
  0
APPID
  2
ACAD
 70
     0
  0
APPID
  2
ACAD_MLEADERVER
 70
     0
  0
APPID
  2
ACAD_EXEMPT_FROM_CAD_STANDARDS
 70
     0
  0
APPID
  2
ACAD_DSTYLE_DIMJAG
 70
     0
  0
APPID
  2
ACAD_DSTYLE_DIMTALN
 70
     0
  0
APPID
  2
ACAD_NAV_VCDISPLAY
 70
     0
  0
APPID
  2
ACAECLAYERSTANDARD
 70
     0
  0
APPID
  2
ACCMTRANSPARENCY
 70
     0
  0
APPID
  2
ACDBATTR
 70
     0
  0
ENDTAB
  0
TABLE
  2
DIMSTYLE
 70
     1
  0
DIMSTYLE
  2
STANDARD
 70
     0
  3

  4

  5

  6

  7

 40
1.0
 41
0.1875
 42
0.0625
 43
0.38
 44
0.125
 45
0.0
 46
0.0
 47
0.01
 48
0.01
140
0.15625
141
0.09
142
0.0
143
25.3999999999999986
144
1.0
145
0.0
146
1.0
147
0.09
 71
     1
 72
     0
 73
     1
 74
     1
 75
     0
 76
     0
 77
     0
 78
     4
170
     0
171
     2
172
     0
173
     0
174
     0
175
     0
176
     0
177
     0
178
     0
  0
ENDTAB
  0
ENDSEC
  0
SECTION
  2
BLOCKS
  0
BLOCK
  8
0
  2
$MODEL_SPACE
 70
     0
 10
0.0
 20
0.0
 30
0.0
  3
$MODEL_SPACE
  1

  0
ENDBLK
  5
21
  8
0
  0
BLOCK
 67
     1
  8
0
  2
$PAPER_SPACE
 70
     0
 10
0.0
 20
0.0
 30
0.0
  3
$PAPER_SPACE
  1

  0
ENDBLK
  5
1D
 67
     1
  8
0
  0
ENDSEC
  0
SECTION
  2
ENTITIES
  0
ATTDEF
  5
383D
  8
DEFPOINTS
 10
130.0045025188929912
 20
-1.328031630148875
 30
0.0
 40
0.001
  1
K-72312AR-4ND
  3

  2
MODELNUMBER
 70
     0
1001
ACDBATTR
1070
     0
1070
     1
  0
ATTDEF
  5
383E
  8
DEFPOINTS
 10
130.0045025188929912
 20
-1.32969829681554
 30
0.0
 40
0.001
  1
ALEO
  3

  2
TRADENAME
 70
     0
1001
ACDBATTR
1070
     0
1070
     1
  0
ATTDEF
  5
383F
  8
DEFPOINTS
 10
130.0045025188929912
 20
-1.331364963482206
 30
0.0
 40
0.001
  1
BATHROOM SINK FAUCET
  3

  2
PRODUCT
 70
     0
1001
ACDBATTR
1070
     0
1070
     1
  0
LINE
  5
90D4
  8
0
 10
131.0022963361163022
 20
-1.325557422005706
 30
0.0
 11
129.016297523018892
 21
-1.325557422005706
 31
0.0
  0
LINE
  5
90D5
  8
0
 10
130.9707963361163081
 20
2.8397969086942938
 30
0.0
 11
129.0477975230189998
 21
2.8397969086942938
 31
0.0
  0
LINE
  5
90D6
  8
0
 10
130.547912676767595
 20
3.3718835228942932
 30
0.0
 11
129.4706811823675991
 21
3.3718835228942932
 31
0.0
  0
LINE
  5
90D7
  8
0
 10
130.9124542775838904
 20
2.6375885705942941
 30
0.0
 11
129.1061395815513038
 21
2.6375885705942941
 31
0.0
  0
LINE
  5
90D8
  8
0
 10
129.016297523018892
 20
2.8082969086942948
 30
0.0
 11
129.016297523018892
 21
-1.325557422005706
 31
0.0
  0
LINE
  5
90D9
  8
0
 10
129.7093950379675107
 20
2.0753018732946962
 30
0.0
 11
129.6972263212520886
 21
2.1547782797762158
 31
0.0
  0
ARC
  5
90DA
  8
0
 10
130.0763480780570092
 20
5.0073515626974467
 30
0.0
 40
3.037902061893889
 50
267.6749151701930032
 51
268.7352917475433856
  0
ARC
  5
90DB
  8
0
 10
130.0006641756058912
 20
2.729713018670858
 30
0.0
 40
0.7592536502048784
 50
258.2082902895252801
 51
266.4085009900189789
  0
ARC
  5
90DC
  8
0
 10
129.9170763053490987
 20
2.3293110362188432
 30
0.0
 40
0.3502198134559196
 50
241.8308884184201872
 51
258.2082902895252801
  0
ARC
  5
90DD
  8
0
 10
129.7917528274919903
 20
2.0952808752915248
 30
0.0
 40
0.084746480848196
 50
193.6358501334972004
 51
241.8308884184201872
  0
ARC
  5
90DE
  8
0
 10
130.0091407429723063
 20
1.310804880565035
 30
0.0
 40
0.8248004356042486
 50
89.9891503054580255
 51
94.6538760633191885
  0
ARC
  5
90DF
  8
0
 10
129.9971879904182117
 20
1.4576363610867
 30
0.0
 40
0.6774832541018763
 50
94.6538760633191885
 51
101.2339747787144972
  0
ARC
  5
90E0
  8
0
 10
129.9366899520690026
 20
1.762225745852692
 30
0.0
 40
0.3669438750269739
 50
101.233974778715293
 51
112.9526882441710995
  0
ARC
  5
90E1
  8
0
 10
129.8372908792283056
 20
1.9969339514623501
 30
0.0
 40
0.1120554338176728
 50
112.9526882441710995
 51
133.0624095943169038
  0
ARC
  5
90E2
  8
0
 10
129.7873588043343034
 20
2.0503627483531228
 30
0.0
 40
0.0389264488636173
 50
133.0624095943180123
 51
162.5004524909799102
  0
ARC
  5
90E3
  8
0
 10
129.7805666490970964
 20
2.0555096625134741
 30
0.0
 40
0.0310336238688487
 50
167.7999483805222951
 51
227.4674315453376039
  0
ARC
  5
90E4
  8
0
 10
129.8798972996169141
 20
2.180895307023957
 30
0.0
 40
0.1909285126027903
 50
230.9403313666938118
 51
258.5180112438355877
  0
ARC
  5
90E5
  8
0
 10
130.001142282749214
 20
2.6661280341257938
 30
0.0
 40
0.690943089858399
 50
256.6744431770827077
 51
266.9803746576592971
  0
ARC
  5
90E6
  8
0
 10
130.009323274863192
 20
2.855545721931767
 30
0.0
 40
0.8838868028383507
 50
264.8555115539393228
 51
269.9982922312591995
  0
ARC
  5
90E7
  8
0
 10
129.9856179127698113
 20
2.592241547137685
 30
0.0
 40
0.6195176808592949
 50
256.0094209857002738
 51
264.8555115539393228
  0
ARC
  5
90E8
  8
0
 10
129.909760035756392
 20
2.2877789597914968
 30
0.0
 40
0.3057472479015213
 50
243.5091398014203037
 51
256.0094209857002738
  0
ARC
  5
90E9
  8
0
 10
129.8093509891681947
 20
2.086309091564075
 30
0.0
 40
0.0806426401291949
 50
214.1426188227229943
 51
243.5091398014209858
  0
ARC
  5
90EA
  8
0
 10
129.7634939855342964
 20
2.0552117946508299
 30
0.0
 40
0.0252359017521174
 50
147.5310941513849912
 51
214.1426188227218006
  0
ARC
  5
90EB
  8
0
 10
129.8325297434722074
 20
1.9987122337445069
 30
0.0
 40
0.1143046723091786
 50
106.2095491525474955
 51
142.2069089603440943
  0
ARC
  5
90EC
  8
0
 10
129.9568625625610139
 20
1.6639679876605391
 30
0.0
 40
0.4711644751581943
 50
97.3849725891104896
 51
109.3662992777158962
  0
ARC
  5
90ED
  8
0
 10
130.0035173546444867
 20
1.365997063182167
 30
0.0
 40
0.7727015835494522
 50
92.8210320965411029
 51
97.9758057323302864
  0
ARC
  5
90EE
  8
0
 10
130.009173095363991
 20
1.2728838818169781
 30
0.0
 40
0.865980936201408
 50
89.9918067743035266
 51
92.8915743293895702
  0
ARC
  5
90EF
  8
0
 10
129.7286730868491134
 20
2.1598673293706798
 30
0.0
 40
0.0318558863052444
 50
150.9639844590273015
 51
189.1925163716697114
  0
ARC
  5
90F0
  8
0
 10
129.7563242520564017
 20
2.1445173085165941
 30
0.0
 40
0.0634819843501293
 50
124.1328770551299954
 51
150.963984459028012
  0
ARC
  5
90F1
  8
0
 10
129.8792832266653932
 20
1.945854241145315
 30
0.0
 40
0.2970752934375349
 50
100.2292801590283062
 51
122.2627531569356023
  0
ARC
  5
90F2
  8
0
 10
129.9986323311970011
 20
1.424559835634569
 30
0.0
 40
0.8316507867537613
 50
91.4662435423938263
 51
101.9433843005678995
  0
ARC
  5
90F3
  8
0
 10
130.0092950813676964
 20
1.251085541992329
 30
0.0
 40
1.0053603624019629
 50
89.9998946711601775
 51
91.820748289319539
  0
ARC
  5
90F4
  8
0
 10
129.8249838099712008
 20
2.5920315681728532
 30
0.0
 40
0.5539230403153156
 50
241.3722905250216115
 51
259.234604558355727
  0
ARC
  5
90F5
  8
0
 10
129.6186173901257064
 20
2.2139639377435798
 30
0.0
 40
0.1232001219347993
 50
216.2403502539600026
 51
241.3722905250216115
  0
ARC
  5
90F6
  8
0
 10
129.5654394386407091
 20
2.1749860201206999
 30
0.0
 40
0.0572670301950935
 50
148.7804684464844058
 51
216.2403502539596047
  0
ARC
  5
90F7
  8
0
 10
129.9613389735011992
 20
1.2049426266706089
 30
0.0
 40
1.1226867096411051
 50
94.5130115848933769
 51
104.8707896639778028
  0
ARC
  5
90F8
  8
0
 10
130.0084988720921046
 20
0.75080555636813
 30
0.0
 40
1.579166808043968
 50
89.9710446503374612
 51
94.9222676820342741
  0
ARC
  5
90F9
  8
0
 10
130.0090658112802942
 20
0.7578029462825456
 30
0.0
 40
1.5691277287852281
 50
89.9915608511358158
 51
93.8302423619353334
  0
ARC
  5
90FA
  8
0
 10
129.9938282579493034
 20
0.9853986140018538
 30
0.0
 40
1.341022553490778
 50
93.8302423619353334
 51
100.7205637106027041
  0
ARC
  5
90FB
  8
0
 10
129.8823802819242133
 20
1.574062225463803
 30
0.0
 40
0.7419019489214597
 50
100.7205637106027041
 51
110.8358420502972024
  0
ARC
  5
90FC
  8
0
 10
129.7171121660061885
 20
2.0083150968157439
 30
0.0
 40
0.277263265193445
 50
110.8358420502973019
 51
126.5143804580668956
  0
ARC
  5
90FD
  8
0
 10
129.6145107736589921
 20
2.1469001625780031
 30
0.0
 40
0.1048310577496916
 50
126.5143804580668956
 51
152.6211916620503075
  0
ARC
  5
90FE
  8
0
 10
129.5716522557814869
 20
2.17485638652271
 30
0.0
 40
0.0541591576872695
 50
158.0408396729635001
 51
218.8441655396183023
  0
ARC
  5
90FF
  8
0
 10
129.7654451388565064
 20
2.4027296652583958
 30
0.0
 40
0.3524847597169859
 50
227.9744782515194004
 51
262.2729755085698002
  0
ARC
  5
9100
  8
0
 10
129.6408741617148905
 20
2.1120290495603271
 30
0.0
 40
0.1551116618932778
 50
117.8263228009791987
 51
143.3272203723280995
  0
ARC
  5
9101
  8
0
 10
129.7990616968943129
 20
1.8123335110539991
 30
0.0
 40
0.4939932224520187
 50
104.7592952766540009
 51
117.8263228009791987
  0
ARC
  5
9102
  8
0
 10
129.1113915882621939
 20
2.5938261389541188
 30
0.0
 40
0.0440764562726688
 50
96.8434379908356675
 51
129.3304806528292943
  0
ARC
  5
9103
  8
0
 10
129.1508165684581115
 20
2.566968701833916
 30
0.0
 40
0.0908427235650117
 50
137.8597504008426995
 51
166.8784439738415131
  0
ARC
  5
9104
  8
0
 10
130.4494817831156865
 20
2.28604583926511
 30
0.0
 40
1.4195338631811949
 50
167.7354453024393877
 51
178.1927753268635968
  0
ARC
  5
9105
  8
0
 10
148.4695359732166935
 20
1.486615571678539
 30
0.0
 40
19.4572043728274302
 50
177.5133036046480868
 51
178.8431503868754078
  0
ARC
  5
9106
  8
0
 10
129.9973896890695073
 20
1.272614178630918
 30
0.0
 40
1.0028344085087071
 50
92.1770149674168664
 51
102.4112754972641
  0
ARC
  5
9107
  8
0
 10
129.7772027817333083
 20
2.0492517598654181
 30
0.0
 40
0.1925937051114371
 50
110.0600249691752026
 51
129.0156606337147025
  0
ARC
  5
9108
  8
0
 10
129.697322153482304
 20
2.1478410095905751
 30
0.0
 40
0.0657049548963248
 50
129.0156606337137077
 51
155.2693456238789906
  0
ARC
  5
9109
  8
0
 10
129.7531357460854906
 20
2.2236980652483029
 30
0.0
 40
0.140079856535719
 50
214.4646679851672104
 51
250.7361856737840924
  0
LINE
  5
910A
  8
0
 10
129.6988111913462092
 20
2.1444271652942941
 30
0.0
 11
129.6376433626676032
 21
2.1444271652942941
 31
0.0
  0
LINE
  5
910B
  8
0
 10
129.700821014367591
 20
2.1753288800942938
 30
0.0
 11
129.6376433626676032
 21
2.1753288800942938
 31
0.0
  0
LINE
  5
910C
  8
0
 10
129.7562074781143053
 20
2.2162356201076641
 30
0.0
 11
129.7111422917841992
 21
2.2301615354891569
 31
0.0
  0
LINE
  5
910D
  8
0
 10
129.826526315779688
 20
2.238207517721448
 30
0.0
 11
129.7818529698676002
 21
2.2520123476942908
 31
0.0
  0
LINE
  5
910E
  8
0
 10
129.9592950813675998
 20
2.255279771523925
 30
0.0
 11
129.9592950813675998
 21
2.274724777194292
 31
0.0
  0
LINE
  5
910F
  8
0
 10
129.700821014367591
 20
2.222881703494294
 30
0.0
 11
129.700821014367591
 21
2.1753288800942938
 31
0.0
  0
LINE
  5
9110
  8
0
 10
129.8265263158675964
 20
2.238207517740038
 30
0.0
 11
129.8265263158675964
 21
2.2607854990946712
 31
0.0
  0
ARC
  5
9111
  8
0
 10
130.009287269197813
 20
1.041784394026338
 30
0.0
 40
1.2373736347466651
 50
89.9995526829073782
 51
93.5961023396321536
  0
ARC
  5
9112
  8
0
 10
130.0013247248714094
 20
1.1684829474244911
 30
0.0
 40
1.1104251194133461
 50
93.5961023396321536
 51
99.0608179836806784
  0
ARC
  5
9113
  8
0
 10
129.9322229482123134
 20
1.6017970231773271
 30
0.0
 40
0.6716357123135609
 50
99.0608179836806784
 51
105.9667212093073942
  0
ARC
  5
9114
  8
0
 10
129.8651282186829121
 20
1.836298122075914
 30
0.0
 40
0.4277249333076596
 50
105.9667212093073942
 51
116.6440931715600016
  0
ARC
  5
9115
  8
0
 10
129.7315093905882861
 20
2.1026166490097111
 30
0.0
 40
0.1297659612837534
 50
116.6440931715599021
 51
137.8718740003016876
  0
ARC
  5
9116
  8
0
 10
129.6684102811167065
 20
2.1596873583107099
 30
0.0
 40
0.0446862135394641
 50
137.8718740003016876
 51
199.4745630409503008
  0
ARC
  5
9117
  8
0
 10
129.7437670440004922
 20
2.2232116214721329
 30
0.0
 40
0.1412554354346345
 50
213.7230808235090933
 51
255.1889424688137922
  0
ARC
  5
9118
  8
0
 10
130.0088451234796878
 20
0.9088051758143311
 30
0.0
 40
1.402918017937459
 50
89.9815480433542945
 51
94.2519240468076163
  0
ARC
  5
9119
  8
0
 10
129.995838576794597
 20
1.08374990927896
 30
0.0
 40
1.2274904544712739
 50
94.2519240468076163
 51
98.5639319299003347
  0
ARC
  5
911A
  8
0
 10
129.9405054941148023
 20
1.451187128432406
 30
0.0
 40
0.855910234252186
 50
98.5639319299003347
 51
107.3911291476564998
  0
ARC
  5
911B
  8
0
 10
129.783166843261597
 20
1.953527914885389
 30
0.0
 40
0.3295057160473083
 50
107.3911291476564003
 51
123.4357339820127066
  0
ARC
  5
911C
  8
0
 10
129.6524756679478969
 20
2.1514627595432501
 30
0.0
 40
0.0923172128802999
 50
123.4357339820117971
 51
152.5841095035995068
  0
ARC
  5
911D
  8
0
 10
129.6207673245610863
 20
2.173945241596666
 30
0.0
 40
0.0540841388690653
 50
158.2690133767557086
 51
214.9752044778070115
  0
ARC
  5
911E
  8
0
 10
129.7612815237438042
 20
2.3417485736481178
 30
0.0
 40
0.2714517480795343
 50
227.0862016463321993
 51
258.9804214801470152
  0
ARC
  5
911F
  8
0
 10
129.6149246689240044
 20
2.1997589617685529
 30
0.0
 40
0.0686169875089141
 50
150.7474839356196128
 51
235.8954226181928107
  0
ARC
  5
9120
  8
0
 10
129.9995828238440936
 20
1.1733533894778789
 30
0.0
 40
1.128070433227911
 50
89.506605153140498
 51
99.7343278133591866
  0
ARC
  5
9121
  8
0
 10
129.9295079228483871
 20
1.581834703461263
 30
0.0
 40
0.7136220339993247
 50
99.7343278133591866
 51
109.6019132683672979
  0
ARC
  5
9122
  8
0
 10
129.768881792526912
 20
2.0328776218744968
 30
0.0
 40
0.2348314033549939
 50
109.6019132683671984
 51
128.147052539006296
  0
ARC
  5
9123
  8
0
 10
129.6670704642149019
 20
2.1625030500102218
 30
0.0
 40
0.070003316573582
 50
128.1470525390053865
 51
156.3512913649990992
  0
ARC
  5
9124
  8
0
 10
129.6417719735875949
 20
2.173581310296604
 30
0.0
 40
0.042385541880546
 50
156.351291364999895
 51
230.1343284794535009
  0
ARC
  5
9125
  8
0
 10
129.7149926805901998
 20
2.2371463545433441
 30
0.0
 40
0.1389707405037738
 50
223.7488341584821114
 51
246.6234556793702097
  0
ARC
  5
9126
  8
0
 10
128.6339854339217936
 20
1.4408431496609539
 30
0.0
 40
1.1287554648297491
 50
38.3396666307590408
 51
43.0990016055271923
  0
ARC
  5
9127
  8
0
 10
130.5058714745979955
 20
3.0936408406931899
 30
0.0
 40
1.369242265643722
 50
199.4551627697875915
 51
220.0782172092777103
  0
ARC
  5
9128
  8
0
 10
129.0477975230189998
 20
2.808296908694297
 30
0.0
 40
0.0315
 50
89.9999999999983658
 51
180.0000000000032117
  0
LINE
  5
9129
  8
0
 10
129.0449419722675941
 20
2.8476709244942948
 30
0.0
 11
130.9736518868676001
 21
2.8476709244942948
 31
0.0
  0
LINE
  5
912A
  8
0
 10
129.0456107143398867
 20
2.8860445766610789
 30
0.0
 11
129.0449419722675941
 21
2.8476709244942948
 31
0.0
  0
ARC
  5
912B
  8
0
 10
128.8962515501484916
 20
4.064258827404827
 30
0.0
 40
1.1384257746881661
 50
280.0243908244356135
 51
289.2795481694369073
  0
ARC
  5
912C
  8
0
 10
129.0928621240786072
 20
3.502184059383342
 30
0.0
 40
0.5429564113893163
 50
289.2795481694369073
 51
310.7126240585151891
  0
ARC
  5
912D
  8
0
 10
129.2250131823666948
 20
3.329308060213056
 30
0.0
 40
0.3259637523085858
 50
312.9264744144626889
 51
340.680884370340209
  0
ARC
  5
912E
  8
0
 10
128.7632899141418079
 20
3.4488564017177161
 30
0.0
 40
0.8022323539801273
 50
343.5342324590172893
 51
354.4940937957052824
  0
ARC
  5
912F
  8
0
 10
129.1047017419197118
 20
2.8850147904926202
 30
0.0
 40
0.0591
 50
100.0243908244298012
 51
179.0016008916643102
  0
LINE
  5
9130
  8
0
 10
129.0841897132135045
 20
2.8397969086942938
 30
0.0
 11
129.0841897132135045
 21
2.8476709244942948
 31
0.0
  0
LINE
  5
9131
  8
0
 10
129.4706811823675991
 20
3.3718835228942932
 30
0.0
 11
129.4862174113764013
 21
4.2621475713550883
 31
0.0
  0
LINE
  5
9132
  8
0
 10
129.7733016665299033
 20
4.3162251557661353
 30
0.0
 11
130.2452921926054046
 21
4.3162251557661353
 31
0.0
  0
ARC
  5
9133
  8
0
 10
129.8777271706678107
 20
2.923736945002382
 30
0.0
 40
1.4096821270668209
 50
99.8887878093788828
 51
105.4619183877741051
  0
ARC
  5
9134
  8
0
 10
129.7979966396480904
 20
-1.3769754741287179
 30
0.0
 40
5.6932541884174173
 50
90.2485260845435135
 51
91.4191546883503463
  0
ARC
  5
9135
  8
0
 10
129.6607292848935913
 20
4.1638099896805487
 30
0.0
 40
0.1507686554961629
 50
91.4191546883503463
 51
99.5815916719862457
  0
ARC
  5
9136
  8
0
 10
129.5076141534732983
 20
4.2617741712544834
 30
0.0
 40
0.0214
 50
105.4619183877792068
 51
179.000217963719308
  0
ARC
  5
9137
  8
0
 10
130.0232506244767023
 20
8.1576881944848605
 30
0.0
 40
3.9885572435103391
 50
268.7543482316835934
 51
269.7995542225095278
  0
ARC
  5
9138
  8
0
 10
129.9856741061495882
 20
6.4295767566962576
 30
0.0
 40
2.2600373170572738
 50
265.2176817064287206
 51
268.7543533736838981
  0
ARC
  5
9139
  8
0
 10
129.855134263477396
 20
4.8692446208172511
 30
0.0
 40
0.694254118532767
 50
249.981636163366602
 51
265.2176817064287206
  0
ARC
  5
913A
  8
0
 10
129.6164052847466053
 20
4.166215184330861
 30
0.0
 40
0.050731408806029
 50
88.7903261136910231
 51
166.6646900797686897
  0
ARC
  5
913B
  8
0
 10
129.6564958164767916
 20
5.4716691647214928
 30
0.0
 40
1.2553404431106121
 50
268.2187983129404074
 51
274.0076682212725814
  0
ARC
  5
913C
  8
0
 10
130.0936033158999123
 20
-24.6562607776242118
 30
0.0
 40
28.8777726549598803
 50
90.1672707601855876
 51
90.6931980843024945
  0
ARC
  5
913D
  8
0
 10
129.4192234469169023
 20
4.2163800838069214
 30
0.0
 40
0.1527406609656257
 50
327.9712249598244966
 51
345.414540439329528
  0
ARC
  5
913E
  8
0
 10
129.7221952028642988
 20
4.0268506823938628
 30
0.0
 40
0.2046292858707627
 50
147.9712249598246103
 51
181.530753943017686
  0
ARC
  5
913F
  8
0
 10
122.9148460340568931
 20
4.6638493032840946
 30
0.0
 40
6.6339758411029219
 50
351.5107353436964104
 51
354.4425005852424988
  0
LINE
  5
9140
  8
0
 10
131.0022963361163022
 20
2.8082969086942948
 30
0.0
 11
131.0022963361163022
 21
-1.325557422005706
 31
0.0
  0
LINE
  5
9141
  8
0
 10
130.3091988211677119
 20
2.0753018732946962
 30
0.0
 11
130.3213675378831908
 21
2.1547782797762158
 31
0.0
  0
ARC
  5
9142
  8
0
 10
130.2268410316432039
 20
2.0952808752915248
 30
0.0
 40
0.084746480848196
 50
298.169111581578818
 51
346.3641498665027143
  0
ARC
  5
9143
  8
0
 10
130.1813029799068886
 20
1.9969339514623501
 30
0.0
 40
0.1120554338176728
 50
46.9375904056830322
 51
67.0473117558297247
  0
ARC
  5
9144
  8
0
 10
130.2312350548008908
 20
2.0503627483531228
 30
0.0
 40
0.0389264488636173
 50
17.4995475090200294
 51
52.1086884282961691
  0
ARC
  5
9145
  8
0
 10
130.2380272100382115
 20
2.0555096625134741
 30
0.0
 40
0.0310336238688487
 50
312.5325684546867819
 51
12.2000516194777404
  0
ARC
  5
9146
  8
0
 10
130.2092428699671132
 20
2.086309091564075
 30
0.0
 40
0.0806426401291949
 50
296.49086019857981
 51
325.8573811772769773
  0
ARC
  5
9147
  8
0
 10
130.2550998736008978
 20
2.0552117946508299
 30
0.0
 40
0.0252359017521174
 50
325.8573811772783984
 51
46.1255750775083087
  0
ARC
  5
9148
  8
0
 10
130.1860641156629868
 20
1.9987122337445069
 30
0.0
 40
0.1143046723091786
 50
40.8013898864813314
 51
73.7904508474550056
  0
ARC
  5
9149
  8
0
 10
130.2899207722861092
 20
2.1598673293706798
 30
0.0
 40
0.0318558863052444
 50
350.8074836283302034
 51
29.0360155409726808
  0
ARC
  5
914A
  8
0
 10
130.2622696070787924
 20
2.1445173085165941
 30
0.0
 40
0.0634819843501293
 50
29.0360155409719702
 51
55.8671229448699194
  0
ARC
  5
914B
  8
0
 10
130.1393106324698863
 20
1.945854241145315
 30
0.0
 40
0.2970752934375349
 50
57.7372468430644119
 51
79.7707198409717222
  0
ARC
  5
914C
  8
0
 10
130.0199615279383067
 20
1.424559835634569
 30
0.0
 40
0.8316507867537613
 50
78.0566156994320721
 51
88.5337564576069838
  0
ARC
  5
914D
  8
0
 10
130.0092987777676115
 20
1.251085541992329
 30
0.0
 40
1.0053603624019629
 50
88.1792517106804468
 51
90.0001053300668445
  0
ARC
  5
914E
  8
0
 10
130.1936100491641071
 20
2.5920315681728532
 30
0.0
 40
0.5539230403153156
 50
280.765395441644273
 51
298.6277094749784169
  0
ARC
  5
914F
  8
0
 10
130.3999764690096015
 20
2.2139639377435798
 30
0.0
 40
0.1232001219347993
 50
298.6277094749783032
 51
323.7596497460398837
  0
ARC
  5
9150
  8
0
 10
130.4531544204945135
 20
2.1749860201206999
 30
0.0
 40
0.0572670301950935
 50
323.7596497460403953
 51
31.2195315535156013
  0
ARC
  5
9151
  8
0
 10
130.0572548856341086
 20
1.2049426266706089
 30
0.0
 40
1.1226867096411051
 50
75.1292103360222256
 51
85.4869884151066231
  0
ARC
  5
9152
  8
0
 10
130.0100949870430895
 20
0.7508055563669345
 30
0.0
 40
1.5791668080451631
 50
85.0777323179673459
 51
90.0289553496609045
  0
ARC
  5
9153
  8
0
 10
130.0095280478550137
 20
0.7578029462825456
 30
0.0
 40
1.5691277287852281
 50
86.1697576380646666
 51
90.0084391488528155
  0
ARC
  5
9154
  8
0
 10
130.0247656011860045
 20
0.9853986140018538
 30
0.0
 40
1.341022553490778
 50
79.2794362893972959
 51
86.1697576380646666
  0
ARC
  5
9155
  8
0
 10
130.1362135772110094
 20
1.574062225463803
 30
0.0
 40
0.7419019489214597
 50
69.1641579497035366
 51
79.2794362893972959
  0
ARC
  5
9156
  8
0
 10
130.3014816931290056
 20
2.0083150968157439
 30
0.0
 40
0.277263265193445
 50
53.4856195419331115
 51
69.164157949702755
  0
ARC
  5
9157
  8
0
 10
130.4040830854762874
 20
2.1469001625780031
 30
0.0
 40
0.1048310577496916
 50
27.3788083379496108
 51
53.4856195419330476
  0
ARC
  5
9158
  8
0
 10
130.4469416033537925
 20
2.17485638652271
 30
0.0
 40
0.0541591576872695
 50
321.155834460381584
 51
21.9591603270364608
  0
ARC
  5
9159
  8
0
 10
130.2531487202786877
 20
2.4027296652583958
 30
0.0
 40
0.3524847597169859
 50
277.7270244914301998
 51
312.025521748480628
  0
ARC
  5
915A
  8
0
 10
130.3777196974203036
 20
2.1120290495603271
 30
0.0
 40
0.1551116618932778
 50
36.6727796276719218
 51
62.1736771990207799
  0
ARC
  5
915B
  8
0
 10
130.2195321622409097
 20
1.8123335110539991
 30
0.0
 40
0.4939932224520187
 50
62.1736771990207799
 51
75.2407047233459849
  0
ARC
  5
915C
  8
0
 10
130.907202270873114
 20
2.5938261389541188
 30
0.0
 40
0.0440764562726688
 50
50.6695193471706418
 51
83.1565620091635225
  0
ARC
  5
915D
  8
0
 10
130.8677772906771111
 20
2.566968701833916
 30
0.0
 40
0.0908427235650117
 50
13.1215560261584905
 51
42.1402495991573289
  0
ARC
  5
915E
  8
0
 10
129.5691120760195076
 20
2.28604583926511
 30
0.0
 40
1.4195338631811949
 50
1.8072246731363559
 51
12.2645546975605892
  0
ARC
  5
915F
  8
0
 10
111.5490578859185007
 20
1.486615571678539
 30
0.0
 40
19.4572043728274302
 50
1.156849613125057
 51
2.4866963953517169
  0
ARC
  5
9160
  8
0
 10
130.0212041700656869
 20
1.272614178630918
 30
0.0
 40
1.0028344085087071
 50
77.5887245027358716
 51
87.8229850325823236
  0
ARC
  5
9161
  8
0
 10
130.2413910774018859
 20
2.0492517598654181
 30
0.0
 40
0.1925937051114371
 50
50.9843393662852407
 51
69.9399750308247405
  0
ARC
  5
9162
  8
0
 10
130.3212717056530039
 20
2.1478410095905751
 30
0.0
 40
0.0657049548963248
 50
24.7306543761209916
 51
50.9843393662862567
  0
ARC
  5
9163
  8
0
 10
130.2654581130497036
 20
2.2236980652483029
 30
0.0
 40
0.140079856535719
 50
289.2638143262158223
 51
325.535332014832818
  0
LINE
  5
9164
  8
0
 10
130.3197826677890134
 20
2.1444271652942941
 30
0.0
 11
130.3809504964675909
 21
2.1444271652942941
 31
0.0
  0
LINE
  5
9165
  8
0
 10
130.3177728447676031
 20
2.1753288800942938
 30
0.0
 11
130.3809504964675909
 21
2.1753288800942938
 31
0.0
  0
LINE
  5
9166
  8
0
 10
130.2623863810210025
 20
2.2162356201076641
 30
0.0
 11
130.307451567350995
 21
2.2301615354891569
 31
0.0
  0
LINE
  5
9167
  8
0
 10
130.1920675433555061
 20
2.238207517721448
 30
0.0
 11
130.236740889267594
 21
2.2520123476942908
 31
0.0
  0
LINE
  5
9168
  8
0
 10
130.0592987777675944
 20
2.255279771523925
 30
0.0
 11
130.0592987777675944
 21
2.274724777194292
 31
0.0
  0
LINE
  5
9169
  8
0
 10
130.3177728447676031
 20
2.222881703494294
 30
0.0
 11
130.3177728447676031
 21
2.1753288800942938
 31
0.0
  0
LINE
  5
916A
  8
0
 10
130.1920675432675978
 20
2.238207517740038
 30
0.0
 11
130.1920675432675978
 21
2.2607854990946712
 31
0.0
  0
ARC
  5
916B
  8
0
 10
130.0093065899374949
 20
1.041784394026338
 30
0.0
 40
1.2373736347466651
 50
86.4038976603678464
 51
90.0004473171667314
  0
ARC
  5
916C
  8
0
 10
130.0172691342638984
 20
1.1684829474244911
 30
0.0
 40
1.1104251194133461
 50
80.9391820163193358
 51
86.4038976603678464
  0
ARC
  5
916D
  8
0
 10
130.0863709109229944
 20
1.6017970231773271
 30
0.0
 40
0.6716357123135609
 50
74.0332787906925773
 51
80.9391820163193358
  0
ARC
  5
916E
  8
0
 10
130.1534656404523957
 20
1.836298122075914
 30
0.0
 40
0.4277249333076596
 50
63.3559068284399984
 51
74.0332787906925773
  0
ARC
  5
916F
  8
0
 10
130.2870844685469081
 20
2.1026166490097111
 30
0.0
 40
0.1297659612837534
 50
42.1281259996982698
 51
63.3559068284400624
  0
ARC
  5
9170
  8
0
 10
130.3501835780184877
 20
2.1596873583107099
 30
0.0
 40
0.0446862135394641
 50
340.5254369590497276
 51
42.1281259996983479
  0
ARC
  5
9171
  8
0
 10
130.2748268151347872
 20
2.2232116214721329
 30
0.0
 40
0.1412554354346345
 50
284.8110575311861794
 51
326.2769191764908783
  0
ARC
  5
9172
  8
0
 10
130.0097487356555064
 20
0.9088051758143311
 30
0.0
 40
1.402918017937459
 50
85.7480759531915737
 51
90.0184519566432755
  0
ARC
  5
9173
  8
0
 10
130.0227552823407109
 20
1.08374990927896
 30
0.0
 40
1.2274904544712739
 50
81.4360680700996795
 51
85.7480759531915737
  0
ARC
  5
9174
  8
0
 10
130.0780883650203918
 20
1.451187128432406
 30
0.0
 40
0.855910234252186
 50
72.6088708523435145
 51
81.4360680700996795
  0
ARC
  5
9175
  8
0
 10
130.2354270158737108
 20
1.953527914885389
 30
0.0
 40
0.3295057160473083
 50
56.5642660179872934
 51
72.6088708523435429
  0
ARC
  5
9176
  8
0
 10
130.3661181911872973
 20
2.1514627595432501
 30
0.0
 40
0.0923172128802999
 50
27.4158904964005004
 51
56.5642660179881389
  0
ARC
  5
9177
  8
0
 10
130.3978265345741079
 20
2.173945241596666
 30
0.0
 40
0.0540841388690653
 50
325.024795522193017
 51
21.7309866232442417
  0
ARC
  5
9178
  8
0
 10
130.25731233539139
 20
2.3417485736481178
 30
0.0
 40
0.2714517480795343
 50
281.0195785198529848
 51
312.913798353667687
  0
ARC
  5
9179
  8
0
 10
130.4036691902113034
 20
2.1997589617685529
 30
0.0
 40
0.0686169875089141
 50
304.1045773818070757
 51
29.252516064380341
  0
ARC
  5
917A
  8
0
 10
130.0190110352911859
 20
1.1733533894778789
 30
0.0
 40
1.128070433227911
 50
80.2656721866407992
 51
90.4933948468594878
  0
ARC
  5
917B
  8
0
 10
130.0890859362868071
 20
1.581834703461263
 30
0.0
 40
0.7136220339993247
 50
70.3980867316327164
 51
80.2656721866407992
  0
ARC
  5
917C
  8
0
 10
130.2497120666083106
 20
2.0328776218744968
 30
0.0
 40
0.2348314033549939
 50
51.8529474609943506
 51
70.3980867316327448
  0
ARC
  5
917D
  8
0
 10
130.3515233949202923
 20
2.1625030500102218
 30
0.0
 40
0.070003316573582
 50
23.6487086350008511
 51
51.8529474609945424
  0
ARC
  5
917E
  8
0
 10
130.376821885547713
 20
2.173581310296604
 30
0.0
 40
0.042385541880546
 50
309.8656715205465275
 51
23.6487086350000517
  0
ARC
  5
917F
  8
0
 10
130.303601178545108
 20
2.2371463545433441
 30
0.0
 40
0.1389707405037738
 50
293.3765443206298187
 51
316.2511658415178886
  0
ARC
  5
9180
  8
0
 10
131.3846084252134858
 20
1.4408431496609539
 30
0.0
 40
1.1287554648297491
 50
136.9009983944727082
 51
141.6603333692409876
  0
ARC
  5
9181
  8
0
 10
129.5127223845373123
 20
3.0936408406931899
 30
0.0
 40
1.369242265643722
 50
319.921782790722375
 51
340.5448372302124085
  0
ARC
  5
9182
  8
0
 10
130.9707963361163081
 20
2.808296908694297
 30
0.0
 40
0.0315
 50
359.9999999999968168
 51
90.0
  0
LINE
  5
9183
  8
0
 10
130.9729831447953927
 20
2.8860445766610789
 30
0.0
 11
130.9736518868676001
 21
2.8476709244942948
 31
0.0
  0
ARC
  5
9184
  8
0
 10
131.1223423089867879
 20
4.064258827404827
 30
0.0
 40
1.1384257746881661
 50
250.7204518305630927
 51
259.9756091755642728
  0
ARC
  5
9185
  8
0
 10
130.9257317350567007
 20
3.502184059383342
 30
0.0
 40
0.5429564113893163
 50
229.2873759414848962
 51
250.7204518305630927
  0
ARC
  5
9186
  8
0
 10
130.7935806767686131
 20
3.329308060213056
 30
0.0
 40
0.3259637523085858
 50
199.319115629659791
 51
227.0735255855373111
  0
ARC
  5
9187
  8
0
 10
131.2553039449933863
 20
3.4488564017177161
 30
0.0
 40
0.8022323539801273
 50
185.5059062042946039
 51
196.4657675409827107
  0
ARC
  5
9188
  8
0
 10
130.9138921172155108
 20
2.8850147904926202
 30
0.0
 40
0.0591
 50
0.9983991083356515
 51
79.9756091755701277
  0
LINE
  5
9189
  8
0
 10
130.9344041459216896
 20
2.8397969086942938
 30
0.0
 11
130.9344041459216896
 21
2.8476709244942948
 31
0.0
  0
LINE
  5
918A
  8
0
 10
130.547912676767595
 20
3.3718835228942932
 30
0.0
 11
130.5323764477589066
 21
4.2621475713550883
 31
0.0
  0
ARC
  5
918B
  8
0
 10
130.1408666884674972
 20
2.923736945002382
 30
0.0
 40
1.4096821270668209
 50
74.5380816122259091
 51
80.1112121906211314
  0
ARC
  5
918C
  8
0
 10
130.2205972194871038
 20
-1.3769754741287179
 30
0.0
 40
5.6932541884174173
 50
88.5808453116496537
 51
89.7514739154564722
  0
ARC
  5
918D
  8
0
 10
130.3578645742416882
 20
4.1638099896805487
 30
0.0
 40
0.1507686554961629
 50
80.4184083280137543
 51
88.5808453116496537
  0
ARC
  5
918E
  8
0
 10
130.5109797056618959
 20
4.2617741712544834
 30
0.0
 40
0.0214
 50
0.9997820362806888
 51
74.5380816122200542
  0
ARC
  5
918F
  8
0
 10
129.9953432346584918
 20
8.1576881944848605
 30
0.0
 40
3.9885572435103391
 50
270.2004457774904722
 51
271.2456517683164066
  0
ARC
  5
9190
  8
0
 10
130.032919752985606
 20
6.4295767566962576
 30
0.0
 40
2.2600373170572738
 50
271.2456466263159882
 51
274.782318293571393
  0
ARC
  5
9191
  8
0
 10
130.1634595956579119
 20
4.8692446208172511
 30
0.0
 40
0.694254118532767
 50
274.782318293571393
 51
290.0183638366332843
  0
ARC
  5
9192
  8
0
 10
130.4021885743885889
 20
4.166215184330861
 30
0.0
 40
0.050731408806029
 50
13.3353099202312393
 51
91.2096738863089627
  0
ARC
  5
9193
  8
0
 10
130.3620980426584879
 20
5.4716691647214928
 30
0.0
 40
1.2553404431106121
 50
265.9923317787274186
 51
271.7812016870595926
  0
ARC
  5
9194
  8
0
 10
129.9249905432353103
 20
-24.6562607776242118
 30
0.0
 40
28.8777726549598803
 50
89.3068019156983155
 51
89.8327292398144124
  0
ARC
  5
9195
  8
0
 10
130.5993704122184056
 20
4.2163800838069214
 30
0.0
 40
0.1527406609656257
 50
194.5854595606705004
 51
212.0287750401755034
  0
ARC
  5
9196
  8
0
 10
130.296398656271009
 20
4.0268506823938628
 30
0.0
 40
0.2046292858707627
 50
358.4692460569822856
 51
32.0287750401754181
  0
ARC
  5
9197
  8
0
 10
137.1037478250783863
 20
4.6638493032840946
 30
0.0
 40
6.6339758411029219
 50
185.5574994147573875
 51
188.4892646563035896
  0
ARC
  5
9198
  8
0
 10
130.0223390887915116
 20
1.08412475961704
 30
0.0
 40
1.200980541990508
 50
90.6222210447295851
 51
95.5850711688170236
  0
ARC
  5
9199
  8
0
 10
130.0037056698729998
 20
1.2746742820023169
 30
0.0
 40
1.0095221267096739
 50
95.5850711688170236
 51
102.1598176098082007
  0
ARC
  5
919A
  8
0
 10
129.8765980110138969
 20
1.8437334497465849
 30
0.0
 40
0.4264791777524762
 50
101.5700756099699049
 51
118.6610744279440013
  0
ARC
  5
919B
  8
0
 10
129.6536172661969033
 20
2.169010373155972
 30
0.0
 40
0.0302137092511301
 50
159.3912173850781926
 51
190.3424968211064083
  0
ARC
  5
919C
  8
0
 10
129.6948130370871866
 20
2.153518693583155
 30
0.0
 40
0.0742260220195726
 50
123.3820164960910972
 51
159.3912173850775105
  0
ARC
  5
919D
  8
0
 10
129.8483892546697973
 20
1.9204489873107129
 30
0.0
 40
0.3533445319556291
 50
104.0985657815036944
 51
123.3820164960910972
  0
ARC
  5
919E
  8
0
 10
130.0203900866366098
 20
1.235612419025629
 30
0.0
 40
1.0594503395069781
 50
96.1756731677000829
 51
104.0985657815036944
  0
ARC
  5
919F
  8
0
 10
130.0130503147888135
 20
1.3034443949320751
 30
0.0
 40
0.9912224184910925
 50
90.2169580126279413
 51
96.1756731676992871
  0
ARC
  5
91A0
  8
0
 10
130.0149675656618058
 20
0.7971258823036554
 30
0.0
 40
1.497544561085276
 50
84.1552561229643032
 51
90.2169580126279413
  0
ARC
  5
91A1
  8
0
 10
130.1039595020137085
 20
1.6664819838095091
 30
0.0
 40
0.6236454845546257
 50
70.2845025832915979
 51
84.1552561229643032
  0
ARC
  5
91A2
  8
0
 10
130.2434132612769133
 20
2.0556295377181408
 30
0.0
 40
0.2102653088256551
 50
48.3874722280402665
 51
70.2845025832915979
  0
ARC
  5
91A3
  8
0
 10
130.3639544836842958
 20
2.1913386062099778
 30
0.0
 40
0.0287518449438217
 50
17.3037552735451392
 51
48.3874722280412186
  0
ARC
  5
91A4
  8
0
 10
130.2503971230468949
 20
2.2743869318676628
 30
0.0
 40
0.1968658715718374
 50
305.0569474258783202
 51
316.1128027782762047
  0
ARC
  5
91A5
  8
0
 10
130.3585474439549046
 20
2.1703580882985971
 30
0.0
 40
0.046804243542504
 50
316.1128027782762047
 51
9.7857570612288871
  0
ARC
  5
91A6
  8
0
 10
130.3184306670171964
 20
2.140159699064192
 30
0.0
 40
0.0943028530083495
 50
23.8650778441933404
 51
66.9000064642325611
  0
ARC
  5
91A7
  8
0
 10
130.1093100230442019
 20
1.678778509836208
 30
0.0
 40
0.6008439392951312
 50
65.8188824802692523
 51
84.8190274910244
  0
ARC
  5
91A8
  8
0
 10
130.0177827501030094
 20
0.9920729257078289
 30
0.0
 40
1.2933374037225309
 50
83.5278823017694236
 51
88.8900107550645089
  0
ARC
  5
91A9
  8
0
 10
130.0996785046428101
 20
-16.2572151490690295
 30
0.0
 40
18.5424699071199015
 50
90.1756392433899947
 51
90.2792779672539467
  0
LINE
  5
91AA
  8
0
 10
129.7978222953618967
 20
2.1018778934102769
 30
0.0
 11
129.8044528503058075
 21
2.0909196262973579
 31
0.0
  0
LINE
  5
91AB
  8
0
 10
129.8044528503058075
 20
2.0909196262973579
 30
0.0
 11
129.8241373122774007
 21
2.0802329193839451
 31
0.0
  0
LINE
  5
91AC
  8
0
 10
129.8241373122774007
 20
2.0802329193839451
 30
0.0
 11
129.8337950813373993
 21
2.0855947422305858
 31
0.0
  0
LINE
  5
91AD
  8
0
 10
129.8337950813373993
 20
2.0855947422305858
 30
0.0
 11
129.8337950813082102
 21
2.0859971642158111
 31
0.0
  0
LINE
  5
91AE
  8
0
 10
129.8337950813082102
 20
2.0859971642158111
 30
0.0
 11
129.8434528504168952
 21
2.092413982408194
 31
0.0
  0
LINE
  5
91AF
  8
0
 10
129.8434528504168952
 20
2.092413982408194
 30
0.0
 11
129.8631373123893979
 21
2.0840668604283201
 31
0.0
  0
LINE
  5
91B0
  8
0
 10
129.8631373123893979
 20
2.0840668604283201
 30
0.0
 11
129.8727950813675989
 21
2.0697145648899129
 31
0.0
  0
LINE
  5
91B1
  8
0
 10
129.8727950813675989
 20
2.0697145648899129
 30
0.0
 11
129.8727950813675989
 21
2.0693217794469141
 31
0.0
  0
LINE
  5
91B2
  8
0
 10
129.8727950813675989
 20
2.0693217794469141
 30
0.0
 11
129.8824528503675992
 21
2.0561903355942941
 31
0.0
  0
LINE
  5
91B3
  8
0
 10
129.8824528503675992
 20
2.0561903355942941
 30
0.0
 11
129.9021373123707974
 21
2.050358182703822
 31
0.0
  0
LINE
  5
91B4
  8
0
 10
129.9021373123707974
 20
2.050358182703822
 30
0.0
 11
129.9117950813192977
 21
2.0576021155021968
 31
0.0
  0
LINE
  5
91B5
  8
0
 10
129.9117950813192977
 20
2.0576021155021968
 30
0.0
 11
129.9117950813675861
 21
2.057988503641119
 31
0.0
  0
LINE
  5
91B6
  8
0
 10
129.9117950813675861
 20
2.057988503641119
 30
0.0
 11
129.9214528503675865
 21
2.0662227551355659
 31
0.0
  0
LINE
  5
91B7
  8
0
 10
129.9214528503675865
 20
2.0662227551355659
 30
0.0
 11
129.9411373123307953
 21
2.0623295726694622
 31
0.0
  0
LINE
  5
91B8
  8
0
 10
129.9411373123307953
 20
2.0623295726694622
 30
0.0
 11
129.9507950813676018
 21
2.0503800998478399
 31
0.0
  0
LINE
  5
91B9
  8
0
 10
129.9507950813676018
 20
2.0503800998478399
 30
0.0
 11
129.9507950813381001
 21
2.049997643143409
 31
0.0
  0
LINE
  5
91BA
  8
0
 10
129.9507950813381001
 20
2.049997643143409
 30
0.0
 11
129.9411373123676015
 21
2.0418711595124388
 31
0.0
  0
LINE
  5
91BB
  8
0
 10
129.9411373123676015
 20
2.0418711595124388
 30
0.0
 11
129.921598591955501
 21
2.0456267164694699
 31
0.0
  0
LINE
  5
91BC
  8
0
 10
129.921598591955501
 20
2.0456267164694699
 30
0.0
 11
129.9117950813675861
 21
2.0576021154942938
 31
0.0
  0
LINE
  5
91BD
  8
0
 10
129.9507950813676018
 20
2.049997643094295
 30
0.0
 11
129.9604528504378038
 21
2.0391086129696681
 31
0.0
  0
LINE
  5
91BE
  8
0
 10
129.9604528504378038
 20
2.0391086129696681
 30
0.0
 11
129.9801373123675887
 21
2.0372434045942942
 31
0.0
  0
LINE
  5
91BF
  8
0
 10
129.9801373123675887
 20
2.0372434045942942
 30
0.0
 11
129.9897950813675891
 21
2.0462541111316659
 31
0.0
  0
LINE
  5
91C0
  8
0
 10
129.9897950813675891
 20
2.0462541111316659
 30
0.0
 11
129.9897950813499108
 21
2.0466346919231011
 31
0.0
  0
LINE
  5
91C1
  8
0
 10
129.9897950813499108
 20
2.0466346919231011
 30
0.0
 11
129.9994528503675895
 21
2.0566392027895701
 31
0.0
  0
LINE
  5
91C2
  8
0
 10
129.9994528490545918
 20
2.0363316809467431
 30
0.0
 11
129.9897950813675891
 21
2.0462541111316659
 31
0.0
  0
LINE
  5
91C3
  8
0
 10
129.9897950813499108
 20
2.0466346919231011
 30
0.0
 11
129.9801373123173107
 21
2.057575441863329
 31
0.0
  0
LINE
  5
91C4
  8
0
 10
129.9801373123173107
 20
2.057575441863329
 30
0.0
 11
129.9604528503676022
 21
2.0594911911942928
 31
0.0
  0
LINE
  5
91C5
  8
0
 10
129.9604528503676022
 20
2.0594911911942928
 30
0.0
 11
129.9507950813676018
 21
2.0503800998478399
 31
0.0
  0
LINE
  5
91C6
  8
0
 10
129.9117950813675861
 20
2.0579885035601801
 30
0.0
 11
129.9021373123676142
 21
2.071057166372877
 31
0.0
  0
LINE
  5
91C7
  8
0
 10
129.9021373123676142
 20
2.071057166372877
 30
0.0
 11
129.8824528504316049
 21
2.0770616156870041
 31
0.0
  0
LINE
  5
91C8
  8
0
 10
129.8824528504316049
 20
2.0770616156870041
 30
0.0
 11
129.8727950813675989
 21
2.0697145647942938
 31
0.0
  0
LINE
  5
91C9
  8
0
 10
129.8727950813675989
 20
2.0693217794469141
 30
0.0
 11
129.863137312253599
 21
2.0629871480636321
 31
0.0
  0
LINE
  5
91CA
  8
0
 10
129.863137312253599
 20
2.0629871480636321
 30
0.0
 11
129.843452850353799
 21
2.071074843926469
 31
0.0
  0
LINE
  5
91CB
  8
0
 10
129.843452850353799
 20
2.071074843926469
 30
0.0
 11
129.8337950813373993
 21
2.0855947422305858
 31
0.0
  0
LINE
  5
91CC
  8
0
 10
129.8337950813350972
 20
2.0859971642322739
 30
0.0
 11
129.8241373123788094
 21
2.1018819478681841
 31
0.0
  0
LINE
  5
91CD
  8
0
 10
129.8241373123788094
 20
2.1018819478681841
 30
0.0
 11
129.8132881461685884
 21
2.107797448572005
 31
0.0
  0
LINE
  5
91CE
  8
0
 10
129.8339035196993052
 20
2.110858501056124
 30
0.0
 11
129.8339035196702014
 21
2.1112609230413488
 31
0.0
  0
LINE
  5
91CF
  8
0
 10
129.8339035196702014
 20
2.1112609230413488
 30
0.0
 11
129.842254943886104
 21
2.116809779121668
 31
0.0
  0
LINE
  5
91D0
  8
0
 10
129.8492436522330991
 20
2.118597675253441
 30
0.0
 11
129.8631373123675985
 21
2.1125976747942938
 31
0.0
  0
LINE
  5
91D1
  8
0
 10
129.8631373123675985
 20
2.1125976747942938
 30
0.0
 11
129.87290351972959
 21
2.094978323715452
 31
0.0
  0
LINE
  5
91D2
  8
0
 10
129.87290351972959
 20
2.094978323715452
 30
0.0
 11
129.87290351972959
 21
2.0945855382724519
 31
0.0
  0
LINE
  5
91D3
  8
0
 10
129.87290351972959
 20
2.0945855382724519
 30
0.0
 11
129.8824528504397051
 21
2.080343017863183
 31
0.0
  0
LINE
  5
91D4
  8
0
 10
129.8824528504397051
 20
2.080343017863183
 30
0.0
 11
129.9022457507327886
 21
2.0743081224942941
 31
0.0
  0
LINE
  5
91D5
  8
0
 10
129.9022457507327886
 20
2.0743081224942941
 30
0.0
 11
129.9119035196812035
 21
2.0828658743277351
 31
0.0
  0
LINE
  5
91D6
  8
0
 10
129.9119035196812035
 20
2.0828658743277351
 30
0.0
 11
129.9119035197296057
 21
2.0832522624666581
 31
0.0
  0
LINE
  5
91D7
  8
0
 10
129.9119035197296057
 20
2.0832522624666581
 30
0.0
 11
129.9214528503675865
 21
2.093885449859143
 31
0.0
  0
LINE
  5
91D8
  8
0
 10
129.9214528503675865
 20
2.093885449859143
 30
0.0
 11
129.9411373123676015
 21
2.0898151501942941
 31
0.0
  0
LINE
  5
91D9
  8
0
 10
129.9411373123676015
 20
2.0898151501942941
 30
0.0
 11
129.950903519729593
 21
2.0756438586733781
 31
0.0
  0
LINE
  5
91DA
  8
0
 10
129.950903519729593
 20
2.0756438586733781
 30
0.0
 11
129.9509035197000912
 21
2.0752614019689481
 31
0.0
  0
LINE
  5
91DB
  8
0
 10
129.9509035197000912
 20
2.0752614019689481
 30
0.0
 11
129.9411373123676015
 21
2.0655381058667319
 31
0.0
  0
LINE
  5
91DC
  8
0
 10
129.9411373123676015
 20
2.0655381058667319
 30
0.0
 11
129.9214528503675865
 21
2.0694499524885752
 31
0.0
  0
LINE
  5
91DD
  8
0
 10
129.9214528503675865
 20
2.0694499524885752
 30
0.0
 11
129.9119035197296057
 21
2.0828658743198321
 31
0.0
  0
LINE
  5
91DE
  8
0
 10
129.950903519729593
 20
2.0752614019198332
 30
0.0
 11
129.9604528503676022
 21
2.0626863721813762
 31
0.0
  0
LINE
  5
91DF
  8
0
 10
129.9604528503676022
 20
2.0626863721813762
 30
0.0
 11
129.9801185207722085
 21
2.0607630997786748
 31
0.0
  0
LINE
  5
91E0
  8
0
 10
129.9801185207722085
 20
2.0607630997786748
 30
0.0
 11
129.9899035197296087
 21
2.0715178699572041
 31
0.0
  0
LINE
  5
91E1
  8
0
 10
129.9899035197296087
 20
2.0715178699572041
 30
0.0
 11
129.9899035197119019
 21
2.0718984507486389
 31
0.0
  0
LINE
  5
91E2
  8
0
 10
129.9899035197119019
 20
2.0718984507486389
 30
0.0
 11
129.9994528503675895
 21
2.083873168009279
 31
0.0
  0
LINE
  5
91E3
  8
0
 10
129.9995612888037897
 20
2.0598211785101892
 30
0.0
 11
129.9899035197296087
 21
2.0715178699572041
 31
0.0
  0
LINE
  5
91E4
  8
0
 10
129.9899035197119019
 20
2.0718984507486389
 30
0.0
 11
129.9801373123860913
 21
2.084850227277748
 31
0.0
  0
LINE
  5
91E5
  8
0
 10
129.9801373123860913
 20
2.084850227277748
 30
0.0
 11
129.9604528503676022
 21
2.0868502065862371
 31
0.0
  0
LINE
  5
91E6
  8
0
 10
129.9604528503676022
 20
2.0868502065862371
 30
0.0
 11
129.950903519729593
 21
2.0756438586733781
 31
0.0
  0
LINE
  5
91E7
  8
0
 10
129.9119035197296057
 20
2.0832522623857179
 30
0.0
 11
129.9021373123676142
 21
2.098945675094293
 31
0.0
  0
LINE
  5
91E8
  8
0
 10
129.9021373123676142
 20
2.098945675094293
 30
0.0
 11
129.8824528503675992
 21
2.1052400802544069
 31
0.0
  0
LINE
  5
91E9
  8
0
 10
129.8824528503675992
 20
2.1052400802544069
 30
0.0
 11
129.87290351972959
 21
2.0949783236198321
 31
0.0
  0
LINE
  5
91EA
  8
0
 10
129.87290351972959
 20
2.0945855382724519
 30
0.0
 11
129.8631390575745002
 21
2.0876372811534121
 31
0.0
  0
LINE
  5
91EB
  8
0
 10
129.8631390575745002
 20
2.0876372811534121
 30
0.0
 11
129.8435612887157902
 21
2.095728546456646
 31
0.0
  0
LINE
  5
91EC
  8
0
 10
129.8435612887157902
 20
2.095728546456646
 30
0.0
 11
129.8339035196993052
 21
2.110858501056124
 31
0.0
  0
LINE
  5
91ED
  8
0
 10
129.8734897252807059
 20
2.1237311732496771
 30
0.0
 11
129.8824528503675992
 21
2.1091401453923271
 31
0.0
  0
LINE
  5
91EE
  8
0
 10
129.8824528503675992
 20
2.1091401453923271
 30
0.0
 11
129.9021373123676142
 21
2.1028005029152559
 31
0.0
  0
LINE
  5
91EF
  8
0
 10
129.9021373123676142
 20
2.1028005029152559
 30
0.0
 11
129.9119243010694049
 21
2.112931960557384
 31
0.0
  0
LINE
  5
91F0
  8
0
 10
129.9119243010694049
 20
2.112931960557384
 30
0.0
 11
129.9119243011178071
 21
2.1133183486963061
 31
0.0
  0
LINE
  5
91F1
  8
0
 10
129.9119243011178071
 20
2.1133183486963061
 30
0.0
 11
129.9214528503675865
 21
2.1265927583634379
 31
0.0
  0
LINE
  5
91F2
  8
0
 10
129.9214528503675865
 20
2.1265927583634379
 30
0.0
 11
129.9412665320809879
 21
2.1222619283942938
 31
0.0
  0
LINE
  5
91F3
  8
0
 10
129.9412665320809879
 20
2.1222619283942938
 30
0.0
 11
129.9509243011177944
 21
2.105709944903027
 31
0.0
  0
LINE
  5
91F4
  8
0
 10
129.9509243011177944
 20
2.105709944903027
 30
0.0
 11
129.9509243010882926
 21
2.1053274881985971
 31
0.0
  0
LINE
  5
91F5
  8
0
 10
129.9509243010882926
 20
2.1053274881985971
 30
0.0
 11
129.9406285869864917
 21
2.093699670917184
 31
0.0
  0
LINE
  5
91F6
  8
0
 10
129.9406285869864917
 20
2.093699670917184
 30
0.0
 11
129.9214528503675865
 21
2.0977051407849738
 31
0.0
  0
LINE
  5
91F7
  8
0
 10
129.9214528503675865
 20
2.0977051407849738
 30
0.0
 11
129.9119243011178071
 21
2.112931960549481
 31
0.0
  0
LINE
  5
91F8
  8
0
 10
129.9509243011177944
 20
2.1053274881494821
 30
0.0
 11
129.9604528503579104
 21
2.0906227701418318
 31
0.0
  0
LINE
  5
91F9
  8
0
 10
129.9604528503579104
 20
2.0906227701418318
 30
0.0
 11
129.9801373124246027
 21
2.0886097445308329
 31
0.0
  0
LINE
  5
91FA
  8
0
 10
129.9801373124246027
 20
2.0886097445308329
 30
0.0
 11
129.98992430111781
 21
2.101583956186853
 31
0.0
  0
LINE
  5
91FB
  8
0
 10
129.98992430111781
 20
2.101583956186853
 30
0.0
 11
129.9899243011001033
 21
2.1019645369782878
 31
0.0
  0
LINE
  5
91FC
  8
0
 10
129.9899243011001033
 20
2.1019645369782878
 30
0.0
 11
129.9994528504016955
 21
2.115951553778153
 31
0.0
  0
LINE
  5
91FD
  8
0
 10
129.9994528368970919
 20
2.087625834929459
 30
0.0
 11
129.98992430111781
 21
2.101583956186853
 31
0.0
  0
LINE
  5
91FE
  8
0
 10
129.9899243011001033
 20
2.1019645369782878
 30
0.0
 11
129.9800666894603864
 21
2.1169939271661842
 31
0.0
  0
LINE
  5
91FF
  8
0
 10
129.9800666894603864
 20
2.1169939271661842
 30
0.0
 11
129.9604528503676022
 21
2.119111432794293
 31
0.0
  0
LINE
  5
9200
  8
0
 10
129.9604528503676022
 20
2.119111432794293
 30
0.0
 11
129.9509243011177944
 21
2.105709944903027
 31
0.0
  0
LINE
  5
9201
  8
0
 10
129.9119243011178071
 20
2.1133183486153668
 30
0.0
 11
129.9022665321178067
 21
2.1263870114280641
 31
0.0
  0
LINE
  5
9202
  8
0
 10
129.9022665321178067
 20
2.1263870114280641
 30
0.0
 11
129.8977111030405922
 21
2.1277765766133721
 31
0.0
  0
ARC
  5
9203
  8
0
 10
130.0087094731669879
 20
2.4398730935750659
 30
0.0
 40
0.4133790135683793
 50
239.5982397000416881
 51
244.6688350386341142
  0
ARC
  5
9204
  8
0
 10
130.0087094731669879
 20
2.4398730935750659
 30
0.0
 40
0.4133790135683793
 50
245.2567611464596951
 51
250.5144816139801094
  0
ARC
  5
9205
  8
0
 10
130.0087094731669879
 20
2.4398730935750659
 30
0.0
 40
0.4133790135683793
 50
251.0831537893213863
 51
256.1665036441420966
  0
ARC
  5
9206
  8
0
 10
130.0087094731669879
 20
2.4398730935750659
 30
0.0
 40
0.4133790135683793
 50
256.7061919149207938
 51
261.6890117440538006
  0
ARC
  5
9207
  8
0
 10
130.0087094731669879
 20
2.4398730935750659
 30
0.0
 40
0.4133790135683793
 50
262.206854960010503
 51
267.1180492833989888
  0
ARC
  5
9208
  8
0
 10
130.0092096063316092
 20
2.454388333707537
 30
0.0
 40
0.4279025566502125
 50
267.6582427498208858
 51
270.0116925052980719
  0
LINE
  5
9209
  8
0
 10
129.9411565033086049
 20
2.0390188841148542
 30
0.0
 11
129.9214910757341954
 21
2.042871746039129
 31
0.0
  0
LINE
  5
920A
  8
0
 10
129.913655215677494
 20
2.0375710963243701
 30
0.0
 11
129.9214910757341954
 21
2.042871746039129
 31
0.0
  0
LINE
  5
920B
  8
0
 10
129.9489572023285859
 20
2.030835350831885
 30
0.0
 11
129.9411565033086049
 21
2.0390188841148542
 31
0.0
  0
LINE
  5
920C
  8
0
 10
129.952656503858293
 20
2.030312019386554
 30
0.0
 11
129.9604217838490001
 21
2.036326302591287
 31
0.0
  0
LINE
  5
920D
  8
0
 10
129.9879254701899924
 20
2.027016903020745
 30
0.0
 11
129.980207609265392
 21
2.0344327708334471
 31
0.0
  0
LINE
  5
920E
  8
0
 10
129.980207609265392
 20
2.0344327708334471
 30
0.0
 11
129.9604217838490001
 21
2.036326302591287
 31
0.0
  0
LINE
  5
920F
  8
0
 10
129.9917255094987922
 20
2.026843126336745
 30
0.0
 11
129.9995104003390054
 21
2.033661243475728
 31
0.0
  0
LINE
  5
9210
  8
0
 10
129.9098700702820111
 20
2.038484277965904
 30
0.0
 11
129.9022602031303961
 21
2.0474273976136419
 31
0.0
  0
LINE
  5
9211
  8
0
 10
129.8746938266027939
 20
2.0488206478152291
 30
0.0
 11
129.882388471568504
 21
2.0533851543883581
 31
0.0
  0
LINE
  5
9212
  8
0
 10
129.9022602031303961
 20
2.0474273976136419
 30
0.0
 11
129.882388471568504
 21
2.0533851543883581
 31
0.0
  0
LINE
  5
9213
  8
0
 10
129.8708192167399886
 20
2.0501700193746131
 30
0.0
 11
129.8631423002304928
 21
2.0601541973058959
 31
0.0
  0
LINE
  5
9214
  8
0
 10
129.8631423002304928
 20
2.0601541973058959
 30
0.0
 11
129.8433495506324107
 21
2.0681346614920222
 31
0.0
  0
LINE
  5
9215
  8
0
 10
129.8356886247144928
 20
2.0644453443881341
 30
0.0
 11
129.8433495506324107
 21
2.0681346614920222
 31
0.0
  0
LINE
  5
9216
  8
0
 10
129.8242460073680036
 20
2.0771436462563968
 30
0.0
 11
129.8318454445787893
 21
2.0662404875965001
 31
0.0
  0
LINE
  5
9217
  8
0
 10
129.8044432892226894
 20
2.0879387618527079
 30
0.0
 11
129.8242460073680036
 21
2.0771436462563968
 31
0.0
  0
LINE
  5
9218
  8
0
 10
129.7946010206493099
 20
2.0844475455338318
 30
0.0
 11
129.8044432892226894
 21
2.0879387618527079
 31
0.0
  0
LINE
  5
9219
  8
0
 10
129.7968527530507004
 20
2.0810646842080009
 30
0.0
 11
129.7946010206493099
 21
2.0844475455338318
 31
0.0
  0
LINE
  5
921A
  8
0
 10
129.7995147808767058
 20
2.0833344707354771
 30
0.0
 11
129.7968527530507004
 21
2.0810646842080009
 31
0.0
  0
ARC
  5
921B
  8
0
 10
130.0092697191641093
 20
2.393820632037591
 30
0.0
 40
0.4177015219203724
 50
262.206639229339487
 51
267.0758433831687739
  0
ARC
  5
921C
  8
0
 10
130.0090458462802872
 20
2.3921972327924621
 30
0.0
 40
0.4160626714511112
 50
256.7422120607541274
 51
261.6967254146358073
  0
ARC
  5
921D
  8
0
 10
129.9808861380896872
 20
2.0620047621859392
 30
0.0
 40
0.0867581993920245
 50
250.9920660600600968
 51
256.377723203594428
  0
ARC
  5
921E
  8
0
 10
129.9734017765881049
 20
2.075975659392042
 30
0.0
 40
0.1003742059185037
 50
273.8476816616577025
 51
278.3401948792280791
  0
ARC
  5
921F
  8
0
 10
130.0092595620238001
 20
2.3892502496922878
 30
0.0
 40
0.414446993020608
 50
263.2369565812539918
 51
265.9706350818939882
  0
ARC
  5
9220
  8
0
 10
129.9443787853223
 20
2.0759164018015861
 30
0.0
 40
0.0955304418592017
 50
268.0555059218781935
 51
272.7493591564887083
  0
ARC
  5
9221
  8
0
 10
130.0090085690117121
 20
2.3875443845535549
 30
0.0
 40
0.4127223013578617
 50
257.7520952042947897
 51
260.5348449444718995
  0
ARC
  5
9222
  8
0
 10
129.9860563208411008
 20
2.163968489340506
 30
0.0
 40
0.1910092261043988
 50
247.7169807804393997
 51
250.2314342268876999
  0
ARC
  5
9223
  8
0
 10
130.0084083703673912
 20
2.3894857150934761
 30
0.0
 40
0.4132770806991502
 50
251.1129458271379917
 51
256.219004757097423
  0
ARC
  5
9224
  8
0
 10
129.9153302899779021
 20
2.079844158032798
 30
0.0
 40
0.0918956473113344
 50
261.7458228482540221
 51
266.6504638060706043
  0
ARC
  5
9225
  8
0
 10
130.0082844762513048
 20
2.3846150471457408
 30
0.0
 40
0.4097038577774396
 50
252.1137499967865949
 51
254.9843627888145079
  0
ARC
  5
9226
  8
0
 10
129.9922404077532008
 20
2.233983165939232
 30
0.0
 40
0.263255671704776
 50
243.4641888090000066
 51
245.3522899373463986
  0
ARC
  5
9227
  8
0
 10
129.8983769162381066
 20
2.1449228637631061
 30
0.0
 40
0.1477539274391769
 50
256.1156664389334878
 51
259.3067665599388079
  0
ARC
  5
9228
  8
0
 10
130.0718517796487959
 20
2.533810520646445
 30
0.0
 40
0.5718577332972873
 50
246.4594397461173116
 51
248.5706545467351134
  0
ARC
  5
9229
  8
0
 10
129.8699665078320891
 20
2.064268206436418
 30
0.0
 40
0.0608086600157069
 50
235.6199267523977028
 51
244.1499249594459968
  0
ARC
  5
922A
  8
0
 10
130.0071410970635952
 20
2.3857684744393639
 30
0.0
 40
0.4093495445982086
 50
245.2293684925051878
 51
250.5688347275327885
  0
ARC
  5
922B
  8
0
 10
129.9106243718489964
 20
2.2135650510849461
 30
0.0
 40
0.2140637171224175
 50
222.588385182432603
 51
248.0277867388103914
  0
ARC
  5
922C
  8
0
 10
130.0124650085114979
 20
2.3917209132238759
 30
0.0
 40
0.418307488665011
 50
244.2192247548678949
 51
263.4494755991075863
  0
ARC
  5
922D
  8
0
 10
130.0085736696190111
 20
2.3523424095580969
 30
0.0
 40
0.3787426584652945
 50
263.3547238202658036
 51
270.1094140488385733
  0
ARC
  5
922E
  8
0
 10
130.0092629860311888
 20
2.4034085273177421
 30
0.0
 40
0.4224778969966936
 50
253.462767350825203
 51
270.004603368317305
  0
ARC
  5
922F
  8
0
 10
130.0065949974153057
 20
2.3944108605594829
 30
0.0
 40
0.4130930071120674
 50
239.5360418870812964
 51
253.4622882976196934
  0
LINE
  5
9230
  8
0
 10
129.7576116043435093
 20
2.0754699687057339
 30
0.0
 11
129.765452850299198
 21
2.065999953258256
 31
0.0
  0
LINE
  5
9231
  8
0
 10
129.765452850299198
 20
2.065999953258256
 30
0.0
 11
129.7851373123675955
 21
2.052770162040177
 31
0.0
  0
LINE
  5
9232
  8
0
 10
129.7851373123675955
 20
2.052770162040177
 30
0.0
 11
129.7937994123369094
 21
2.051697573594085
 31
0.0
  0
LINE
  5
9233
  8
0
 10
129.7937995667676034
 20
2.0529608500942942
 30
0.0
 11
129.7851373123812095
 21
2.063305943619258
 31
0.0
  0
LINE
  5
9234
  8
0
 10
129.7851373123812095
 20
2.063305943619258
 30
0.0
 11
129.765452850367609
 21
2.0765357346942941
 31
0.0
  0
LINE
  5
9235
  8
0
 10
129.765452850367609
 20
2.0765357346942941
 30
0.0
 11
129.7592572993725923
 21
2.0772992262227312
 31
0.0
  0
LINE
  5
9236
  8
0
 10
129.7556106194464007
 20
2.068339144445809
 30
0.0
 11
129.765452850367609
 21
2.0647648352978041
 31
0.0
  0
LINE
  5
9237
  8
0
 10
129.765452850367609
 20
2.0647648352978041
 30
0.0
 11
129.7851373123675955
 21
2.0515234818359049
 31
0.0
  0
LINE
  5
9238
  8
0
 10
129.7851373123675955
 20
2.0515234818359049
 30
0.0
 11
129.7947950813774014
 21
2.041721654281532
 31
0.0
  0
LINE
  5
9239
  8
0
 10
129.7947950813774014
 20
2.041721654281532
 30
0.0
 11
129.7851373123675955
 21
2.044753446494294
 31
0.0
  0
LINE
  5
923A
  8
0
 10
129.7851373123675955
 20
2.044753446494294
 30
0.0
 11
129.7654528504249072
 21
2.0581587301173179
 31
0.0
  0
LINE
  5
923B
  8
0
 10
129.7654528504249072
 20
2.0581587301173179
 30
0.0
 11
129.7556106194464007
 21
2.068339144445809
 31
0.0
  0
LINE
  5
923C
  8
0
 10
129.7633904025589118
 20
2.0811666042527159
 30
0.0
 11
129.765452850367609
 21
2.078332391565771
 31
0.0
  0
LINE
  5
923D
  8
0
 10
129.765452850367609
 20
2.078332391565771
 30
0.0
 11
129.7851373123675955
 21
2.0650910379601082
 31
0.0
  0
LINE
  5
923E
  8
0
 10
129.7851373123675955
 20
2.0650910379601082
 30
0.0
 11
129.7947950813675959
 21
2.0657557911376201
 31
0.0
  0
LINE
  5
923F
  8
0
 10
129.7947950813675959
 20
2.0657557911376201
 30
0.0
 11
129.7851373123675955
 21
2.0793925655973791
 31
0.0
  0
LINE
  5
9240
  8
0
 10
129.7851373123675955
 20
2.0793925655973791
 30
0.0
 11
129.7720664867312053
 21
2.0880503543295621
 31
0.0
  0
ARC
  5
9241
  8
0
 10
130.008660402622013
 20
2.4300945622290349
 30
0.0
 40
0.4182626999796222
 50
239.6243328584284882
 51
270.0871947740128007
  0
LINE
  5
9242
  8
0
 10
129.7947950810641089
 20
2.0417216543799031
 30
0.0
 11
129.8044528504757977
 21
2.050103729277903
 31
0.0
  0
LINE
  5
9243
  8
0
 10
129.8044528504757977
 20
2.050103729277903
 30
0.0
 11
129.8205335991611946
 21
2.0565278740724571
 31
0.0
  0
LINE
  5
9244
  8
0
 10
129.8188639402380034
 20
2.0573734015216938
 30
0.0
 11
129.8044528503675963
 21
2.0516196164942939
 31
0.0
  0
LINE
  5
9245
  8
0
 10
129.8044528503675963
 20
2.0516196164942939
 30
0.0
 11
129.7947950813675959
 21
2.0526683244942951
 31
0.0
  0
LINE
  5
9246
  8
0
 10
129.7947950813675959
 20
2.0526683244942951
 30
0.0
 11
129.7947950813675959
 21
2.0528657848942942
 31
0.0
  0
LINE
  5
9247
  8
0
 10
129.7947950813675959
 20
2.0528657848942942
 30
0.0
 11
129.7937995669348936
 21
2.0529608498944341
 31
0.0
  0
LINE
  5
9248
  8
0
 10
129.7937988083479013
 20
2.0516976483832918
 30
0.0
 11
129.7943912267523956
 21
2.052274873669333
 31
0.0
  0
LINE
  5
9249
  8
0
 10
129.7943912267523956
 20
2.052274873669333
 30
0.0
 11
129.7947950813720865
 21
2.0526683245719521
 31
0.0
  0
LINE
  5
924A
  8
0
 10
129.7947950813675959
 20
2.0528657848942942
 30
0.0
 11
129.8044528503675963
 21
2.0621553980605301
 31
0.0
  0
LINE
  5
924B
  8
0
 10
129.8044528503675963
 20
2.0621553980605301
 30
0.0
 11
129.8074683557917126
 21
2.0633992015816212
 31
0.0
  0
LINE
  5
924C
  8
0
 10
129.7971585827158094
 20
2.06924741124873
 30
0.0
 11
129.7961172248967046
 21
2.0662027116107402
 31
0.0
  0
LINE
  5
924D
  8
0
 10
129.7961172248967046
 20
2.0662027116107402
 30
0.0
 11
129.7947950813675959
 21
2.065755791194293
 31
0.0
  0
LINE
  5
924E
  8
0
 10
129.7961172249410993
 20
2.066202711613891
 30
0.0
 11
129.7984706496264948
 21
2.0684815650434909
 31
0.0
  0
ARC
  5
924F
  8
0
 10
129.9687960814605958
 20
2.310094448623591
 30
0.0
 40
0.3245527580362589
 50
237.5411442815747876
 51
245.0636657536269922
  0
ARC
  5
9250
  8
0
 10
129.8595744531438072
 20
2.103184464663348
 30
0.0
 40
0.0916459199625932
 50
247.2522649830061141
 51
252.4640060430319863
  0
ARC
  5
9251
  8
0
 10
129.8680677282578984
 20
2.1234408722761779
 30
0.0
 40
0.1136108413496986
 50
235.9485808174663077
 51
247.2522649830061141
  0
ARC
  5
9252
  8
0
 10
129.9778451802027064
 20
2.2858779969430278
 30
0.0
 40
0.3096641719144309
 50
233.7208224827670051
 51
235.9485808174663077
  0
LINE
  5
9253
  8
0
 10
129.9546651634643126
 20
2.1338043761968488
 30
0.0
 11
129.9604528504914072
 21
2.1235601179839811
 31
0.0
  0
LINE
  5
9254
  8
0
 10
129.9604528504914072
 20
2.1235601179839811
 30
0.0
 11
129.9801373122845121
 21
2.1214177803196561
 31
0.0
  0
LINE
  5
9255
  8
0
 10
129.9801373122845121
 20
2.1214177803196561
 30
0.0
 11
129.9891047703735012
 21
2.1353619243012338
 31
0.0
  0
LINE
  5
9256
  8
0
 10
129.980207609265392
 20
2.0344327708334471
 30
0.0
 11
129.9800254307529883
 21
2.0274904623094439
 31
0.0
  0
LINE
  5
9257
  8
0
 10
129.9604217838490001
 20
2.036326302591287
 30
0.0
 11
129.9597591697263965
 21
2.0294025384169081
 31
0.0
  0
LINE
  5
9258
  8
0
 10
129.9411565033086049
 20
2.0390188841148542
 30
0.0
 11
129.9413689655441999
 21
2.032015931210752
 31
0.0
  0
LINE
  5
9259
  8
0
 10
129.9214910757341954
 20
2.042871746039129
 30
0.0
 11
129.9214910757341954
 21
2.0357998823768688
 31
0.0
  0
LINE
  5
925A
  8
0
 10
129.882388471568504
 20
2.0533851543883581
 30
0.0
 11
129.882388471568504
 21
2.046267690393234
 31
0.0
  0
LINE
  5
925B
  8
0
 10
129.8631423002304928
 20
2.0601541973058959
 30
0.0
 11
129.8631423002304928
 21
2.0529720635660471
 31
0.0
  0
LINE
  5
925C
  8
0
 10
129.8433495506324107
 20
2.0681346614920222
 30
0.0
 11
129.8433495506324107
 21
2.0610085994902572
 31
0.0
  0
LINE
  5
925D
  8
0
 10
129.8242460073680036
 20
2.0771436462563968
 30
0.0
 11
129.8242460073680036
 21
2.0699333165245242
 31
0.0
  0
LINE
  5
925E
  8
0
 10
129.8044432892226894
 20
2.0879387618527079
 30
0.0
 11
129.8044432892226894
 21
2.0804881537742901
 31
0.0
  0
LINE
  5
925F
  8
0
 10
129.8044528503058075
 20
2.0909196262973579
 30
0.0
 11
129.8044528503058075
 21
2.1045138647482791
 31
0.0
  0
LINE
  5
9260
  8
0
 10
129.8241373122774007
 20
2.0802329193839451
 30
0.0
 11
129.8241373123788094
 21
2.1018819478681841
 31
0.0
  0
LINE
  5
9261
  8
0
 10
129.843452850353799
 20
2.071074843926469
 30
0.0
 11
129.842502056449888
 21
2.0917822555615748
 31
0.0
  0
LINE
  5
9262
  8
0
 10
129.863137312253599
 20
2.0629871480636321
 30
0.0
 11
129.8631373123893979
 21
2.0840668604283201
 31
0.0
  0
LINE
  5
9263
  8
0
 10
129.8631373123675985
 20
2.1125976747942938
 30
0.0
 11
129.8631390575745002
 21
2.0876372811534121
 31
0.0
  0
LINE
  5
9264
  8
0
 10
129.8435612887157902
 20
2.095728546456646
 30
0.0
 11
129.8435612887157902
 21
2.1171551183788981
 31
0.0
  0
LINE
  5
9265
  8
0
 10
129.8824528504397051
 20
2.080343017863183
 30
0.0
 11
129.8824528503675992
 21
2.1052400802544069
 31
0.0
  0
LINE
  5
9266
  8
0
 10
129.8824528503675992
 20
2.1091401453923271
 30
0.0
 11
129.8824528503675992
 21
2.1253334535066322
 31
0.0
  0
LINE
  5
9267
  8
0
 10
129.9021373123676142
 20
2.1028005029152559
 30
0.0
 11
129.9021373123676142
 21
2.1259633886908502
 31
0.0
  0
LINE
  5
9268
  8
0
 10
129.9022457507327886
 20
2.0743081224942941
 30
0.0
 11
129.9021373123676142
 21
2.098945675094293
 31
0.0
  0
LINE
  5
9269
  8
0
 10
129.9021373123676142
 20
2.071057166372877
 30
0.0
 11
129.9021373123707974
 21
2.050358182703822
 31
0.0
  0
LINE
  5
926A
  8
0
 10
129.8824528504316049
 20
2.0770616156870041
 30
0.0
 11
129.8824528503675992
 21
2.0561903355942941
 31
0.0
  0
LINE
  5
926B
  8
0
 10
129.9022602031303961
 20
2.0474273976136419
 30
0.0
 11
129.9022602031303961
 21
2.040435036089983
 31
0.0
  0
LINE
  5
926C
  8
0
 10
129.921598591955501
 20
2.0456267164694699
 30
0.0
 11
129.9214528503675865
 21
2.0662227551355659
 31
0.0
  0
LINE
  5
926D
  8
0
 10
129.9214528503675865
 20
2.0694499524885752
 30
0.0
 11
129.9214528503675865
 21
2.093885449859143
 31
0.0
  0
LINE
  5
926E
  8
0
 10
129.9214528503675865
 20
2.0977051407849738
 30
0.0
 11
129.9214528503675865
 21
2.1265927583634379
 31
0.0
  0
LINE
  5
926F
  8
0
 10
129.9412665320809879
 20
2.1222619283942938
 30
0.0
 11
129.9406285869864917
 21
2.093699670917184
 31
0.0
  0
LINE
  5
9270
  8
0
 10
129.9411373123676015
 20
2.0898151501942941
 30
0.0
 11
129.9411373123676015
 21
2.0655381058667319
 31
0.0
  0
LINE
  5
9271
  8
0
 10
129.9411373123307953
 20
2.0623295726694622
 30
0.0
 11
129.9411373123676015
 21
2.0418711595124388
 31
0.0
  0
LINE
  5
9272
  8
0
 10
129.9604528504378038
 20
2.0391086129696681
 30
0.0
 11
129.9604528503676022
 21
2.0594911911942928
 31
0.0
  0
LINE
  5
9273
  8
0
 10
129.9604528503676022
 20
2.0626863721813762
 30
0.0
 11
129.9604528503676022
 21
2.0868502065862371
 31
0.0
  0
LINE
  5
9274
  8
0
 10
129.9604528503579104
 20
2.0906227701418318
 30
0.0
 11
129.9604528503676022
 21
2.119111432794293
 31
0.0
  0
LINE
  5
9275
  8
0
 10
129.9604528504914072
 20
2.1235601179839811
 30
0.0
 11
129.9604528504914072
 21
2.1341670412809139
 31
0.0
  0
LINE
  5
9276
  8
0
 10
129.9801373122845121
 20
2.1214177803196561
 30
0.0
 11
129.9801373122845121
 21
2.1350952175102722
 31
0.0
  0
LINE
  5
9277
  8
0
 10
129.9801373124246027
 20
2.0886097445308329
 30
0.0
 11
129.9800666894603864
 21
2.1169939271661842
 31
0.0
  0
LINE
  5
9278
  8
0
 10
129.9801373123860913
 20
2.084850227277748
 30
0.0
 11
129.9801185207722085
 21
2.0607630997786748
 31
0.0
  0
LINE
  5
9279
  8
0
 10
129.9801373123173107
 20
2.057575441863329
 30
0.0
 11
129.9801373123675887
 21
2.0372434045942942
 31
0.0
  0
LINE
  5
927A
  8
0
 10
129.9994528505031894
 20
2.1203718314942939
 30
0.0
 11
129.9904234755086065
 21
2.1353929125371538
 31
0.0
  0
LINE
  5
927B
  8
0
 10
129.9994528503675895
 20
2.0598211785101892
 30
0.0
 11
130.0190325703314045
 21
2.0598211785101892
 31
0.0
  0
LINE
  5
927C
  8
0
 10
129.9994528490545918
 20
2.0363316809467431
 30
0.0
 11
130.0191410100806877
 21
2.0363316809467431
 31
0.0
  0
LINE
  5
927D
  8
0
 10
129.9995104003390054
 20
2.033661243475728
 30
0.0
 11
130.0190834587961888
 21
2.033661243475728
 31
0.0
  0
LINE
  5
927E
  8
0
 10
129.7851373123675955
 20
2.0793925655973791
 30
0.0
 11
129.7851373123675955
 21
2.0650910379601082
 31
0.0
  0
LINE
  5
927F
  8
0
 10
129.765452850367609
 20
2.078332391565771
 30
0.0
 11
129.765452850367609
 21
2.0829323110832281
 31
0.0
  0
LINE
  5
9280
  8
0
 10
129.765452850299198
 20
2.065999953258256
 30
0.0
 11
129.765452850367609
 21
2.0765357346942941
 31
0.0
  0
LINE
  5
9281
  8
0
 10
129.7851373123812095
 20
2.063305943619258
 30
0.0
 11
129.7851373123675955
 21
2.052770162040177
 31
0.0
  0
LINE
  5
9282
  8
0
 10
129.765452850367609
 20
2.0647648352978041
 30
0.0
 11
129.7654528504249072
 21
2.0581587301173179
 31
0.0
  0
LINE
  5
9283
  8
0
 10
129.7851373123675955
 20
2.044753446494294
 30
0.0
 11
129.7851373123675955
 21
2.0515234818359049
 31
0.0
  0
LINE
  5
9284
  8
0
 10
129.8044528503675963
 20
2.0516196164942939
 30
0.0
 11
129.8044528503675963
 21
2.0621553980605301
 31
0.0
  0
LINE
  5
9285
  8
0
 10
129.8241373123676112
 20
2.0186671072779978
 30
0.0
 11
129.8241373123676112
 21
2.0195633258958452
 31
0.0
  0
LINE
  5
9286
  8
0
 10
129.8044528504042887
 20
2.0293102683906539
 30
0.0
 11
129.8044528504042887
 21
2.0302269886449391
 31
0.0
  0
LINE
  5
9287
  8
0
 10
129.843452850367612
 20
2.0095441797135951
 30
0.0
 11
129.843452850367612
 21
2.0105709164031369
 31
0.0
  0
LINE
  5
9288
  8
0
 10
129.8629214982343001
 20
2.0014859912097931
 30
0.0
 11
129.8629214982343001
 21
2.0026656723401639
 31
0.0
  0
LINE
  5
9289
  8
0
 10
129.8824528503677129
 20
1.99471294019426
 30
0.0
 11
129.8824528503677129
 21
1.995870227068907
 31
0.0
  0
LINE
  5
928A
  8
0
 10
129.9021373123059959
 20
1.988900464821469
 30
0.0
 11
129.9021373123059959
 21
1.990105685986211
 31
0.0
  0
LINE
  5
928B
  8
0
 10
129.9214528607984107
 20
1.9842161113102901
 30
0.0
 11
129.9214528607984107
 21
1.985459460426287
 31
0.0
  0
LINE
  5
928C
  8
0
 10
129.9411373123296869
 20
1.980440969492308
 30
0.0
 11
129.9411373123296869
 21
1.9817138864899491
 31
0.0
  0
LINE
  5
928D
  8
0
 10
129.9604528472200116
 20
1.9776871140570671
 30
0.0
 11
129.9604528472200116
 21
1.978981537413913
 31
0.0
  0
LINE
  5
928E
  8
0
 10
129.9801373123677024
 20
1.9758276999942921
 30
0.0
 11
129.9801373123677024
 21
1.9771362619337429
 31
0.0
  0
LINE
  5
928F
  8
0
 10
129.7971585826676062
 20
2.0383456962942939
 30
0.0
 11
129.8009614723748086
 21
2.0399733436973211
 31
0.0
  0
LINE
  5
9290
  8
0
 10
129.8009614723748086
 20
2.0399733436973211
 30
0.0
 11
129.8009614723654011
 21
2.0470735272125302
 31
0.0
  0
LINE
  5
9291
  8
0
 10
129.8009614723675895
 20
2.0399733436942631
 30
0.0
 11
129.7961172249083006
 21
2.040486602800303
 31
0.0
  0
LINE
  5
9292
  8
0
 10
129.7961172249083006
 20
2.040486602800303
 30
0.0
 11
129.7947950810641089
 21
2.0417216543799031
 31
0.0
  0
LINE
  5
9293
  8
0
 10
129.7971585826676062
 20
2.0383456962942939
 30
0.0
 11
129.7961172249083006
 21
2.040486602800303
 31
0.0
  0
ARC
  5
9294
  8
0
 10
130.0031572246327016
 20
3.0636033673026581
 30
0.0
 40
1.0934310532279641
 50
270.3217221861073085
 51
273.2680708961559048
  0
ARC
  5
9295
  8
0
 10
130.017929683529303
 20
2.729713018670858
 30
0.0
 40
0.7592536502048784
 50
273.5914990099810211
 51
281.7917097104746063
  0
ARC
  5
9296
  8
0
 10
130.0094531161628879
 20
1.310804880565035
 30
0.0
 40
0.8248004356042486
 50
85.3461239366808258
 51
90.0108496945346559
  0
ARC
  5
9297
  8
0
 10
130.0214058687170109
 20
1.4576363610867
 30
0.0
 40
0.6774832541018763
 50
78.7660252212854601
 51
85.3461239366808258
  0
ARC
  5
9298
  8
0
 10
130.0819039070661916
 20
1.762225745852692
 30
0.0
 40
0.3669438750269739
 50
67.0473117558297247
 51
78.7660252212846359
  0
ARC
  5
9299
  8
0
 10
130.1386965595183085
 20
2.180895307023957
 30
0.0
 40
0.1909285126027903
 50
281.4819887561652081
 51
309.0596686333093999
  0
ARC
  5
929A
  8
0
 10
130.0174515763860086
 20
2.6661280341257938
 30
0.0
 40
0.690943089858399
 50
273.0196253423407029
 51
283.3255568229172923
  0
ARC
  5
929B
  8
0
 10
130.0092705842720022
 20
2.855545721931767
 30
0.0
 40
0.8838868028383507
 50
270.0017077687375036
 51
275.1444884460606772
  0
ARC
  5
929C
  8
0
 10
130.0329759463654966
 20
2.592241547137685
 30
0.0
 40
0.6195176808592949
 50
275.1444884460606772
 51
283.9905790142996125
  0
ARC
  5
929D
  8
0
 10
130.1088338233788875
 20
2.2877789597914968
 30
0.0
 40
0.3057472479015213
 50
283.9905790142996125
 51
296.4908601985796963
  0
ARC
  5
929E
  8
0
 10
130.061731296574294
 20
1.6639679876605391
 30
0.0
 40
0.4711644751581943
 50
70.6337007222849707
 51
82.6150274108895246
  0
ARC
  5
929F
  8
0
 10
130.0150765044907928
 20
1.365997063182167
 30
0.0
 40
0.7727015835494522
 50
82.0241942676697136
 51
87.1789679034589113
  0
ARC
  5
92A0
  8
0
 10
130.0094207637712884
 20
1.2728838818169781
 30
0.0
 40
0.865980936201408
 50
87.1084256706104441
 51
90.0081932256834563
  0
LINE
  5
92A1
  8
0
 10
130.2207715637734111
 20
2.1018778934102769
 30
0.0
 11
130.2141410088293867
 21
2.0909196262973579
 31
0.0
  0
LINE
  5
92A2
  8
0
 10
130.2141410088293867
 20
2.0909196262973579
 30
0.0
 11
130.1944565468577935
 21
2.0802329193839451
 31
0.0
  0
LINE
  5
92A3
  8
0
 10
130.1944565468577935
 20
2.0802329193839451
 30
0.0
 11
130.1847987777977949
 21
2.0855947422305858
 31
0.0
  0
LINE
  5
92A4
  8
0
 10
130.1847987777977949
 20
2.0855947422305858
 30
0.0
 11
130.1847987778270124
 21
2.0859971642158111
 31
0.0
  0
LINE
  5
92A5
  8
0
 10
130.1847987778270124
 20
2.0859971642158111
 30
0.0
 11
130.1751410087184126
 21
2.092413982408194
 31
0.0
  0
LINE
  5
92A6
  8
0
 10
130.1751410087184126
 20
2.092413982408194
 30
0.0
 11
130.1554565467457962
 21
2.0840668604283201
 31
0.0
  0
LINE
  5
92A7
  8
0
 10
130.1554565467457962
 20
2.0840668604283201
 30
0.0
 11
130.1457987777675953
 21
2.0697145648899129
 31
0.0
  0
LINE
  5
92A8
  8
0
 10
130.1457987777675953
 20
2.0697145648899129
 30
0.0
 11
130.1457987777675953
 21
2.0693217794469141
 31
0.0
  0
LINE
  5
92A9
  8
0
 10
130.1457987777675953
 20
2.0693217794469141
 30
0.0
 11
130.1361410087675949
 21
2.0561903355942941
 31
0.0
  0
LINE
  5
92AA
  8
0
 10
130.1361410087675949
 20
2.0561903355942941
 30
0.0
 11
130.1164565467643968
 21
2.050358182703822
 31
0.0
  0
LINE
  5
92AB
  8
0
 10
130.1164565467643968
 20
2.050358182703822
 30
0.0
 11
130.1067987778160102
 21
2.0576021155021968
 31
0.0
  0
LINE
  5
92AC
  8
0
 10
130.1067987778160102
 20
2.0576021155021968
 30
0.0
 11
130.106798777767608
 21
2.057988503641119
 31
0.0
  0
LINE
  5
92AD
  8
0
 10
130.106798777767608
 20
2.057988503641119
 30
0.0
 11
130.0971410087676077
 21
2.0662227551355659
 31
0.0
  0
LINE
  5
92AE
  8
0
 10
130.0971410087676077
 20
2.0662227551355659
 30
0.0
 11
130.0774565468043988
 21
2.0623295726694622
 31
0.0
  0
LINE
  5
92AF
  8
0
 10
130.0774565468043988
 20
2.0623295726694622
 30
0.0
 11
130.0677987777675924
 21
2.0503800998478399
 31
0.0
  0
LINE
  5
92B0
  8
0
 10
130.0677987777675924
 20
2.0503800998478399
 30
0.0
 11
130.0677987777970941
 21
2.049997643143409
 31
0.0
  0
LINE
  5
92B1
  8
0
 10
130.0677987777970941
 20
2.049997643143409
 30
0.0
 11
130.0774565467675927
 21
2.0418711595124388
 31
0.0
  0
LINE
  5
92B2
  8
0
 10
130.0774565467675927
 20
2.0418711595124388
 30
0.0
 11
130.0969952671796932
 21
2.0456267164694699
 31
0.0
  0
LINE
  5
92B3
  8
0
 10
130.0969952671796932
 20
2.0456267164694699
 30
0.0
 11
130.106798777767608
 21
2.0576021154942938
 31
0.0
  0
LINE
  5
92B4
  8
0
 10
130.0677987777675924
 20
2.049997643094295
 30
0.0
 11
130.0581410086973904
 21
2.0391086129696681
 31
0.0
  0
LINE
  5
92B5
  8
0
 10
130.0581410086973904
 20
2.0391086129696681
 30
0.0
 11
130.0384565467676055
 21
2.0372434045942942
 31
0.0
  0
LINE
  5
92B6
  8
0
 10
130.0384565467676055
 20
2.0372434045942942
 30
0.0
 11
130.0287987777676051
 21
2.0462541111316659
 31
0.0
  0
LINE
  5
92B7
  8
0
 10
130.0287987777676051
 20
2.0462541111316659
 30
0.0
 11
130.0287987777853118
 21
2.0466346919231011
 31
0.0
  0
LINE
  5
92B8
  8
0
 10
130.0287987777853118
 20
2.0466346919231011
 30
0.0
 11
130.0191410087676047
 21
2.0566392027895701
 31
0.0
  0
LINE
  5
92B9
  8
0
 10
130.0191410100806877
 20
2.0363316809467431
 30
0.0
 11
130.0287987777676051
 21
2.0462541111316659
 31
0.0
  0
LINE
  5
92BA
  8
0
 10
130.0287987777853118
 20
2.0466346919231011
 30
0.0
 11
130.0384565468179119
 21
2.057575441863329
 31
0.0
  0
LINE
  5
92BB
  8
0
 10
130.0384565468179119
 20
2.057575441863329
 30
0.0
 11
130.058141008767592
 21
2.0594911911942928
 31
0.0
  0
LINE
  5
92BC
  8
0
 10
130.058141008767592
 20
2.0594911911942928
 30
0.0
 11
130.0677987777675924
 21
2.0503800998478399
 31
0.0
  0
LINE
  5
92BD
  8
0
 10
130.106798777767608
 20
2.0579885035601801
 30
0.0
 11
130.1164565467676084
 21
2.071057166372877
 31
0.0
  0
LINE
  5
92BE
  8
0
 10
130.1164565467676084
 20
2.071057166372877
 30
0.0
 11
130.1361410087037029
 21
2.0770616156870041
 31
0.0
  0
LINE
  5
92BF
  8
0
 10
130.1361410087037029
 20
2.0770616156870041
 30
0.0
 11
130.1457987777675953
 21
2.0697145647942938
 31
0.0
  0
LINE
  5
92C0
  8
0
 10
130.1457987777675953
 20
2.0693217794469141
 30
0.0
 11
130.1554565468815952
 21
2.0629871480636321
 31
0.0
  0
LINE
  5
92C1
  8
0
 10
130.1554565468815952
 20
2.0629871480636321
 30
0.0
 11
130.1751410087813952
 21
2.071074843926469
 31
0.0
  0
LINE
  5
92C2
  8
0
 10
130.1751410087813952
 20
2.071074843926469
 30
0.0
 11
130.1847987777977949
 21
2.0855947422305858
 31
0.0
  0
LINE
  5
92C3
  8
0
 10
130.1847987778002107
 20
2.0859971642322739
 30
0.0
 11
130.1944565467564985
 21
2.1018819478681841
 31
0.0
  0
LINE
  5
92C4
  8
0
 10
130.1944565467564985
 20
2.1018819478681841
 30
0.0
 11
130.2053057129666058
 21
2.107797448572005
 31
0.0
  0
LINE
  5
92C5
  8
0
 10
130.184690339435889
 20
2.110858501056124
 30
0.0
 11
130.1846903394651065
 21
2.1112609230413488
 31
0.0
  0
LINE
  5
92C6
  8
0
 10
130.1846903394651065
 20
2.1112609230413488
 30
0.0
 11
130.1763389152492039
 21
2.116809779121668
 31
0.0
  0
LINE
  5
92C7
  8
0
 10
130.1693502069022088
 20
2.118597675253441
 30
0.0
 11
130.1554565467675957
 21
2.1125976747942938
 31
0.0
  0
LINE
  5
92C8
  8
0
 10
130.1554565467675957
 20
2.1125976747942938
 30
0.0
 11
130.1456903394056894
 21
2.094978323715452
 31
0.0
  0
LINE
  5
92C9
  8
0
 10
130.1456903394056894
 20
2.094978323715452
 30
0.0
 11
130.1456903394056894
 21
2.0945855382724519
 31
0.0
  0
LINE
  5
92CA
  8
0
 10
130.1456903394056894
 20
2.0945855382724519
 30
0.0
 11
130.1361410086956027
 21
2.080343017863183
 31
0.0
  0
LINE
  5
92CB
  8
0
 10
130.1361410086956027
 20
2.080343017863183
 30
0.0
 11
130.1163481084024909
 21
2.0743081224942941
 31
0.0
  0
LINE
  5
92CC
  8
0
 10
130.1163481084024909
 20
2.0743081224942941
 30
0.0
 11
130.1066903394541043
 21
2.0828658743277351
 31
0.0
  0
LINE
  5
92CD
  8
0
 10
130.1066903394541043
 20
2.0828658743277351
 30
0.0
 11
130.1066903394057022
 21
2.0832522624666581
 31
0.0
  0
LINE
  5
92CE
  8
0
 10
130.1066903394057022
 20
2.0832522624666581
 30
0.0
 11
130.0971410087676077
 21
2.093885449859143
 31
0.0
  0
LINE
  5
92CF
  8
0
 10
130.0971410087676077
 20
2.093885449859143
 30
0.0
 11
130.0774565467675927
 21
2.0898151501942941
 31
0.0
  0
LINE
  5
92D0
  8
0
 10
130.0774565467675927
 20
2.0898151501942941
 30
0.0
 11
130.0676903394056865
 21
2.0756438586733781
 31
0.0
  0
LINE
  5
92D1
  8
0
 10
130.0676903394056865
 20
2.0756438586733781
 30
0.0
 11
130.0676903394351882
 21
2.0752614019689481
 31
0.0
  0
LINE
  5
92D2
  8
0
 10
130.0676903394351882
 20
2.0752614019689481
 30
0.0
 11
130.0774565467675927
 21
2.0655381058667319
 31
0.0
  0
LINE
  5
92D3
  8
0
 10
130.0774565467675927
 20
2.0655381058667319
 30
0.0
 11
130.0971410087676077
 21
2.0694499524885752
 31
0.0
  0
LINE
  5
92D4
  8
0
 10
130.0971410087676077
 20
2.0694499524885752
 30
0.0
 11
130.1066903394057022
 21
2.0828658743198321
 31
0.0
  0
LINE
  5
92D5
  8
0
 10
130.0676903394056865
 20
2.0752614019198332
 30
0.0
 11
130.058141008767592
 21
2.0626863721813762
 31
0.0
  0
LINE
  5
92D6
  8
0
 10
130.058141008767592
 20
2.0626863721813762
 30
0.0
 11
130.0384753383630994
 21
2.0607630997786748
 31
0.0
  0
LINE
  5
92D7
  8
0
 10
130.0384753383630994
 20
2.0607630997786748
 30
0.0
 11
130.0286903394056992
 21
2.0715178699572041
 31
0.0
  0
LINE
  5
92D8
  8
0
 10
130.0286903394056992
 20
2.0715178699572041
 30
0.0
 11
130.0286903394234059
 21
2.0718984507486389
 31
0.0
  0
LINE
  5
92D9
  8
0
 10
130.0286903394234059
 20
2.0718984507486389
 30
0.0
 11
130.0191410087676047
 21
2.083873168009279
 31
0.0
  0
LINE
  5
92DA
  8
0
 10
130.0190325703314045
 20
2.0598211785101892
 30
0.0
 11
130.0286903394056992
 21
2.0715178699572041
 31
0.0
  0
LINE
  5
92DB
  8
0
 10
130.0286903394234059
 20
2.0718984507486389
 30
0.0
 11
130.0384565467491882
 21
2.084850227277748
 31
0.0
  0
LINE
  5
92DC
  8
0
 10
130.0384565467491882
 20
2.084850227277748
 30
0.0
 11
130.058141008767592
 21
2.0868502065862371
 31
0.0
  0
LINE
  5
92DD
  8
0
 10
130.058141008767592
 20
2.0868502065862371
 30
0.0
 11
130.0676903394056865
 21
2.0756438586733781
 31
0.0
  0
LINE
  5
92DE
  8
0
 10
130.1066903394057022
 20
2.0832522623857179
 30
0.0
 11
130.1164565467676084
 21
2.098945675094293
 31
0.0
  0
LINE
  5
92DF
  8
0
 10
130.1164565467676084
 20
2.098945675094293
 30
0.0
 11
130.1361410087675949
 21
2.1052400802544069
 31
0.0
  0
LINE
  5
92E0
  8
0
 10
130.1361410087675949
 20
2.1052400802544069
 30
0.0
 11
130.1456903394056894
 21
2.0949783236198321
 31
0.0
  0
LINE
  5
92E1
  8
0
 10
130.1456903394056894
 20
2.0945855382724519
 30
0.0
 11
130.155454801560694
 21
2.0876372811534121
 31
0.0
  0
LINE
  5
92E2
  8
0
 10
130.155454801560694
 20
2.0876372811534121
 30
0.0
 11
130.1750325704194893
 21
2.095728546456646
 31
0.0
  0
LINE
  5
92E3
  8
0
 10
130.1750325704194893
 20
2.095728546456646
 30
0.0
 11
130.184690339435889
 21
2.110858501056124
 31
0.0
  0
LINE
  5
92E4
  8
0
 10
130.145104133854602
 20
2.1237311732496771
 30
0.0
 11
130.1361410087675949
 21
2.1091401453923271
 31
0.0
  0
LINE
  5
92E5
  8
0
 10
130.1361410087675949
 20
2.1091401453923271
 30
0.0
 11
130.1164565467676084
 21
2.1028005029152559
 31
0.0
  0
LINE
  5
92E6
  8
0
 10
130.1164565467676084
 20
2.1028005029152559
 30
0.0
 11
130.1066695580657893
 21
2.112931960557384
 31
0.0
  0
LINE
  5
92E7
  8
0
 10
130.1066695580657893
 20
2.112931960557384
 30
0.0
 11
130.1066695580175008
 21
2.1133183486963061
 31
0.0
  0
LINE
  5
92E8
  8
0
 10
130.1066695580175008
 20
2.1133183486963061
 30
0.0
 11
130.0971410087676077
 21
2.1265927583634379
 31
0.0
  0
LINE
  5
92E9
  8
0
 10
130.0971410087676077
 20
2.1265927583634379
 30
0.0
 11
130.0773273270542063
 21
2.1222619283942938
 31
0.0
  0
LINE
  5
92EA
  8
0
 10
130.0773273270542063
 20
2.1222619283942938
 30
0.0
 11
130.0676695580173998
 21
2.105709944903027
 31
0.0
  0
LINE
  5
92EB
  8
0
 10
130.0676695580173998
 20
2.105709944903027
 30
0.0
 11
130.0676695580469016
 21
2.1053274881985971
 31
0.0
  0
LINE
  5
92EC
  8
0
 10
130.0676695580469016
 20
2.1053274881985971
 30
0.0
 11
130.0779652721487878
 21
2.093699670917184
 31
0.0
  0
LINE
  5
92ED
  8
0
 10
130.0779652721487878
 20
2.093699670917184
 30
0.0
 11
130.0971410087676077
 21
2.0977051407849738
 31
0.0
  0
LINE
  5
92EE
  8
0
 10
130.0971410087676077
 20
2.0977051407849738
 30
0.0
 11
130.1066695580175008
 21
2.112931960549481
 31
0.0
  0
LINE
  5
92EF
  8
0
 10
130.0676695580173998
 20
2.1053274881494821
 30
0.0
 11
130.0581410087773975
 21
2.0906227701418318
 31
0.0
  0
LINE
  5
92F0
  8
0
 10
130.0581410087773975
 20
2.0906227701418318
 30
0.0
 11
130.0384565467107052
 21
2.0886097445308329
 31
0.0
  0
LINE
  5
92F1
  8
0
 10
130.0384565467107052
 20
2.0886097445308329
 30
0.0
 11
130.0286695580174126
 21
2.101583956186853
 31
0.0
  0
LINE
  5
92F2
  8
0
 10
130.0286695580174126
 20
2.101583956186853
 30
0.0
 11
130.0286695580352045
 21
2.1019645369782878
 31
0.0
  0
LINE
  5
92F3
  8
0
 10
130.0286695580352045
 20
2.1019645369782878
 30
0.0
 11
130.0191410087336124
 21
2.115951553778153
 31
0.0
  0
LINE
  5
92F4
  8
0
 10
130.0191410222381023
 20
2.087625834929459
 30
0.0
 11
130.0286695580174126
 21
2.101583956186853
 31
0.0
  0
LINE
  5
92F5
  8
0
 10
130.0286695580352045
 20
2.1019645369782878
 30
0.0
 11
130.038527169674893
 21
2.1169939271661842
 31
0.0
  0
LINE
  5
92F6
  8
0
 10
130.038527169674893
 20
2.1169939271661842
 30
0.0
 11
130.058141008767592
 21
2.119111432794293
 31
0.0
  0
LINE
  5
92F7
  8
0
 10
130.058141008767592
 20
2.119111432794293
 30
0.0
 11
130.0676695580173998
 21
2.105709944903027
 31
0.0
  0
LINE
  5
92F8
  8
0
 10
130.1066695580175008
 20
2.1133183486153668
 30
0.0
 11
130.1163273270175011
 21
2.1263870114280641
 31
0.0
  0
LINE
  5
92F9
  8
0
 10
130.1163273270175011
 20
2.1263870114280641
 30
0.0
 11
130.120882756094602
 21
2.1277765766133721
 31
0.0
  0
ARC
  5
92FA
  8
0
 10
130.0098843859682916
 20
2.4398730935750659
 30
0.0
 40
0.4133790135683793
 50
295.3311649613659142
 51
300.4017602999581982
  0
ARC
  5
92FB
  8
0
 10
130.0098843859682916
 20
2.4398730935750659
 30
0.0
 40
0.4133790135683793
 50
289.4855183860199759
 51
294.7432388535402765
  0
ARC
  5
92FC
  8
0
 10
130.0098843859682916
 20
2.4398730935750659
 30
0.0
 40
0.4133790135683793
 50
283.8334963558580171
 51
288.9168462106787274
  0
ARC
  5
92FD
  8
0
 10
130.0098843859682916
 20
2.4398730935750659
 30
0.0
 40
0.4133790135683793
 50
278.3109882559461994
 51
283.2938080850792062
  0
ARC
  5
92FE
  8
0
 10
130.0098843859682916
 20
2.4398730935750659
 30
0.0
 40
0.4133790135683793
 50
272.8819507166010112
 51
277.7931450399893833
  0
ARC
  5
92FF
  8
0
 10
130.0093842528036987
 20
2.454388333707537
 30
0.0
 40
0.4279025566502125
 50
269.98830749469289
 51
272.3417572501790005
  0
LINE
  5
9300
  8
0
 10
130.077437355826703
 20
2.0390188841148542
 30
0.0
 11
130.0971027834011124
 21
2.042871746039129
 31
0.0
  0
LINE
  5
9301
  8
0
 10
130.1049386434577002
 20
2.0375710963243701
 30
0.0
 11
130.0971027834011124
 21
2.042871746039129
 31
0.0
  0
LINE
  5
9302
  8
0
 10
130.0696366568066082
 20
2.030835350831885
 30
0.0
 11
130.077437355826703
 21
2.0390188841148542
 31
0.0
  0
LINE
  5
9303
  8
0
 10
130.0659373552769864
 20
2.030312019386554
 30
0.0
 11
130.0581720752861941
 21
2.036326302591287
 31
0.0
  0
LINE
  5
9304
  8
0
 10
130.0306683889452017
 20
2.027016903020745
 30
0.0
 11
130.0383862498698022
 21
2.0344327708334471
 31
0.0
  0
LINE
  5
9305
  8
0
 10
130.0383862498698022
 20
2.0344327708334471
 30
0.0
 11
130.0581720752861941
 21
2.036326302591287
 31
0.0
  0
LINE
  5
9306
  8
0
 10
130.0268683496364019
 20
2.026843126336745
 30
0.0
 11
130.0190834587961888
 21
2.033661243475728
 31
0.0
  0
LINE
  5
9307
  8
0
 10
130.1087237888532115
 20
2.038484277965904
 30
0.0
 11
130.1163336560047981
 21
2.0474273976136419
 31
0.0
  0
LINE
  5
9308
  8
0
 10
130.1439000325325139
 20
2.0488206478152291
 30
0.0
 11
130.1362053875666902
 21
2.0533851543883581
 31
0.0
  0
LINE
  5
9309
  8
0
 10
130.1163336560047981
 20
2.0474273976136419
 30
0.0
 11
130.1362053875666902
 21
2.0533851543883581
 31
0.0
  0
LINE
  5
930A
  8
0
 10
130.1477746423952055
 20
2.0501700193746131
 30
0.0
 11
130.1554515589047867
 21
2.0601541973058959
 31
0.0
  0
LINE
  5
930B
  8
0
 10
130.1554515589047867
 20
2.0601541973058959
 30
0.0
 11
130.1752443085028119
 21
2.0681346614920222
 31
0.0
  0
LINE
  5
930C
  8
0
 10
130.1829052344207014
 20
2.0644453443881341
 30
0.0
 11
130.1752443085028119
 21
2.0681346614920222
 31
0.0
  0
LINE
  5
930D
  8
0
 10
130.1943478517671906
 20
2.0771436462563968
 30
0.0
 11
130.1867484145564049
 21
2.0662404875965001
 31
0.0
  0
LINE
  5
930E
  8
0
 10
130.2141505699125901
 20
2.0879387618527079
 30
0.0
 11
130.1943478517671906
 21
2.0771436462563968
 31
0.0
  0
LINE
  5
930F
  8
0
 10
130.2239928384859127
 20
2.0844475455338318
 30
0.0
 11
130.2141505699125901
 21
2.0879387618527079
 31
0.0
  0
LINE
  5
9310
  8
0
 10
130.2217411060844938
 20
2.0810646842080009
 30
0.0
 11
130.2239928384859127
 21
2.0844475455338318
 31
0.0
  0
LINE
  5
9311
  8
0
 10
130.2190790782586021
 20
2.0833344707354771
 30
0.0
 11
130.2217411060844938
 21
2.0810646842080009
 31
0.0
  0
ARC
  5
9312
  8
0
 10
130.0093241399711133
 20
2.393820632037591
 30
0.0
 40
0.4177015219203724
 50
272.9241566168312261
 51
277.793360770660513
  0
ARC
  5
9313
  8
0
 10
130.009548012854907
 20
2.3921972327924621
 30
0.0
 40
0.4160626714511112
 50
278.3032745853641927
 51
283.2577879392458726
  0
ARC
  5
9314
  8
0
 10
130.0377077210455923
 20
2.0620047621859392
 30
0.0
 40
0.0867581993920245
 50
283.622276796405572
 51
289.0079339399397895
  0
ARC
  5
9315
  8
0
 10
130.0451920825470893
 20
2.075975659392042
 30
0.0
 40
0.1003742059185037
 50
261.6598051207719209
 51
266.1523183383422975
  0
ARC
  5
9316
  8
0
 10
130.0093342971115078
 20
2.3892502496922878
 30
0.0
 40
0.414446993020608
 50
274.0293649181061255
 51
276.7630434187460082
  0
ARC
  5
9317
  8
0
 10
130.0742150738130078
 20
2.0759164018015861
 30
0.0
 40
0.0955304418592017
 50
267.2506408435112917
 51
271.9444940781218065
  0
ARC
  5
9318
  8
0
 10
130.0095852901235105
 20
2.3875443845535549
 30
0.0
 40
0.4127223013578617
 50
279.4651550555279869
 51
282.2479047957052103
  0
ARC
  5
9319
  8
0
 10
130.032537538294207
 20
2.163968489340506
 30
0.0
 40
0.1910092261043988
 50
289.7685657731123001
 51
292.283019219559776
  0
ARC
  5
931A
  8
0
 10
130.0101854887678883
 20
2.3894857150934761
 30
0.0
 40
0.4132770806991502
 50
283.780995242902577
 51
288.8870541728620083
  0
ARC
  5
931B
  8
0
 10
130.1032635691572921
 20
2.079844158032798
 30
0.0
 40
0.0918956473113344
 50
273.3495361939293957
 51
278.2541771517459779
  0
ARC
  5
931C
  8
0
 10
130.0103093828838894
 20
2.3846150471457408
 30
0.0
 40
0.4097038577774396
 50
285.0156372111856058
 51
287.8862500032133767
  0
ARC
  5
931D
  8
0
 10
130.0263534513819934
 20
2.233983165939232
 30
0.0
 40
0.263255671704776
 50
294.647710062653573
 51
296.5358111909999934
  0
ARC
  5
931E
  8
0
 10
130.1202169428970876
 20
2.1449228637631061
 30
0.0
 40
0.1477539274391769
 50
280.6932334400610785
 51
283.8843335610665122
  0
ARC
  5
931F
  8
0
 10
129.9467420794863983
 20
2.533810520646445
 30
0.0
 40
0.5718577332972873
 50
291.4293454532650003
 51
293.5405602538818925
  0
ARC
  5
9320
  8
0
 10
130.1486273513031051
 20
2.064268206436418
 30
0.0
 40
0.0608086600157069
 50
295.8500750405539748
 51
304.3800732476022972
  0
ARC
  5
9321
  8
0
 10
130.011452762071599
 20
2.3857684744393639
 30
0.0
 40
0.4093495445982086
 50
289.4311652724671831
 51
294.7706315074948975
  0
ARC
  5
9322
  8
0
 10
130.00612885062381
 20
2.3917209132238759
 30
0.0
 40
0.418307488665011
 50
276.5505244008923
 51
295.7807752451320766
  0
ARC
  5
9323
  8
0
 10
130.0100201895162115
 20
2.3523424095580459
 30
0.0
 40
0.3787426584652431
 50
269.8905859511614267
 51
276.6452761797621065
  0
ARC
  5
9324
  8
0
 10
130.0093308731040054
 20
2.4034085273177879
 30
0.0
 40
0.4224778969967399
 50
269.9953966316102196
 51
286.5372326491739159
  0
ARC
  5
9325
  8
0
 10
130.0119988617198885
 20
2.3944108605594829
 30
0.0
 40
0.4130930071120674
 50
286.5377117023803066
 51
300.4639581129187036
  0
LINE
  5
9326
  8
0
 10
130.2609822547917986
 20
2.0754699687057339
 30
0.0
 11
130.2531410088359962
 21
2.065999953258256
 31
0.0
  0
LINE
  5
9327
  8
0
 10
130.2531410088359962
 20
2.065999953258256
 30
0.0
 11
130.2334565467675986
 21
2.052770162040177
 31
0.0
  0
LINE
  5
9328
  8
0
 10
130.2334565467675986
 20
2.052770162040177
 30
0.0
 11
130.2247944467983984
 21
2.051697573594085
 31
0.0
  0
LINE
  5
9329
  8
0
 10
130.2247942923675907
 20
2.0529608500942942
 30
0.0
 11
130.2334565467540131
 21
2.063305943619258
 31
0.0
  0
LINE
  5
932A
  8
0
 10
130.2334565467540131
 20
2.063305943619258
 30
0.0
 11
130.2531410087676136
 21
2.0765357346942941
 31
0.0
  0
LINE
  5
932B
  8
0
 10
130.2531410087676136
 20
2.0765357346942941
 30
0.0
 11
130.2593365597626018
 21
2.0772992262227312
 31
0.0
  0
LINE
  5
932C
  8
0
 10
130.2629832396889071
 20
2.068339144445809
 30
0.0
 11
130.2531410087676136
 21
2.0647648352978041
 31
0.0
  0
LINE
  5
932D
  8
0
 10
130.2531410087676136
 20
2.0647648352978041
 30
0.0
 11
130.2334565467675986
 21
2.0515234818359049
 31
0.0
  0
LINE
  5
932E
  8
0
 10
130.2334565467675986
 20
2.0515234818359049
 30
0.0
 11
130.2237987777577928
 21
2.041721654281532
 31
0.0
  0
LINE
  5
932F
  8
0
 10
130.2237987777577928
 20
2.041721654281532
 30
0.0
 11
130.2334565467675986
 21
2.044753446494294
 31
0.0
  0
LINE
  5
9330
  8
0
 10
130.2334565467675986
 20
2.044753446494294
 30
0.0
 11
130.253141008710287
 21
2.0581587301173179
 31
0.0
  0
LINE
  5
9331
  8
0
 10
130.253141008710287
 20
2.0581587301173179
 30
0.0
 11
130.2629832396889071
 21
2.068339144445809
 31
0.0
  0
LINE
  5
9332
  8
0
 10
130.2551423380928952
 20
2.0810826153243229
 30
0.0
 11
130.2531410087676136
 21
2.078332391565771
 31
0.0
  0
LINE
  5
9333
  8
0
 10
130.2531410087676136
 20
2.078332391565771
 30
0.0
 11
130.2334565467675986
 21
2.0650910379601082
 31
0.0
  0
LINE
  5
9334
  8
0
 10
130.2334565467675986
 20
2.0650910379601082
 30
0.0
 11
130.2237987777675983
 21
2.0657557911376201
 31
0.0
  0
LINE
  5
9335
  8
0
 10
130.2237987777675983
 20
2.0657557911376201
 30
0.0
 11
130.2334565467675986
 21
2.0793925655973791
 31
0.0
  0
LINE
  5
9336
  8
0
 10
130.2334565467675986
 20
2.0793925655973791
 30
0.0
 11
130.2465273724039889
 21
2.0880503543295621
 31
0.0
  0
ARC
  5
9337
  8
0
 10
130.0099334565132949
 20
2.4300945622290131
 30
0.0
 40
0.4182626999796013
 50
269.9128052259521269
 51
300.3756671415723076
  0
LINE
  5
9338
  8
0
 10
130.223798778071199
 20
2.0417216543799031
 30
0.0
 11
130.2141410086595101
 21
2.050103729277903
 31
0.0
  0
LINE
  5
9339
  8
0
 10
130.2141410086595101
 20
2.050103729277903
 30
0.0
 11
130.1980602599741133
 21
2.0565278740724571
 31
0.0
  0
LINE
  5
933A
  8
0
 10
130.1997299188973045
 20
2.0573734015216938
 30
0.0
 11
130.2141410087675979
 21
2.0516196164942939
 31
0.0
  0
LINE
  5
933B
  8
0
 10
130.2141410087675979
 20
2.0516196164942939
 30
0.0
 11
130.2237987777675983
 21
2.0526683244942951
 31
0.0
  0
LINE
  5
933C
  8
0
 10
130.2237987777675983
 20
2.0526683244942951
 30
0.0
 11
130.2237987777675983
 21
2.0528657848942942
 31
0.0
  0
LINE
  5
933D
  8
0
 10
130.2237987777675983
 20
2.0528657848942942
 30
0.0
 11
130.2247942922003006
 21
2.0529608498944341
 31
0.0
  0
LINE
  5
933E
  8
0
 10
130.2247950507874066
 20
2.0516976483832918
 30
0.0
 11
130.2242026323827986
 21
2.052274873669333
 31
0.0
  0
LINE
  5
933F
  8
0
 10
130.2242026323827986
 20
2.052274873669333
 30
0.0
 11
130.2237987777631929
 21
2.0526683245719521
 31
0.0
  0
LINE
  5
9340
  8
0
 10
130.2237987777675983
 20
2.0528657848942942
 30
0.0
 11
130.2141410087675979
 21
2.0621553980605301
 31
0.0
  0
LINE
  5
9341
  8
0
 10
130.2141410087675979
 20
2.0621553980605301
 30
0.0
 11
130.2111255033435953
 21
2.0633992015816212
 31
0.0
  0
LINE
  5
9342
  8
0
 10
130.2214352764194985
 20
2.06924741124873
 30
0.0
 11
130.2224766342386033
 21
2.0662027116107402
 31
0.0
  0
LINE
  5
9343
  8
0
 10
130.2224766342386033
 20
2.0662027116107402
 30
0.0
 11
130.2237987777675983
 21
2.065755791194293
 31
0.0
  0
LINE
  5
9344
  8
0
 10
130.2224766341940949
 20
2.066202711613891
 30
0.0
 11
130.2201232095086993
 21
2.0684815650434909
 31
0.0
  0
ARC
  5
9345
  8
0
 10
130.0497977776745984
 20
2.310094448623591
 30
0.0
 40
0.3245527580362589
 50
294.9363342463730078
 51
302.458855718425184
  0
ARC
  5
9346
  8
0
 10
130.1590194059915007
 20
2.103184464663348
 30
0.0
 40
0.0916459199625932
 50
287.5359939569680137
 51
292.7477350169938859
  0
ARC
  5
9347
  8
0
 10
130.1505261308774095
 20
2.1234408722761779
 30
0.0
 40
0.1136108413496986
 50
292.7477350169938859
 51
304.0514191825337207
  0
ARC
  5
9348
  8
0
 10
130.0407486789326015
 20
2.2858779969430278
 30
0.0
 40
0.3096641719144309
 50
304.0514191825337207
 51
306.2791775172328812
  0
LINE
  5
9349
  8
0
 10
130.0639286956709952
 20
2.1338043761968488
 30
0.0
 11
130.0581410086439007
 21
2.1235601179839811
 31
0.0
  0
LINE
  5
934A
  8
0
 10
130.0581410086439007
 20
2.1235601179839811
 30
0.0
 11
130.0384565468507958
 21
2.1214177803196561
 31
0.0
  0
LINE
  5
934B
  8
0
 10
130.0384565468507958
 20
2.1214177803196561
 30
0.0
 11
130.029489088761693
 21
2.1353619243012338
 31
0.0
  0
LINE
  5
934C
  8
0
 10
130.0383862498698022
 20
2.0344327708334471
 30
0.0
 11
130.0385684283822911
 21
2.0274904623094439
 31
0.0
  0
LINE
  5
934D
  8
0
 10
130.0581720752861941
 20
2.036326302591287
 30
0.0
 11
130.0588346894087977
 21
2.0294025384169081
 31
0.0
  0
LINE
  5
934E
  8
0
 10
130.077437355826703
 20
2.0390188841148542
 30
0.0
 11
130.077224893591108
 21
2.032015931210752
 31
0.0
  0
LINE
  5
934F
  8
0
 10
130.0971027834011124
 20
2.042871746039129
 30
0.0
 11
130.0971027834011124
 21
2.0357998823768688
 31
0.0
  0
LINE
  5
9350
  8
0
 10
130.1362053875666902
 20
2.0533851543883581
 30
0.0
 11
130.1362053875666902
 21
2.046267690393234
 31
0.0
  0
LINE
  5
9351
  8
0
 10
130.1554515589047867
 20
2.0601541973058959
 30
0.0
 11
130.1554515589047867
 21
2.0529720635660471
 31
0.0
  0
LINE
  5
9352
  8
0
 10
130.1752443085028119
 20
2.0681346614920222
 30
0.0
 11
130.1752443085028119
 21
2.0610085994902572
 31
0.0
  0
LINE
  5
9353
  8
0
 10
130.1943478517671906
 20
2.0771436462563968
 30
0.0
 11
130.1943478517671906
 21
2.0699333165245242
 31
0.0
  0
LINE
  5
9354
  8
0
 10
130.2141505699125901
 20
2.0879387618527079
 30
0.0
 11
130.2141505699125901
 21
2.0804881537742901
 31
0.0
  0
LINE
  5
9355
  8
0
 10
130.2141410088293867
 20
2.0909196262973579
 30
0.0
 11
130.2141410088293867
 21
2.1045138647482791
 31
0.0
  0
LINE
  5
9356
  8
0
 10
130.1944565468577935
 20
2.0802329193839451
 30
0.0
 11
130.1944565467564985
 21
2.1018819478681841
 31
0.0
  0
LINE
  5
9357
  8
0
 10
130.1751410087813952
 20
2.071074843926469
 30
0.0
 11
130.1760918026853062
 21
2.0917822555615748
 31
0.0
  0
LINE
  5
9358
  8
0
 10
130.1554565468815952
 20
2.0629871480636321
 30
0.0
 11
130.1554565467457962
 21
2.0840668604283201
 31
0.0
  0
LINE
  5
9359
  8
0
 10
130.1554565467675957
 20
2.1125976747942938
 30
0.0
 11
130.155454801560694
 21
2.0876372811534121
 31
0.0
  0
LINE
  5
935A
  8
0
 10
130.1750325704194893
 20
2.095728546456646
 30
0.0
 11
130.1750325704194893
 21
2.1171551183788981
 31
0.0
  0
LINE
  5
935B
  8
0
 10
130.1361410086956027
 20
2.080343017863183
 30
0.0
 11
130.1361410087675949
 21
2.1052400802544069
 31
0.0
  0
LINE
  5
935C
  8
0
 10
130.1361410087675949
 20
2.1091401453923271
 30
0.0
 11
130.1361410087675949
 21
2.1253334535066322
 31
0.0
  0
LINE
  5
935D
  8
0
 10
130.1164565467676084
 20
2.1028005029152559
 30
0.0
 11
130.1164565467676084
 21
2.1259633886908502
 31
0.0
  0
LINE
  5
935E
  8
0
 10
130.1163481084024909
 20
2.0743081224942941
 30
0.0
 11
130.1164565467676084
 21
2.098945675094293
 31
0.0
  0
LINE
  5
935F
  8
0
 10
130.1164565467676084
 20
2.071057166372877
 30
0.0
 11
130.1164565467643968
 21
2.050358182703822
 31
0.0
  0
LINE
  5
9360
  8
0
 10
130.1361410087037029
 20
2.0770616156870041
 30
0.0
 11
130.1361410087675949
 21
2.0561903355942941
 31
0.0
  0
LINE
  5
9361
  8
0
 10
130.1163336560047981
 20
2.0474273976136419
 30
0.0
 11
130.1163336560047981
 21
2.040435036089983
 31
0.0
  0
LINE
  5
9362
  8
0
 10
130.0969952671796932
 20
2.0456267164694699
 30
0.0
 11
130.0971410087676077
 21
2.0662227551355659
 31
0.0
  0
LINE
  5
9363
  8
0
 10
130.0971410087676077
 20
2.0694499524885752
 30
0.0
 11
130.0971410087676077
 21
2.093885449859143
 31
0.0
  0
LINE
  5
9364
  8
0
 10
130.0971410087676077
 20
2.0977051407849738
 30
0.0
 11
130.0971410087676077
 21
2.1265927583634379
 31
0.0
  0
LINE
  5
9365
  8
0
 10
130.0773273270542063
 20
2.1222619283942938
 30
0.0
 11
130.0779652721487878
 21
2.093699670917184
 31
0.0
  0
LINE
  5
9366
  8
0
 10
130.0774565467675927
 20
2.0898151501942941
 30
0.0
 11
130.0774565467675927
 21
2.0655381058667319
 31
0.0
  0
LINE
  5
9367
  8
0
 10
130.0774565468043988
 20
2.0623295726694622
 30
0.0
 11
130.0774565467675927
 21
2.0418711595124388
 31
0.0
  0
LINE
  5
9368
  8
0
 10
130.0581410086973904
 20
2.0391086129696681
 30
0.0
 11
130.058141008767592
 21
2.0594911911942928
 31
0.0
  0
LINE
  5
9369
  8
0
 10
130.058141008767592
 20
2.0626863721813762
 30
0.0
 11
130.058141008767592
 21
2.0868502065862371
 31
0.0
  0
LINE
  5
936A
  8
0
 10
130.0581410087773975
 20
2.0906227701418318
 30
0.0
 11
130.058141008767592
 21
2.119111432794293
 31
0.0
  0
LINE
  5
936B
  8
0
 10
130.0581410086439007
 20
2.1235601179839811
 30
0.0
 11
130.0581410086439007
 21
2.1341670412809139
 31
0.0
  0
LINE
  5
936C
  8
0
 10
130.0384565468507958
 20
2.1214177803196561
 30
0.0
 11
130.0384565468507958
 21
2.1350952175102722
 31
0.0
  0
LINE
  5
936D
  8
0
 10
130.0384565467107052
 20
2.0886097445308329
 30
0.0
 11
130.038527169674893
 21
2.1169939271661842
 31
0.0
  0
LINE
  5
936E
  8
0
 10
130.0384565467491882
 20
2.084850227277748
 30
0.0
 11
130.0384753383630994
 21
2.0607630997786748
 31
0.0
  0
LINE
  5
936F
  8
0
 10
130.0384565468179119
 20
2.057575441863329
 30
0.0
 11
130.0384565467676055
 21
2.0372434045942942
 31
0.0
  0
LINE
  5
9370
  8
0
 10
130.0191410222381023
 20
2.087625834929459
 30
0.0
 11
129.9994528368970919
 21
2.087625834929459
 31
0.0
  0
LINE
  5
9371
  8
0
 10
130.0191410087336124
 20
2.115951553778153
 30
0.0
 11
129.9994528504016955
 21
2.115951553778153
 31
0.0
  0
LINE
  5
9372
  8
0
 10
130.0191410086320047
 20
2.1203718314942939
 30
0.0
 11
129.9994528505031894
 21
2.1203718314942939
 31
0.0
  0
LINE
  5
9373
  8
0
 10
130.0191410086320047
 20
2.1203718314942939
 30
0.0
 11
130.0281703836265876
 21
2.1353929125371538
 31
0.0
  0
LINE
  5
9374
  8
0
 10
130.0191410087676047
 20
2.083873168009279
 30
0.0
 11
129.9994528503675895
 21
2.083873168009279
 31
0.0
  0
LINE
  5
9375
  8
0
 10
130.0191410087676047
 20
2.0566392027895701
 30
0.0
 11
129.9994528503675895
 21
2.0566392027895701
 31
0.0
  0
LINE
  5
9376
  8
0
 10
130.2334565467675986
 20
2.0793925655973791
 30
0.0
 11
130.2334565467675986
 21
2.0650910379601082
 31
0.0
  0
LINE
  5
9377
  8
0
 10
130.2531410087676136
 20
2.078332391565771
 30
0.0
 11
130.2531410087676136
 21
2.0829323110832281
 31
0.0
  0
LINE
  5
9378
  8
0
 10
130.2531410088359962
 20
2.065999953258256
 30
0.0
 11
130.2531410087676136
 21
2.0765357346942941
 31
0.0
  0
LINE
  5
9379
  8
0
 10
130.2334565467540131
 20
2.063305943619258
 30
0.0
 11
130.2334565467675986
 21
2.052770162040177
 31
0.0
  0
LINE
  5
937A
  8
0
 10
130.2531410087676136
 20
2.0647648352978041
 30
0.0
 11
130.253141008710287
 21
2.0581587301173179
 31
0.0
  0
LINE
  5
937B
  8
0
 10
130.2334565467675986
 20
2.044753446494294
 30
0.0
 11
130.2334565467675986
 21
2.0515234818359049
 31
0.0
  0
LINE
  5
937C
  8
0
 10
130.2141410087675979
 20
2.0516196164942939
 30
0.0
 11
130.2141410087675979
 21
2.0621553980605301
 31
0.0
  0
LINE
  5
937D
  8
0
 10
130.1944565467676114
 20
2.0186671072779978
 30
0.0
 11
130.1944565467676114
 21
2.0195633258958452
 31
0.0
  0
LINE
  5
937E
  8
0
 10
130.2141410087309907
 20
2.0293102683906539
 30
0.0
 11
130.2141410087309907
 21
2.0302269886449391
 31
0.0
  0
LINE
  5
937F
  8
0
 10
130.1751410087676106
 20
2.0095441797135951
 30
0.0
 11
130.1751410087676106
 21
2.0105709164031369
 31
0.0
  0
LINE
  5
9380
  8
0
 10
130.1556723609010078
 20
2.0014859912097931
 30
0.0
 11
130.1556723609010078
 21
2.0026656723401639
 31
0.0
  0
LINE
  5
9381
  8
0
 10
130.1361410087675097
 20
1.99471294019426
 30
0.0
 11
130.1361410087675097
 21
1.995870227068907
 31
0.0
  0
LINE
  5
9382
  8
0
 10
130.1164565468293119
 20
1.988900464821469
 30
0.0
 11
130.1164565468293119
 21
1.990105685986211
 31
0.0
  0
LINE
  5
9383
  8
0
 10
130.0971409983368119
 20
1.9842161113102901
 30
0.0
 11
130.0971409983368119
 21
1.985459460426287
 31
0.0
  0
LINE
  5
9384
  8
0
 10
130.0774565468055926
 20
1.980440969492308
 30
0.0
 11
130.0774565468055926
 21
1.9817138864899491
 31
0.0
  0
LINE
  5
9385
  8
0
 10
130.058141011915211
 20
1.9776871140570671
 30
0.0
 11
130.058141011915211
 21
1.978981537413913
 31
0.0
  0
LINE
  5
9386
  8
0
 10
130.0384565467676055
 20
1.9758276999942921
 30
0.0
 11
130.0384565467676055
 21
1.9771362619337429
 31
0.0
  0
LINE
  5
9387
  8
0
 10
130.221435276467588
 20
2.0383456962942939
 30
0.0
 11
130.2176323867604992
 21
2.0399733436973211
 31
0.0
  0
LINE
  5
9388
  8
0
 10
130.2176323867604992
 20
2.0399733436973211
 30
0.0
 11
130.2176323867697931
 21
2.0470735272125302
 31
0.0
  0
LINE
  5
9389
  8
0
 10
130.2176323867676047
 20
2.0399733436942631
 30
0.0
 11
130.2224766342268936
 21
2.040486602800303
 31
0.0
  0
LINE
  5
938A
  8
0
 10
130.2224766342268936
 20
2.040486602800303
 30
0.0
 11
130.223798778071199
 21
2.0417216543799031
 31
0.0
  0
LINE
  5
938B
  8
0
 10
130.221435276467588
 20
2.0383456962942939
 30
0.0
 11
130.2224766342268936
 21
2.040486602800303
 31
0.0
  0
ARC
  5
938C
  8
0
 10
130.1015175537862092
 20
2.3293110362188432
 30
0.0
 40
0.3502198134559196
 50
281.7917097104746063
 51
298.1691115815789885
  0
LINE
  5
938D
  8
0
 10
129.9994528505031894
 20
2.1203718314942939
 30
0.0
 11
129.9994528505031894
 21
2.135548418467859
 31
0.0
  0
LINE
  5
938E
  8
0
 10
130.0191410086320047
 20
2.1203718314942939
 30
0.0
 11
130.0191410086320047
 21
2.135548418467859
 31
0.0
  0
LINE
  5
938F
  8
0
 10
129.9994528368970919
 20
2.087625834929459
 30
0.0
 11
129.9994528368970919
 21
2.115951553778153
 31
0.0
  0
LINE
  5
9390
  8
0
 10
130.0191410222381023
 20
2.087625834929459
 30
0.0
 11
130.0191410087336124
 21
2.115951553778153
 31
0.0
  0
LINE
  5
9391
  8
0
 10
130.0190325703314045
 20
2.0598211785101892
 30
0.0
 11
130.0190325703314045
 21
2.083873168009279
 31
0.0
  0
LINE
  5
9392
  8
0
 10
129.9995612888037897
 20
2.0598211785101892
 30
0.0
 11
129.9994528503675895
 21
2.083873168009279
 31
0.0
  0
LINE
  5
9393
  8
0
 10
129.9994528490545918
 20
2.0363316809467431
 30
0.0
 11
129.9994528503675895
 21
2.0566392027895701
 31
0.0
  0
LINE
  5
9394
  8
0
 10
130.0191410100806877
 20
2.0363316809467431
 30
0.0
 11
130.0191410087676047
 21
2.0566392027895701
 31
0.0
  0
LINE
  5
9395
  8
0
 10
129.9995104003390054
 20
2.033661243475728
 30
0.0
 11
129.9995104003390054
 21
2.0265957164373218
 31
0.0
  0
LINE
  5
9396
  8
0
 10
130.0190834587961888
 20
2.033661243475728
 30
0.0
 11
130.0190834587961888
 21
2.0265957164373218
 31
0.0
  0
ARC
  5
9398
  8
0
 10
130.1079694872863115
 20
2.2135650510849461
 30
0.0
 40
0.2140637171224175
 50
291.9722132611894949
 51
317.411614817567397
  0
ARC
  5
9399
  8
0
 10
130.00612885062381
 20
2.3917209132238759
 30
0.0
 40
0.418307488665011
 50
276.550524400917709
 51
295.7807752451320766
  0
LINE
  5
939A
  8
0
 10
129.8276286903675896
 20
2.050417977794293
 30
0.0
 11
129.8307752532319057
 21
2.0515439581868189
 31
0.0
  0
LINE
  5
939B
  8
0
 10
129.8276286903405037
 20
2.0504179778300289
 30
0.0
 11
129.8295396809996021
 21
2.0521270328303909
 31
0.0
  0
LINE
  5
939C
  8
0
 10
129.8276286902556933
 20
2.0504179777542482
 30
0.0
 11
129.8276286903904975
 21
2.0530385911043392
 31
0.0
  0
ARC
  5
939D
  8
0
 10
129.8504811418472116
 20
2.0499677181691989
 30
0.0
 40
0.056760671689893
 50
165.0229231491366875
 51
176.9772367701314977
  0
LINE
  5
939E
  8
0
 10
129.7947950813675959
 20
2.0657557911376201
 30
0.0
 11
129.7956486699565062
 21
2.0646365245612648
 31
0.0
  0
LINE
  5
939F
  8
0
 10
129.7956486699565062
 20
2.0646365245612648
 30
0.0
 11
129.8044528503639015
 21
2.0636712853365071
 31
0.0
  0
LINE
  5
93A0
  8
0
 10
129.8044528503639015
 20
2.0636712853365071
 30
0.0
 11
129.8058726206704137
 21
2.06425855056797
 31
0.0
  0
LINE
  5
93A1
  8
0
 10
129.8044528471083936
 20
2.0636712856934158
 30
0.0
 11
129.8044528536960911
 21
2.0650699559955039
 31
0.0
  0
LINE
  5
93A2
  8
0
 10
130.190961472255708
 20
2.050417977794293
 30
0.0
 11
130.1878170078705068
 21
2.0515432072575002
 31
0.0
  0
LINE
  5
93A3
  8
0
 10
130.1909614722829076
 20
2.0504179778300289
 30
0.0
 11
130.1890517619499121
 21
2.0521258877971942
 31
0.0
  0
LINE
  5
93A4
  8
0
 10
130.1909614723676043
 20
2.0504179777542482
 30
0.0
 11
130.1909614722329138
 21
2.0530368163613111
 31
0.0
  0
ARC
  5
93A5
  8
0
 10
130.168112593888111
 20
2.0499677065692001
 30
0.0
 40
0.056760671689893
 50
3.0227632298684428
 51
14.9770768508633108
  0
LINE
  5
93A6
  8
0
 10
130.2237987777675983
 20
2.065755791194293
 30
0.0
 11
130.2229450657787879
 21
2.064636512961266
 31
0.0
  0
LINE
  5
93A7
  8
0
 10
130.2229450657787879
 20
2.064636512961266
 30
0.0
 11
130.2141408853713926
 21
2.0636712737365079
 31
0.0
  0
LINE
  5
93A8
  8
0
 10
130.2141408853713926
 20
2.0636712737365079
 30
0.0
 11
130.2126997308575085
 21
2.0642673842025898
 31
0.0
  0
LINE
  5
93A9
  8
0
 10
130.2141408886267868
 20
2.0636712740934171
 30
0.0
 11
130.214140882039402
 21
2.0650698869613988
 31
0.0
  0
ARC
  5
93AA
  8
0
 10
130.0092950805226906
 20
2.3943079677140662
 30
0.0
 40
0.418189530419772
 50
267.578875385771596
 51
272.4211249378179787
  0
ARC
  5
93AB
  8
0
 10
130.0019357095247017
 20
2.080722163834881
 30
0.0
 40
0.1071925826278157
 50
279.2343993026029807
 51
283.5009726612386203
  0
ARC
  5
93AC
  8
0
 10
130.0092950815844972
 20
2.3897490409476911
 30
0.0
 40
0.4149469959038929
 50
268.6408596644424733
 51
271.3591402808743851
  0
ARC
  5
93AD
  8
0
 10
130.0165931268086865
 20
2.0804171279927841
 30
0.0
 40
0.1068816593508406
 50
256.492818681415315
 51
260.7718091024217983
  0
LINE
  5
93AE
  8
0
 10
130.0191373123903986
 20
1.9749187866237961
 30
0.0
 11
130.0191373123903986
 21
1.976234273463193
 31
0.0
  0
LINE
  5
93AF
  8
0
 10
129.9994528503825961
 20
1.974918786633189
 30
0.0
 11
129.9994528503825961
 21
1.9762342734225229
 31
0.0
  0
LINE
  5
93B0
  8
0
 10
129.700821014367591
 20
2.222881703494294
 30
0.0
 11
129.703327416611188
 21
2.2271134074362879
 31
0.0
  0
LINE
  5
93B1
  8
0
 10
129.700821014367591
 20
2.222881703494294
 30
0.0
 11
129.6938662475841966
 21
2.222881703494294
 31
0.0
  0
LINE
  5
93B2
  8
0
 10
130.3177728447676031
 20
2.222881703494294
 30
0.0
 11
130.3247276115509976
 21
2.222881703494294
 31
0.0
  0
LINE
  5
93B3
  8
0
 10
130.3177728447676031
 20
2.222881703494294
 30
0.0
 11
130.3152592292653935
 21
2.227116403313262
 31
0.0
  0
LINE
  5
93B4
  8
0
 10
130.8999463837342887
 20
2.9477673151641581
 30
0.0
 11
129.1186474754009055
 21
2.9477673151641581
 31
0.0
  0
ENDSEC
  0
EOF
