  0
SECTION
  2
HEADER
  9
$ACADVER
  1
AC1009
  9
$INSBASE
 10
162.6695600341199111
 20
-5.8094587661877561
 30
0.0
  9
$EXTMIN
 10
155.7138578716372024
 20
-5.8155451842546064
 30
0.0
  9
$EXTMAX
 10
164.2675306766338963
 20
4.7580609188122462
 30
0.0
  9
$LIMMIN
 10
0.0
 20
0.0
  9
$LIMMAX
 10
11.6929133858000007
 20
8.2677165353999982
  9
$ORTHOMODE
 70
     0
  9
$REGENMODE
 70
     1
  9
$FILLMODE
 70
     1
  9
$QTEXTMODE
 70
     0
  9
$MIRRTEXT
 70
     0
  9
$DRAGMODE
 70
     2
  9
$LTSCALE
 40
0.6431102362
  9
$OSMODE
 70
  4095
  9
$ATTMODE
 70
     1
  9
$TEXTSIZE
 40
0.2
  9
$TRACEWID
 40
0.05
  9
$TEXTSTYLE
  7
STANDARD
  9
$CLAYER
  8
0
  9
$CELTYPE
  6
BYLAYER
  9
$CECOLOR
 62
   256
  9
$DIMSCALE
 40
1.0
  9
$DIMASZ
 40
0.1875
  9
$DIMEXO
 40
0.0625
  9
$DIMDLI
 40
0.4443307087
  9
$DIMRND
 40
0.0
  9
$DIMDLE
 40
0.0
  9
$DIMEXE
 40
0.125
  9
$DIMTP
 40
0.01
  9
$DIMTM
 40
0.01
  9
$DIMTXT
 40
1.0
  9
$DIMCEN
 40
0.1052362205
  9
$DIMTSZ
 40
0.0
  9
$DIMTOL
 70
     1
  9
$DIMLIM
 70
     0
  9
$DIMTIH
 70
     1
  9
$DIMTOH
 70
     1
  9
$DIMSE1
 70
     0
  9
$DIMSE2
 70
     0
  9
$DIMTAD
 70
     0
  9
$DIMZIN
 70
     0
  9
$DIMBLK
  1

  9
$DIMASO
 70
     1
  9
$DIMSHO
 70
     1
  9
$DIMPOST
  1
\X
  9
$DIMAPOST
  1

  9
$DIMALT
 70
     1
  9
$DIMALTD
 70
     2
  9
$DIMALTF
 40
25.3999999999999986
  9
$DIMLFAC
 40
1.0
  9
$DIMTOFL
 70
     0
  9
$DIMTVP
 40
0.0
  9
$DIMTIX
 70
     0
  9
$DIMSOXD
 70
     0
  9
$DIMSAH
 70
     0
  9
$DIMBLK1
  1

  9
$DIMBLK2
  1

  9
$DIMSTYLE
  2
STANDARD
  9
$DIMCLRD
 70
     0
  9
$DIMCLRE
 70
     0
  9
$DIMCLRT
 70
     0
  9
$DIMTFAC
 40
1.0
  9
$DIMGAP
 40
0.09
  9
$LUNITS
 70
     2
  9
$LUPREC
 70
     4
  9
$SKETCHINC
 40
0.1
  9
$FILLETRAD
 40
0.0
  9
$AUNITS
 70
     0
  9
$AUPREC
 70
     0
  9
$MENU
  1
.
  9
$ELEVATION
 40
0.0
  9
$PELEVATION
 40
0.0
  9
$THICKNESS
 40
0.0
  9
$LIMCHECK
 70
     0
  9
$BLIPMODE
 70
     0
  9
$CHAMFERA
 40
0.0
  9
$CHAMFERB
 40
0.0
  9
$SKPOLY
 70
     0
  9
$TDCREATE
 40
2458172.4620254631154239
  9
$TDUPDATE
 40
2459207.7752314819954336
  9
$TDINDWG
 40
0.1026911227
  9
$TDUSRTIMER
 40
0.1026911227
  9
$USRTIMER
 70
     1
  9
$ANGBASE
 50
0.0
  9
$ANGDIR
 70
     0
  9
$PDMODE
 70
     0
  9
$PDSIZE
 40
0.3125
  9
$PLINEWID
 40
0.0
  9
$COORDS
 70
     1
  9
$SPLFRAME
 70
     0
  9
$SPLINETYPE
 70
     6
  9
$SPLINESEGS
 70
     8
  9
$ATTDIA
 70
     1
  9
$ATTREQ
 70
     1
  9
$HANDLING
 70
     1
  9
$HANDSEED
  5
878F
  9
$SURFTAB1
 70
     6
  9
$SURFTAB2
 70
     6
  9
$SURFTYPE
 70
     6
  9
$SURFU
 70
     6
  9
$SURFV
 70
     6
  9
$UCSNAME
  2

  9
$UCSORG
 10
0.0
 20
0.0
 30
0.0
  9
$UCSXDIR
 10
1.0
 20
0.0
 30
0.0
  9
$UCSYDIR
 10
0.0
 20
1.0
 30
0.0
  9
$PUCSNAME
  2

  9
$PUCSORG
 10
0.0
 20
0.0
 30
0.0
  9
$PUCSXDIR
 10
1.0
 20
0.0
 30
0.0
  9
$PUCSYDIR
 10
0.0
 20
1.0
 30
0.0
  9
$USERI1
 70
     0
  9
$USERI2
 70
     0
  9
$USERI3
 70
     0
  9
$USERI4
 70
     0
  9
$USERI5
 70
     0
  9
$USERR1
 40
0.0
  9
$USERR2
 40
0.0
  9
$USERR3
 40
0.0
  9
$USERR4
 40
0.0
  9
$USERR5
 40
0.0
  9
$WORLDVIEW
 70
     1
  9
$SHADEDGE
 70
     3
  9
$SHADEDIF
 70
    70
  9
$TILEMODE
 70
     1
  9
$MAXACTVP
 70
    64
  9
$PLIMCHECK
 70
     0
  9
$PEXTMIN
 10
1.0000000000000000E+20
 20
1.0000000000000000E+20
 30
1.0000000000000000E+20
  9
$PEXTMAX
 10
-1.0000000000000000E+20
 20
-1.0000000000000000E+20
 30
-1.0000000000000000E+20
  9
$PLIMMIN
 10
0.0
 20
0.0
  9
$PLIMMAX
 10
12.0
 20
9.0
  9
$UNITMODE
 70
     0
  9
$VISRETAIN
 70
     1
  9
$PLINEGEN
 70
     0
  9
$PSLTSCALE
 70
     1
  0
ENDSEC
  0
SECTION
  2
TABLES
  0
TABLE
  2
VPORT
 70
     1
  0
VPORT
  2
*ACTIVE
 70
     0
 10
0.0
 20
0.0
 11
1.0
 21
1.0
 12
97.3506491566999728
 22
5.6202875038739526
 13
0.0
 23
0.0
 14
1.0
 24
1.0
 15
0.0
 25
0.0
 16
0.0
 26
0.0
 36
24.7332413121020203
 17
103.0958557128905966
 27
-4.5597535845750086
 37
0.0
 40
114.1681737458189048
 41
2.9182795698924728
 42
50.0
 43
0.0
 44
0.0
 50
0.0
 51
0.0
 71
     0
 72
   100
 73
     1
 74
     1
 75
     0
 76
     0
 77
     0
 78
     0
  0
ENDTAB
  0
TABLE
  2
LTYPE
 70
     2
  0
LTYPE
  2
CONTINUOUS
 70
     0
  3
Solid line
 72
    65
 73
     0
 40
0.0
  0
LTYPE
  2
PHANTOM2
 70
     0
  3
___ _ _ ___ _ _ ___ _ _ ___ _ _
 72
    65
 73
     6
 40
1.25
 49
0.625
 49
-0.125
 49
0.125
 49
-0.125
 49
0.125
 49
-0.125
  0
ENDTAB
  0
TABLE
  2
LAYER
 70
     2
  0
LAYER
  2
0
 70
     0
 62
   255
  6
CONTINUOUS
  0
LAYER
  2
DEFPOINTS
 70
     0
 62
     7
  6
CONTINUOUS
  0
ENDTAB
  0
TABLE
  2
STYLE
 70
     1
  0
STYLE
  2
STANDARD
 70
     0
 40
0.0
 41
0.8
 50
0.0
 71
     0
 42
0.2
  3
txt
  4

  0
ENDTAB
  0
TABLE
  2
VIEW
 70
     0
  0
ENDTAB
  0
TABLE
  2
UCS
 70
     0
  0
ENDTAB
  0
TABLE
  2
APPID
 70
     9
  0
APPID
  2
ACAD
 70
     0
  0
APPID
  2
ACAD_MLEADERVER
 70
     0
  0
APPID
  2
ACAD_EXEMPT_FROM_CAD_STANDARDS
 70
     0
  0
APPID
  2
ACAD_DSTYLE_DIMJAG
 70
     0
  0
APPID
  2
ACAD_DSTYLE_DIMTALN
 70
     0
  0
APPID
  2
ACAD_NAV_VCDISPLAY
 70
     0
  0
APPID
  2
ACAECLAYERSTANDARD
 70
     0
  0
APPID
  2
ACCMTRANSPARENCY
 70
     0
  0
APPID
  2
ACDBATTR
 70
     0
  0
ENDTAB
  0
TABLE
  2
DIMSTYLE
 70
     1
  0
DIMSTYLE
  2
STANDARD
 70
     0
  3

  4

  5

  6

  7

 40
1.0
 41
0.1875
 42
0.0625
 43
0.38
 44
0.125
 45
0.0
 46
0.0
 47
0.01
 48
0.01
140
0.15625
141
0.09
142
0.0
143
25.3999999999999986
144
1.0
145
0.0
146
1.0
147
0.09
 71
     1
 72
     0
 73
     1
 74
     1
 75
     0
 76
     0
 77
     0
 78
     4
170
     0
171
     2
172
     0
173
     0
174
     0
175
     0
176
     0
177
     0
178
     0
  0
ENDTAB
  0
ENDSEC
  0
SECTION
  2
BLOCKS
  0
BLOCK
  8
0
  2
$MODEL_SPACE
 70
     0
 10
0.0
 20
0.0
 30
0.0
  3
$MODEL_SPACE
  1

  0
ENDBLK
  5
21
  8
0
  0
BLOCK
 67
     1
  8
0
  2
$PAPER_SPACE
 70
     0
 10
0.0
 20
0.0
 30
0.0
  3
$PAPER_SPACE
  1

  0
ENDBLK
  5
1D
 67
     1
  8
0
  0
ENDSEC
  0
SECTION
  2
ENTITIES
  0
ATTDEF
  5
383D
  8
DEFPOINTS
 10
162.6658848058841897
 20
-5.8122118509212761
 30
0.0
 40
0.001
  1
K-72298AR-4
  3

  2
MODELNUMBER
 70
     0
1001
ACDBATTR
1070
     0
1070
     1
  0
ATTDEF
  5
383E
  8
DEFPOINTS
 10
162.6658848058841897
 20
-5.8138785175879413
 30
0.0
 40
0.001
  1
ALEO
  3

  2
TRADENAME
 70
     0
1001
ACDBATTR
1070
     0
1070
     1
  0
ATTDEF
  5
383F
  8
DEFPOINTS
 10
162.6658848058841897
 20
-5.8155451842546064
 30
0.0
 40
0.001
  1
BATHROOM SINK FAUCET
  3

  2
PRODUCT
 70
     0
1001
ACDBATTR
1070
     0
1070
     1
  0
LINE
  5
85DA
  8
0
 10
155.7843519496452132
 20
3.090172672983392
 30
0.0
 11
161.3954200362707923
 21
3.0881520665122362
 31
0.0
  0
LINE
  5
85DB
  8
0
 10
155.7453578716371965
 20
3.3112112680231931
 30
0.0
 11
163.7464759948483106
 21
3.3112112680231931
 31
0.0
  0
ARC
  5
85DC
  8
0
 10
163.7342028493652037
 20
4.7383758739115569
 30
0.0
 40
0.0196850496075271
 50
0.000045956997505
 51
89.9603781762829442
  0
LINE
  5
85DD
  8
0
 10
163.734216462191597
 20
4.75806091881224
 30
0.0
 11
159.2024117149726976
 21
4.75806091881224
 31
0.0
  0
ARC
  5
85DE
  8
0
 10
159.2024117149460096
 20
4.7383763632087081
 30
0.0
 40
0.0196845556035381
 50
89.9999999224371976
 51
202.6512080028506091
  0
ARC
  5
85DF
  8
0
 10
159.3854700607384132
 20
4.8147682263419176
 30
0.0
 40
0.2180430056812233
 50
202.6512080008440932
 51
216.9434213943293912
  0
ARC
  5
85E0
  8
0
 10
159.4380838270739105
 20
4.8745954852300812
 30
0.0
 40
0.2964937637073275
 50
220.0742754337817928
 51
249.7110615026248013
  0
ARC
  5
85E1
  8
0
 10
159.6997980754113939
 20
5.6128147279622382
 30
0.0
 40
1.079712568668485
 50
250.2684985462857981
 51
266.6232891938931857
  0
ARC
  5
85E2
  8
0
 10
159.9583923183440106
 20
8.3840870388209474
 30
0.0
 40
3.8625712650330262
 50
265.215208051631123
 51
268.3647380272793725
  0
ARC
  5
85E3
  8
0
 10
152.145415959026991
 20
3.6354609145558419
 30
0.0
 40
9.6467884516785514
 50
358.7170932835128951
 51
1.078962790492519
  0
ARC
  5
85E4
  8
0
 10
161.0540624394251097
 20
3.8032435075251172
 30
0.0
 40
0.7365621295690797
 50
1.078962790492926
 51
39.3143937768506007
  0
ARC
  5
85E5
  8
0
 10
161.134057047111412
 20
3.770060525379058
 30
0.0
 40
0.6998733723344119
 50
45.5777867724929209
 51
79.0869185398994716
  0
ARC
  5
85E6
  8
0
 10
160.7440841974874104
 20
1.437145309272331
 30
0.0
 40
3.0649915749249992
 50
80.1851659432152246
 51
89.1028933377652947
  0
ARC
  5
85E7
  8
0
 10
159.7857305350694901
 20
-26.5648728821824598
 30
0.0
 40
31.0829290166614989
 50
88.1446661608421067
 51
89.355078558585376
  0
ARC
  5
85E8
  8
0
 10
160.8091675628095061
 20
38.0697335218676471
 30
0.0
 40
33.5604066134863075
 50
268.3591135428500252
 51
268.8499665646367021
  0
LINE
  5
85E9
  8
0
 10
163.7538878989726925
 20
4.7383758780133931
 30
0.0
 11
163.7538702677726974
 21
3.890711006613393
 31
0.0
  0
LINE
  5
85EA
  8
0
 10
163.7538702677726974
 20
3.890711006613393
 30
0.0
 11
162.861964010898987
 21
3.474808288739204
 31
0.0
  0
ARC
  5
85EB
  8
0
 10
162.6123863334740065
 20
4.0100293452621036
 30
0.0
 40
0.5905510955153255
 50
280.4628461198070113
 51
294.9999999967080271
  0
ARC
  5
85EC
  8
0
 10
162.6123860894213067
 20
4.0100306668348429
 30
0.0
 40
0.5905524394335713
 50
275.5438225718218064
 51
280.4628461198070113
  0
ARC
  5
85ED
  8
0
 10
162.610701831487205
 20
4.02738323025455
 30
0.0
 40
0.6079865491620066
 50
270.9146287461857128
 51
275.5438225718218064
  0
ARC
  5
85EE
  8
0
 10
162.7937206404295978
 20
3.1931002897049079
 30
0.0
 40
0.9251968489255968
 50
11.2910773100478004
 51
39.1690610572798477
  0
ARC
  5
85EF
  8
0
 10
163.3921642892775878
 20
3.3125842167567821
 30
0.0
 40
0.3149418123464204
 50
359.750225552790198
 51
11.2910773100478004
  0
ARC
  5
85F0
  8
0
 10
163.7464752687816087
 20
3.2797139017264589
 30
0.0
 40
0.0314973663051137
 50
0.0755961073481136
 51
89.9986792368693784
  0
LINE
  5
85F1
  8
0
 10
163.7779726076711029
 20
3.2797554593705982
 30
0.0
 11
163.7779726076695965
 21
-3.19141638129891
 31
0.0
  0
LINE
  5
85F2
  8
0
 10
163.7779726076695965
 20
-3.406728911899588
 30
0.0
 11
163.7779726076689997
 21
-5.8094587661877588
 31
0.0
  0
LINE
  5
85F3
  8
0
 10
161.5611474605707087
 20
-5.8094587661877588
 30
0.0
 11
161.5611474605707087
 21
1.672195468065957
 31
0.0
  0
LINE
  5
85F4
  8
0
 10
156.9823134209860029
 20
2.5484881702581168
 30
0.0
 11
156.008196907326294
 21
2.7913626961989868
 31
0.0
  0
ARC
  5
85F5
  8
0
 10
156.7047560436002129
 20
3.546418589787975
 30
0.0
 40
1.027279919384255
 50
195.5356329568280103
 51
227.3076399526223099
  0
ARC
  5
85F6
  8
0
 10
155.7453578716371965
 20
3.279711268023199
 30
0.0
 40
0.0315
 50
90.0
 51
195.535632956829204
  0
ARC
  5
85F7
  8
0
 10
162.2924869056309092
 20
3.3044826693319251
 30
0.0
 40
0.4122070075907612
 50
163.8015362199392086
 51
179.0646994776296879
  0
LINE
  5
85F8
  8
0
 10
159.2066856951310001
 20
4.6899527507755252
 30
0.0
 11
161.5685217203719048
 21
4.6899527507755252
 31
0.0
  0
ARC
  5
85F9
  8
0
 10
161.5190591275039083
 20
0.9769293574748161
 30
0.0
 40
3.7133528336654882
 50
77.9292177092138729
 51
89.2367863347012502
  0
ARC
  5
85FA
  8
0
 10
162.1978498519414131
 20
4.1822509549971221
 30
0.0
 40
0.4370007742776802
 50
11.1019982877490104
 51
77.0751354751623836
  0
ARC
  5
85FB
  8
0
 10
160.6709038113035888
 20
3.8530776217887062
 30
0.0
 40
1.998966060171979
 50
359.0541233127868281
 51
11.9329665808360303
  0
ARC
  5
85FC
  8
0
 10
361.1029254799282171
 20
3.5414232021229921
 30
0.0
 40
198.4335236522971115
 50
179.9195408197413997
 51
180.0344128723604911
  0
ARC
  5
85FD
  8
0
 10
161.4901604381952893
 20
1.657314531725411
 30
0.0
 40
1.433970639417584
 50
51.0333981678256308
 51
93.7882100881946741
  0
ARC
  5
85FE
  8
0
 10
161.2838314365731947
 20
1.929631247866801
 30
0.0
 40
1.3920837244809761
 50
2.3174434938059161
 51
37.2496746846802225
  0
LINE
  5
85FF
  8
0
 10
162.674776618691709
 20
1.985921533941031
 30
0.0
 11
162.6998877046185044
 21
-5.8094587661877588
 31
0.0
  0
ARC
  5
8600
  8
0
 10
160.3928290177026952
 20
1.6170172259119999
 30
0.0
 40
1.169620717306554
 50
2.7039998693847669
 51
27.3619788711016483
  0
ARC
  5
8601
  8
0
 10
160.7431856968509862
 20
1.765025867423879
 30
0.0
 40
0.7909886237861486
 50
29.5049876157077406
 51
83.062842719061905
  0
ARC
  5
8602
  8
0
 10
160.3768167568065905
 20
-0.6072053683592671
 30
0.0
 40
3.191036739774697
 50
81.6771525009860255
 51
86.9347102313626294
  0
ARC
  5
8603
  8
0
 10
158.2635023002148955
 20
-50.4881620325512586
 30
0.0
 40
53.1165542047351735
 50
87.5355866663311559
 51
90.7446393389899129
  0
ARC
  5
8604
  8
0
 10
156.3956897873565879
 20
4.8217318232224207
 30
0.0
 40
2.3477146319932118
 50
284.469824091606597
 51
287.7709912949193267
  0
ARC
  5
8605
  8
0
 10
157.1846039626215088
 20
2.3602708901113441
 30
0.0
 40
0.2370823621952922
 50
97.5047139859804446
 51
107.7709912949192983
  0
ARC
  5
8606
  8
0
 10
157.5901246465894872
 20
-0.7180074174884012
 30
0.0
 40
3.3419566533969598
 50
90.2902099119820463
 51
97.5047139859804446
  0
LINE
  5
8607
  8
0
 10
156.1900181693891057
 20
2.5492391657599991
 30
0.0
 11
156.7081053969936022
 21
2.420065512079133
 31
0.0
  0
LINE
  5
8608
  8
0
 10
156.7548905515490105
 20
2.4454677783969809
 30
0.0
 11
156.7875262064721085
 21
2.540248602316189
 31
0.0
  0
LINE
  5
8609
  8
0
 10
156.8384848619706986
 20
2.5275431825122392
 30
0.0
 11
156.1253576445706983
 21
2.7053457674122319
 31
0.0
  0
LINE
  5
860A
  8
0
 10
156.8763298105706951
 20
2.5383950469122349
 30
0.0
 11
156.8849018461600906
 21
2.572775603768612
 31
0.0
  0
LINE
  5
860B
  8
0
 10
156.8763298105706951
 20
2.5383950469122349
 30
0.0
 11
156.0970371800707142
 21
2.7326945221122472
 31
0.0
  0
LINE
  5
860C
  8
0
 10
156.8384848619706986
 20
2.5275431825122392
 30
0.0
 11
156.8763298105706951
 21
2.5383950469122349
 31
0.0
  0
LINE
  5
860D
  8
0
 10
156.0970371800707142
 20
2.7326945221122401
 30
0.0
 11
156.1056092157622004
 21
2.767075079778976
 31
0.0
  0
LINE
  5
860E
  8
0
 10
156.0970371800707142
 20
2.7326945221122401
 30
0.0
 11
156.1253576445706983
 21
2.7053457674122319
 31
0.0
  0
LINE
  5
860F
  8
0
 10
156.1606349714510884
 20
2.5936323352999082
 30
0.0
 11
156.1763163000701127
 21
2.6926403476081111
 31
0.0
  0
ARC
  5
8610
  8
0
 10
156.1995498920703938
 20
2.5874688173765961
 30
0.0
 40
0.0394
 50
170.9999999989323101
 51
256.0000000079455162
  0
ARC
  5
8611
  8
0
 10
156.7176371196748903
 20
2.45829516369573
 30
0.0
 40
0.0394
 50
256.0000000079438109
 51
340.9999999797871055
  0
ARC
  5
8612
  8
0
 10
156.564816013070697
 20
2.948917196912233
 30
0.0
 40
0.5163490183999945
 50
233.9193387186519999
 51
278.0806612972386915
  0
LINE
  5
8613
  8
0
 10
156.3262611428527009
 20
2.5003485113360071
 30
0.0
 11
156.3357712039405101
 21
2.4915126382910771
 31
0.0
  0
LINE
  5
8614
  8
0
 10
156.3357712039405101
 20
2.4915126382910771
 30
0.0
 11
156.3567274274780061
 21
2.4816061706153931
 31
0.0
  0
LINE
  5
8615
  8
0
 10
156.3567274274780061
 20
2.4816061706153931
 30
0.0
 11
156.3681560734137008
 21
2.4804653211128591
 31
0.0
  0
LINE
  5
8616
  8
0
 10
156.3681560734137008
 20
2.4804653211128591
 30
0.0
 11
156.3586371845221095
 21
2.4892657877343041
 31
0.0
  0
LINE
  5
8617
  8
0
 10
156.3586371845221095
 20
2.4892657877343041
 30
0.0
 11
156.3376986181432926
 21
2.4992430746611798
 31
0.0
  0
LINE
  5
8618
  8
0
 10
156.3376986181432926
 20
2.4992430746611798
 30
0.0
 11
156.3262611428527009
 21
2.5003485113360071
 31
0.0
  0
LINE
  5
8619
  8
0
 10
156.3567274274780061
 20
2.4816061706153931
 30
0.0
 11
156.3586371845221095
 21
2.4892657877343041
 31
0.0
  0
LINE
  5
861A
  8
0
 10
156.3357712039405101
 20
2.4915126382910771
 30
0.0
 11
156.3376986181432926
 21
2.4992430746611798
 31
0.0
  0
LINE
  5
861B
  8
0
 10
156.3881889684134023
 20
2.4725505535032251
 30
0.0
 11
156.3980945955657091
 21
2.4653012090689042
 31
0.0
  0
LINE
  5
861C
  8
0
 10
156.3980945955657091
 20
2.4653012090689042
 30
0.0
 11
156.4197897651692983
 21
2.4583584928082369
 31
0.0
  0
LINE
  5
861D
  8
0
 10
156.4197897651692983
 20
2.4583584928082369
 30
0.0
 11
156.4315737891558911
 21
2.4586429863352701
 31
0.0
  0
LINE
  5
861E
  8
0
 10
156.4315737891558911
 20
2.4586429863352701
 30
0.0
 11
156.4216718154708019
 21
2.4659069838122392
 31
0.0
  0
LINE
  5
861F
  8
0
 10
156.4216718154708019
 20
2.4659069838122392
 30
0.0
 11
156.3999822264555064
 21
2.4728720833509921
 31
0.0
  0
LINE
  5
8620
  8
0
 10
156.3999822264555064
 20
2.4728720833509921
 30
0.0
 11
156.3881889684134023
 21
2.4725505535032251
 31
0.0
  0
LINE
  5
8621
  8
0
 10
156.3925440501465971
 20
2.4900178322621471
 30
0.0
 11
156.4017633129996057
 21
2.4800156310002199
 31
0.0
  0
LINE
  5
8622
  8
0
 10
156.4017633129996057
 20
2.4800156310002199
 30
0.0
 11
156.4234474752890947
 21
2.4730287666675959
 31
0.0
  0
LINE
  5
8623
  8
0
 10
156.4234474752890947
 20
2.4730287666675959
 30
0.0
 11
156.4359022184264063
 21
2.4760033679447768
 31
0.0
  0
LINE
  5
8624
  8
0
 10
156.4359022184264063
 20
2.4760033679447768
 30
0.0
 11
156.4266993164613098
 21
2.486071188774424
 31
0.0
  0
LINE
  5
8625
  8
0
 10
156.4266993164613098
 20
2.486071188774424
 30
0.0
 11
156.4050255219748919
 21
2.493099636852512
 31
0.0
  0
LINE
  5
8626
  8
0
 10
156.4050255219748919
 20
2.493099636852512
 30
0.0
 11
156.3925440501465971
 21
2.4900178322621471
 31
0.0
  0
LINE
  5
8627
  8
0
 10
156.3588506049086106
 20
2.4929692538335502
 30
0.0
 11
156.3682236572003887
 21
2.4835838690344541
 31
0.0
  0
LINE
  5
8628
  8
0
 10
156.3682236572003887
 20
2.4835838690344541
 30
0.0
 11
156.3895448507090862
 21
2.475141216025853
 31
0.0
  0
LINE
  5
8629
  8
0
 10
156.3895448507090862
 20
2.475141216025853
 30
0.0
 11
156.4014773148186919
 21
2.476021071062334
 31
0.0
  0
LINE
  5
862A
  8
0
 10
156.4014773148186919
 20
2.476021071062334
 30
0.0
 11
156.3921066409592129
 21
2.4854159960041851
 31
0.0
  0
LINE
  5
862B
  8
0
 10
156.3921066409592129
 20
2.4854159960041851
 30
0.0
 11
156.3708013590681958
 21
2.4939224667021662
 31
0.0
  0
LINE
  5
862C
  8
0
 10
156.3708013590681958
 20
2.4939224667021662
 30
0.0
 11
156.3588506049086106
 21
2.4929692538335502
 31
0.0
  0
LINE
  5
862D
  8
0
 10
156.3342973293621014
 20
2.5132663309733081
 30
0.0
 11
156.3395184315697861
 21
2.5065419475084658
 31
0.0
  0
LINE
  5
862E
  8
0
 10
156.3395184315697861
 20
2.5065419475084658
 30
0.0
 11
156.3604398001706954
 21
2.496495684212241
 31
0.0
  0
LINE
  5
862F
  8
0
 10
156.3604398001706954
 20
2.496495684212241
 30
0.0
 11
156.3725366460299995
 21
2.4980348385254478
 31
0.0
  0
LINE
  5
8630
  8
0
 10
156.3725366460299995
 20
2.4980348385254478
 30
0.0
 11
156.3670314254163998
 21
2.5051048041840209
 31
0.0
  0
LINE
  5
8631
  8
0
 10
156.301274466720713
 20
2.5214998553589751
 30
0.0
 11
156.3070647695080879
 21
2.5142360839137079
 31
0.0
  0
LINE
  5
8632
  8
0
 10
156.3070647695080879
 20
2.5142360839137079
 30
0.0
 11
156.3276111258358867
 21
2.5029155131795799
 31
0.0
  0
LINE
  5
8633
  8
0
 10
156.3276111258358867
 20
2.5029155131795799
 30
0.0
 11
156.3391887091939907
 21
2.5023720189775309
 31
0.0
  0
LINE
  5
8634
  8
0
 10
156.3391887091939907
 20
2.5023720189775309
 30
0.0
 11
156.330236857976189
 21
2.5134467497343489
 31
0.0
  0
LINE
  5
8635
  8
0
 10
156.330236857976189
 20
2.5134467497343489
 30
0.0
 11
156.3261905405340997
 21
2.5152875804400661
 31
0.0
  0
LINE
  5
8636
  8
0
 10
156.2757319779267959
 20
2.5268853552492199
 30
0.0
 11
156.2958868528727123
 21
2.5137648539933788
 31
0.0
  0
LINE
  5
8637
  8
0
 10
156.2958868528727123
 20
2.5137648539933788
 30
0.0
 11
156.3069514011856995
 21
2.5111636889868829
 31
0.0
  0
LINE
  5
8638
  8
0
 10
156.3069514011856995
 20
2.5111636889868829
 30
0.0
 11
156.2978622989813005
 21
2.5216879354673192
 31
0.0
  0
LINE
  5
8639
  8
0
 10
156.2978622989813005
 20
2.5216879354673192
 30
0.0
 11
156.2961080062586063
 21
2.5227879986270021
 31
0.0
  0
LINE
  5
863A
  8
0
 10
156.2623970959197095
 20
2.531193072570872
 30
0.0
 11
156.2652866760871859
 21
2.5291226984069581
 31
0.0
  0
LINE
  5
863B
  8
0
 10
156.2652866760871859
 20
2.5291226984069581
 30
0.0
 11
156.2758297816706943
 21
2.5244301405122371
 31
0.0
  0
LINE
  5
863C
  8
0
 10
156.2758297816706943
 20
2.5244301405122371
 30
0.0
 11
156.2715081400338875
 21
2.528921434139384
 31
0.0
  0
LINE
  5
863D
  8
0
 10
156.2755801732548093
 20
2.521180200887108
 30
0.0
 11
156.2758970227174871
 21
2.5224510145752528
 31
0.0
  0
LINE
  5
863E
  8
0
 10
156.2758970227174871
 20
2.5224510145752528
 30
0.0
 11
156.2748104183725104
 21
2.5231891819419512
 31
0.0
  0
LINE
  5
863F
  8
0
 10
156.2748104183725104
 20
2.5231891819419512
 30
0.0
 11
156.2680162747039105
 21
2.5263935595758151
 31
0.0
  0
LINE
  5
8640
  8
0
 10
156.2757319779267959
 20
2.5268853552492199
 30
0.0
 11
156.2759627131983109
 21
2.5278107843094579
 31
0.0
  0
LINE
  5
8641
  8
0
 10
156.3698984550485989
 20
2.5043899734121728
 30
0.0
 11
156.394384646664605
 21
2.494552577326409
 31
0.0
  0
LINE
  5
8642
  8
0
 10
156.394384646664605
 20
2.494552577326409
 30
0.0
 11
156.4015686626788977
 21
2.4964937037987411
 31
0.0
  0
LINE
  5
8643
  8
0
 10
156.3624170710095882
 20
2.4788097967575382
 30
0.0
 11
156.3921545433985045
 21
2.4670932494448432
 31
0.0
  0
LINE
  5
8644
  8
0
 10
156.3921545433985045
 20
2.4670932494448432
 30
0.0
 11
156.3882268399108
 21
2.4698549634030722
 31
0.0
  0
LINE
  5
8645
  8
0
 10
156.3882268399108
 20
2.4698549634030722
 30
0.0
 11
156.3668977211146967
 21
2.47826582980354
 31
0.0
  0
LINE
  5
8646
  8
0
 10
156.3668977211146967
 20
2.47826582980354
 30
0.0
 11
156.3624170710095882
 21
2.4788097967575382
 31
0.0
  0
LINE
  5
8647
  8
0
 10
156.3013607829830107
 20
2.510103294213323
 30
0.0
 11
156.3300336041048126
 21
2.4941166693151402
 31
0.0
  0
LINE
  5
8648
  8
0
 10
156.3300336041048126
 20
2.4941166693151402
 30
0.0
 11
156.3262612953209896
 21
2.4975016385943638
 31
0.0
  0
LINE
  5
8649
  8
0
 10
156.3262612953209896
 20
2.4975016385943638
 30
0.0
 11
156.3056977416065934
 21
2.508983018829269
 31
0.0
  0
LINE
  5
864A
  8
0
 10
156.3056977416065934
 20
2.508983018829269
 30
0.0
 11
156.3013607829830107
 21
2.510103294213323
 31
0.0
  0
LINE
  5
864B
  8
0
 10
156.4197897651692983
 20
2.4583584928082369
 30
0.0
 11
156.4216718154708019
 21
2.4659069838122392
 31
0.0
  0
LINE
  5
864C
  8
0
 10
156.3980945955657091
 20
2.4653012090689042
 30
0.0
 11
156.3999822264555064
 21
2.4728720833509921
 31
0.0
  0
LINE
  5
864D
  8
0
 10
156.4234474752890947
 20
2.4730287666675959
 30
0.0
 11
156.4266993164613098
 21
2.486071188774424
 31
0.0
  0
LINE
  5
864E
  8
0
 10
156.4017633129996057
 20
2.4800156310002199
 30
0.0
 11
156.4050255219748919
 21
2.493099636852512
 31
0.0
  0
LINE
  5
864F
  8
0
 10
156.3895448507090862
 20
2.475141216025853
 30
0.0
 11
156.3921066409592129
 21
2.4854159960041851
 31
0.0
  0
LINE
  5
8650
  8
0
 10
156.3682236572003887
 20
2.4835838690344541
 30
0.0
 11
156.3708013590681958
 21
2.4939224667021662
 31
0.0
  0
LINE
  5
8651
  8
0
 10
156.394384646664605
 20
2.494552577326409
 30
0.0
 11
156.395262043272993
 21
2.4980661206189501
 31
0.0
  0
LINE
  5
8652
  8
0
 10
156.3604398001706954
 20
2.496495684212241
 30
0.0
 11
156.3633591371020088
 21
2.506020408494777
 31
0.0
  0
LINE
  5
8653
  8
0
 10
156.3395184315697861
 20
2.5065419475084658
 30
0.0
 11
156.3410351087117078
 21
2.5115864139054551
 31
0.0
  0
LINE
  5
8654
  8
0
 10
156.3276111258358867
 20
2.5029155131795799
 30
0.0
 11
156.330236857976189
 21
2.5134467497343489
 31
0.0
  0
LINE
  5
8655
  8
0
 10
156.3070647695080879
 20
2.5142360839137079
 30
0.0
 11
156.3089649891668955
 21
2.5195823927577621
 31
0.0
  0
LINE
  5
8656
  8
0
 10
156.2958868528727123
 20
2.5137648539933788
 30
0.0
 11
156.2978622989813005
 21
2.5216879354673192
 31
0.0
  0
LINE
  5
8657
  8
0
 10
156.2757319779267959
 20
2.5268853552492199
 30
0.0
 11
156.2742796518197963
 21
2.5282304186413631
 31
0.0
  0
LINE
  5
8658
  8
0
 10
156.2652866760871859
 20
2.5291226984069581
 30
0.0
 11
156.2657111921112119
 21
2.5303667755866992
 31
0.0
  0
LINE
  5
8659
  8
0
 10
156.564857219660297
 20
2.4408598280193341
 30
0.0
 11
156.5523121429878017
 21
2.4375229184246119
 31
0.0
  0
LINE
  5
865A
  8
0
 10
156.5523121429878017
 20
2.4375229184246119
 30
0.0
 11
156.5291580909986067
 21
2.4386143776508851
 31
0.0
  0
LINE
  5
865B
  8
0
 10
156.5291580909986067
 20
2.4386143776508851
 30
0.0
 11
156.5185315991811876
 21
2.442972491596755
 31
0.0
  0
LINE
  5
865C
  8
0
 10
156.5185315991811876
 20
2.442972491596755
 30
0.0
 11
156.5310678480327056
 21
2.446273994772262
 31
0.0
  0
LINE
  5
865D
  8
0
 10
156.5310678480327056
 20
2.446273994772262
 30
0.0
 11
156.5542395573008037
 21
2.445253354767245
 31
0.0
  0
LINE
  5
865E
  8
0
 10
156.5542395573008037
 20
2.445253354767245
 30
0.0
 11
156.564857219660297
 21
2.4408598280193341
 31
0.0
  0
LINE
  5
865F
  8
0
 10
156.5291580909986067
 20
2.4386143776508851
 30
0.0
 11
156.5310678480327056
 21
2.446273994772262
 31
0.0
  0
LINE
  5
8660
  8
0
 10
156.5523121429878017
 20
2.4375229184246119
 30
0.0
 11
156.5542395573008037
 21
2.445253354767245
 31
0.0
  0
LINE
  5
8661
  8
0
 10
156.4971278444444067
 20
2.4453890411104382
 30
0.0
 11
156.4849783337338067
 21
2.4436386601518829
 31
0.0
  0
LINE
  5
8662
  8
0
 10
156.4849783337338067
 20
2.4436386601518829
 30
0.0
 11
156.4625632281027947
 21
2.447693870720328
 31
0.0
  0
LINE
  5
8663
  8
0
 10
156.4625632281027947
 20
2.447693870720328
 30
0.0
 11
156.4522921141102927
 21
2.4534773277521249
 31
0.0
  0
LINE
  5
8664
  8
0
 10
156.4522921141102927
 20
2.4534773277521249
 30
0.0
 11
156.4644452781878101
 21
2.4552423617783101
 31
0.0
  0
LINE
  5
8665
  8
0
 10
156.4644452781878101
 20
2.4552423617783101
 30
0.0
 11
156.4868659647642914
 21
2.4512095343988838
 31
0.0
  0
LINE
  5
8666
  8
0
 10
156.4868659647642914
 20
2.4512095343988838
 30
0.0
 11
156.4971278444444067
 21
2.4453890411104382
 31
0.0
  0
LINE
  5
8667
  8
0
 10
156.5014829261679949
 20
2.462856319871733
 30
0.0
 11
156.4886470511661969
 21
2.4583530820835899
 31
0.0
  0
LINE
  5
8668
  8
0
 10
156.4886470511661969
 20
2.4583530820835899
 30
0.0
 11
156.4662209381523041
 21
2.4623641445972231
 31
0.0
  0
LINE
  5
8669
  8
0
 10
156.4662209381523041
 20
2.4623641445972231
 30
0.0
 11
156.4566205433897892
 21
2.470837709359393
 31
0.0
  0
LINE
  5
866A
  8
0
 10
156.4566205433897892
 20
2.470837709359393
 30
0.0
 11
156.4694727791060131
 21
2.475406566758529
 31
0.0
  0
LINE
  5
866B
  8
0
 10
156.4694727791060131
 20
2.475406566758529
 30
0.0
 11
156.4919092602789874
 21
2.4714370879015979
 31
0.0
  0
LINE
  5
866C
  8
0
 10
156.4919092602789874
 20
2.4714370879015979
 30
0.0
 11
156.5014829261679949
 21
2.462856319871733
 31
0.0
  0
LINE
  5
866D
  8
0
 10
156.5326180810334904
 20
2.449644156052222
 30
0.0
 11
156.5199359958056959
 21
2.445757734643315
 31
0.0
  0
LINE
  5
866E
  8
0
 10
156.5199359958056959
 20
2.445757734643315
 30
0.0
 11
156.4971469138183977
 21
2.448313008529019
 31
0.0
  0
LINE
  5
866F
  8
0
 10
156.4971469138183977
 20
2.448313008529019
 30
0.0
 11
156.4870242402749057
 21
2.4546918269889768
 31
0.0
  0
LINE
  5
8670
  8
0
 10
156.4870242402749057
 20
2.4546918269889768
 30
0.0
 11
156.4997087042972908
 21
2.458587788450266
 31
0.0
  0
LINE
  5
8671
  8
0
 10
156.4997087042972908
 20
2.458587788450266
 30
0.0
 11
156.5225136977504974
 21
2.4560963322918208
 31
0.0
  0
LINE
  5
8672
  8
0
 10
156.5225136977504974
 20
2.4560963322918208
 30
0.0
 11
156.5326180810334904
 21
2.449644156052222
 31
0.0
  0
LINE
  5
8673
  8
0
 10
156.5638262370989082
 20
2.4560383468124689
 30
0.0
 11
156.5560593706584882
 21
2.4525522276316631
 31
0.0
  0
LINE
  5
8674
  8
0
 10
156.5560593706584882
 20
2.4525522276316631
 30
0.0
 11
156.5328704636831958
 21
2.4535038912497451
 31
0.0
  0
LINE
  5
8675
  8
0
 10
156.5328704636831958
 20
2.4535038912497451
 30
0.0
 11
156.5229121719312957
 21
2.4605420089759771
 31
0.0
  0
LINE
  5
8676
  8
0
 10
156.5229121719312957
 20
2.4605420089759771
 30
0.0
 11
156.531092141046912
 21
2.4641998736108439
 31
0.0
  0
LINE
  5
8677
  8
0
 10
156.5968490997379945
 20
2.4478048224176372
 30
0.0
 11
156.588326431697908
 21
2.4441096754035452
 31
0.0
  0
LINE
  5
8678
  8
0
 10
156.588326431697908
 20
2.4441096754035452
 30
0.0
 11
156.564870389801996
 21
2.4437601347388589
 31
0.0
  0
LINE
  5
8679
  8
0
 10
156.564870389801996
 20
2.4437601347388589
 30
0.0
 11
156.554392835372397
 21
2.4487156039938389
 31
0.0
  0
LINE
  5
867A
  8
0
 10
156.554392835372397
 20
2.4487156039938389
 30
0.0
 11
156.5674961220126136
 21
2.4542913712760921
 31
0.0
  0
LINE
  5
867B
  8
0
 10
156.5674961220126136
 20
2.4542913712760921
 30
0.0
 11
156.5719330259263984
 21
2.454017097343459
 31
0.0
  0
LINE
  5
867C
  8
0
 10
156.6219301177841032
 20
2.4405684644505561
 30
0.0
 11
156.5979747172370935
 21
2.4384458900882251
 31
0.0
  0
LINE
  5
867D
  8
0
 10
156.5979747172370935
 20
2.4384458900882251
 30
0.0
 11
156.5869841279373986
 21
2.4413436884951301
 31
0.0
  0
LINE
  5
867E
  8
0
 10
156.5869841279373986
 20
2.4413436884951301
 30
0.0
 11
156.5999501632923057
 21
2.4463689715754811
 31
0.0
  0
LINE
  5
867F
  8
0
 10
156.5999501632923057
 20
2.4463689715754811
 30
0.0
 11
156.6020155601997885
 21
2.446516679148182
 31
0.0
  0
LINE
  5
8680
  8
0
 10
156.6357264705364116
 20
2.4381116051949538
 30
0.0
 11
156.6322031408888051
 21
2.437640149027664
 31
0.0
  0
LINE
  5
8681
  8
0
 10
156.6322031408888051
 20
2.437640149027664
 30
0.0
 11
156.6206911087043068
 21
2.4384465545850911
 31
0.0
  0
LINE
  5
8682
  8
0
 10
156.6206911087043068
 20
2.4384465545850911
 30
0.0
 11
156.6266154264226884
 21
2.4403832436289639
 31
0.0
  0
LINE
  5
8683
  8
0
 10
156.6193857456194962
 20
2.4354598441630269
 30
0.0
 11
156.6197025950372961
 21
2.4367306578623831
 31
0.0
  0
LINE
  5
8684
  8
0
 10
156.6197025950372961
 20
2.4367306578623831
 30
0.0
 11
156.6210085583153102
 21
2.4368722911219791
 31
0.0
  0
LINE
  5
8685
  8
0
 10
156.6210085583153102
 20
2.4368722911219791
 30
0.0
 11
156.6285117952886026
 21
2.4365119313944841
 31
0.0
  0
LINE
  5
8686
  8
0
 10
156.6219301177841032
 20
2.4405684644505561
 30
0.0
 11
156.6221608532586913
 21
2.4414938934601329
 31
0.0
  0
LINE
  5
8687
  8
0
 10
156.5282251114149119
 20
2.4649147043834878
 30
0.0
 11
156.5019867097551867
 21
2.4677243698342082
 31
0.0
  0
LINE
  5
8688
  8
0
 10
156.5019867097551867
 20
2.4677243698342082
 30
0.0
 11
156.4965549037868016
 21
2.4728109740057098
 31
0.0
  0
LINE
  5
8689
  8
0
 10
156.5228216159329975
 20
2.4388164519247999
 30
0.0
 11
156.4910644004922062
 21
2.4424322523141688
 31
0.0
  0
LINE
  5
868A
  8
0
 10
156.4910644004922062
 20
2.4424322523141688
 30
0.0
 11
156.4958289029999889
 21
2.44302675591124
 31
0.0
  0
LINE
  5
868B
  8
0
 10
156.4958289029999889
 20
2.44302675591124
 30
0.0
 11
156.5186100596922074
 21
2.4404396954193208
 31
0.0
  0
LINE
  5
868C
  8
0
 10
156.5186100596922074
 20
2.4404396954193208
 30
0.0
 11
156.5228216159329975
 21
2.4388164519247999
 31
0.0
  0
LINE
  5
868D
  8
0
 10
156.5914225256306054
 20
2.4377827792177622
 30
0.0
 11
156.558600661465988
 21
2.4371285013875261
 31
0.0
  0
LINE
  5
868E
  8
0
 10
156.558600661465988
 20
2.4371285013875261
 30
0.0
 11
156.5635205592436137
 21
2.438346260164479
 31
0.0
  0
LINE
  5
868F
  8
0
 10
156.5635205592436137
 20
2.438346260164479
 30
0.0
 11
156.5870672810181929
 21
2.4388297135068551
 31
0.0
  0
LINE
  5
8690
  8
0
 10
156.5870672810181929
 20
2.4388297135068551
 30
0.0
 11
156.5914225256306054
 21
2.4377827792177622
 31
0.0
  0
LINE
  5
8691
  8
0
 10
156.4625632281027947
 20
2.447693870720328
 30
0.0
 11
156.4644452781878101
 21
2.4552423617783101
 31
0.0
  0
LINE
  5
8692
  8
0
 10
156.4849783337338067
 20
2.4436386601518829
 30
0.0
 11
156.4868659647642914
 21
2.4512095343988838
 31
0.0
  0
LINE
  5
8693
  8
0
 10
156.4662209381523041
 20
2.4623641445972231
 30
0.0
 11
156.4694727791060131
 21
2.475406566758529
 31
0.0
  0
LINE
  5
8694
  8
0
 10
156.4886470511661969
 20
2.4583530820835899
 30
0.0
 11
156.4919092602789874
 21
2.4714370879015979
 31
0.0
  0
LINE
  5
8695
  8
0
 10
156.4971469138183977
 20
2.448313008529019
 30
0.0
 11
156.4997087042972908
 21
2.458587788450266
 31
0.0
  0
LINE
  5
8696
  8
0
 10
156.5199359958056959
 20
2.445757734643315
 30
0.0
 11
156.5225136977504974
 21
2.4560963322918208
 31
0.0
  0
LINE
  5
8697
  8
0
 10
156.5019867097551867
 20
2.4677243698342082
 30
0.0
 11
156.5028615231921947
 21
2.471238557183745
 31
0.0
  0
LINE
  5
8698
  8
0
 10
156.5328704636831958
 20
2.4535038912497451
 30
0.0
 11
156.5347644293609903
 21
2.463284269299066
 31
0.0
  0
LINE
  5
8699
  8
0
 10
156.5560593706584882
 20
2.4525522276316631
 30
0.0
 11
156.5570884577498134
 21
2.4577182638821919
 31
0.0
  0
LINE
  5
869A
  8
0
 10
156.564870389801996
 20
2.4437601347388589
 30
0.0
 11
156.5674961220126136
 21
2.4542913712760921
 31
0.0
  0
LINE
  5
869B
  8
0
 10
156.588326431697908
 20
2.4441096754035452
 30
0.0
 11
156.5891585772922951
 21
2.4497222850209819
 31
0.0
  0
LINE
  5
869C
  8
0
 10
156.5979747172370935
 20
2.4384458900882251
 30
0.0
 11
156.5999501632923057
 21
2.4463689715754811
 31
0.0
  0
LINE
  5
869D
  8
0
 10
156.6219301177841032
 20
2.4405684644505561
 30
0.0
 11
156.6238439146370922
 21
2.4410742591277592
 31
0.0
  0
LINE
  5
869E
  8
0
 10
156.6322031408888051
 20
2.437640149027664
 30
0.0
 11
156.6324123743451082
 21
2.4389379021800499
 31
0.0
  0
LINE
  5
869F
  8
0
 10
156.4218498684305985
 20
2.469468599447644
 30
0.0
 11
156.4316108226175004
 21
2.4616390036214351
 31
0.0
  0
LINE
  5
86A0
  8
0
 10
156.4316108226175004
 20
2.4616390036214351
 30
0.0
 11
156.4536659603782027
 21
2.456140040242111
 31
0.0
  0
LINE
  5
86A1
  8
0
 10
156.4536659603782027
 20
2.456140040242111
 30
0.0
 11
156.465952010703603
 21
2.4584767309390112
 31
0.0
  0
LINE
  5
86A2
  8
0
 10
156.465952010703603
 20
2.4584767309390112
 30
0.0
 11
156.4562125995888096
 21
2.4663540517815221
 31
0.0
  0
LINE
  5
86A3
  8
0
 10
156.4562125995888096
 20
2.4663540517815221
 30
0.0
 11
156.4341574617430126
 21
2.4718530153393621
 31
0.0
  0
LINE
  5
86A4
  8
0
 10
156.4341574617430126
 20
2.4718530153393621
 30
0.0
 11
156.4218498684305985
 21
2.469468599447644
 31
0.0
  0
LINE
  5
86A5
  8
0
 10
156.4288867615491085
 20
2.4896825367699691
 30
0.0
 11
156.436421440586912
 21
2.4809333382769831
 31
0.0
  0
LINE
  5
86A6
  8
0
 10
156.436421440586912
 20
2.4809333382769831
 30
0.0
 11
156.4584765782456088
 21
2.4754343747112979
 31
0.0
  0
LINE
  5
86A7
  8
0
 10
156.4584765782456088
 20
2.4754343747112979
 30
0.0
 11
156.469300982310898
 21
2.4796061398269269
 31
0.0
  0
LINE
  5
86A8
  8
0
 10
156.4256796630706958
 20
2.456365295512235
 30
0.0
 11
156.4564270074332057
 21
2.4486991215497582
 31
0.0
  0
LINE
  5
86A9
  8
0
 10
156.4564270074332057
 20
2.4486991215497582
 30
0.0
 11
156.4523555005756918
 21
2.4508840727312982
 31
0.0
  0
LINE
  5
86AA
  8
0
 10
156.4523555005756918
 20
2.4508840727312982
 30
0.0
 11
156.430300362786511
 21
2.456383036187638
 31
0.0
  0
LINE
  5
86AB
  8
0
 10
156.430300362786511
 20
2.456383036187638
 30
0.0
 11
156.4256796630706958
 21
2.456365295512235
 31
0.0
  0
LINE
  5
86AC
  8
0
 10
156.4584765782456088
 20
2.4754343747112979
 30
0.0
 11
156.4600638630273863
 21
2.4819092123285449
 31
0.0
  0
LINE
  5
86AD
  8
0
 10
156.436421440586912
 20
2.4809333382769831
 30
0.0
 11
156.4380342144116867
 21
2.4874018206179889
 31
0.0
  0
LINE
  5
86AE
  8
0
 10
156.4536659603782027
 20
2.456140040242111
 30
0.0
 11
156.4562125995888096
 21
2.4663540517815221
 31
0.0
  0
LINE
  5
86AF
  8
0
 10
156.4316108226175004
 20
2.4616390036214351
 30
0.0
 11
156.4341574617967865
 21
2.4718530153259759
 31
0.0
  0
LINE
  5
86B0
  8
0
 10
163.7779726076689997
 20
-5.8094587661877588
 30
0.0
 11
161.5611474605707087
 21
-5.8094587661877588
 31
0.0
  0
LINE
  5
86B1
  8
0
 10
161.7897861897262999
 20
3.4194741449611139
 30
0.0
 11
162.6204068806686962
 21
3.4194741449611139
 31
0.0
  0
LINE
  5
86B2
  8
0
 10
163.8316423575207068
 20
-3.1831286241877619
 30
0.0
 11
164.1981650507653114
 21
-3.1831286241877619
 31
0.0
  0
LINE
  5
86B3
  8
0
 10
163.8306525459427974
 20
-3.34060893918776
 30
0.0
 11
164.1993487068181139
 21
-3.34060893918776
 31
0.0
  0
LINE
  5
86B4
  8
0
 10
163.77709878452049
 20
-3.4102248504522912
 30
0.0
 11
163.4895084309322044
 21
-4.527662871718614
 31
0.0
  0
LINE
  5
86B5
  8
0
 10
163.6243865782466003
 20
-3.371758144764637
 30
0.0
 11
163.4095200891987929
 21
-4.2066261482958387
 31
0.0
  0
ARC
  5
86B6
  8
0
 10
163.9083794951509958
 20
-3.4425115900511818
 30
0.0
 40
0.2926739258488815
 50
139.7652681145796123
 51
166.0102462699641137
  0
ARC
  5
86B7
  8
0
 10
163.839237483355987
 20
-3.3840101786996
 30
0.0
 40
0.202103329487871
 50
104.805085993779997
 51
139.7652681145796123
  0
ARC
  5
86B8
  8
0
 10
163.8299038552970899
 20
-3.3486965072702608
 30
0.0
 40
0.1655770101747927
 50
89.3984027718163219
 51
104.805085993779997
  0
ARC
  5
86B9
  8
0
 10
163.9040394432174992
 20
-3.4400969743239962
 30
0.0
 40
0.1304081079343573
 50
141.3019903226420979
 51
166.757883309230607
  0
ARC
  5
86BA
  8
0
 10
163.8425421093284058
 20
-3.3908318267727071
 30
0.0
 40
0.0516110468297861
 50
103.3187723452514035
 51
141.3019903226420979
  0
ARC
  5
86BB
  8
0
 10
163.5012971385189076
 20
-3.936927774904162
 30
0.0
 40
0.0446200320551592
 50
104.6081205428645973
 51
160.4987432415674959
  0
ARC
  5
86BC
  8
0
 10
164.2763985195092005
 20
-4.211424703162816
 30
0.0
 40
0.8668917112686875
 50
160.498743241567297
 51
200.1389551408979912
  0
ARC
  5
86BD
  8
0
 10
163.488009840849486
 20
-4.5005419457583073
 30
0.0
 40
0.0271622973472501
 50
200.1389551408938132
 51
305.4533277571625263
  0
ARC
  5
86BE
  8
0
 10
163.036040977010714
 20
-4.2833417113016772
 30
0.0
 40
0.5253978459476784
 50
332.9019587125122825
 51
3.436626067050037
  0
ARC
  5
86BF
  8
0
 10
164.1992345628709984
 20
-3.2468033333071449
 30
0.0
 40
0.0636836905146552
 50
34.8710661698263635
 51
90.9622779426403554
  0
ARC
  5
86C0
  8
0
 10
164.1781595211016906
 20
-3.2614896695912519
 30
0.0
 40
0.0893711555321822
 50
316.1141474678120744
 51
34.871066169826193
  0
ARC
  5
86C1
  8
0
 10
164.1998263908957938
 20
-3.2788107334293422
 30
0.0
 40
0.0618000519177247
 50
269.5571273277993214
 51
313.7620304647546732
  0
ARC
  5
86C2
  8
0
 10
164.2489196752298142
 20
-3.2615992466783998
 30
0.0
 40
0.0486636076475509
 50
138.2376935186628941
 51
226.4125493659308006
  0
ARC
  5
86C3
  8
0
 10
164.2282278973692939
 20
-3.2833372858394898
 30
0.0
 40
0.0186520762371469
 50
226.4125493659311985
 51
315.9301182589476866
  0
ARC
  5
86C4
  8
0
 10
164.2060704390565036
 20
-3.2618877887252569
 30
0.0
 40
0.0494909135261321
 50
315.9301182589456971
 51
44.3096282197733089
  0
ARC
  5
86C5
  8
0
 10
164.2280512158731085
 20
-3.2436568994722381
 30
0.0
 40
0.0211534595886087
 50
50.5756166682799133
 51
136.8404322712154908
  0
ENDSEC
  0
EOF
