  0
SECTION
  2
HEADER
  9
$ACADVER
  1
AC1009
  9
$INSBASE
 10
142.9270905274491952
 20
-4.6117791068576004
 30
0.0
  9
$EXTMIN
 10
135.9692888281433056
 20
-4.6183332933190959
 30
-0.0015258207003583
  9
$EXTMAX
 10
144.0356173022688893
 20
5.9558642901534986
 30
0.0000000349246037
  9
$LIMMIN
 10
0.0
 20
0.0
  9
$LIMMAX
 10
11.6929133858000007
 20
8.2677165353999982
  9
$ORTHOMODE
 70
     0
  9
$REGENMODE
 70
     1
  9
$FILLMODE
 70
     1
  9
$QTEXTMODE
 70
     0
  9
$MIRRTEXT
 70
     0
  9
$DRAGMODE
 70
     2
  9
$LTSCALE
 40
0.6431102362
  9
$OSMODE
 70
  4095
  9
$ATTMODE
 70
     1
  9
$TEXTSIZE
 40
0.2
  9
$TRACEWID
 40
0.05
  9
$TEXTSTYLE
  7
STANDARD
  9
$CLAYER
  8
0
  9
$CELTYPE
  6
BYLAYER
  9
$CECOLOR
 62
   256
  9
$DIMSCALE
 40
1.0
  9
$DIMASZ
 40
0.1875
  9
$DIMEXO
 40
0.0625
  9
$DIMDLI
 40
0.4443307087
  9
$DIMRND
 40
0.0
  9
$DIMDLE
 40
0.0
  9
$DIMEXE
 40
0.125
  9
$DIMTP
 40
0.01
  9
$DIMTM
 40
0.01
  9
$DIMTXT
 40
1.0
  9
$DIMCEN
 40
0.1052362205
  9
$DIMTSZ
 40
0.0
  9
$DIMTOL
 70
     1
  9
$DIMLIM
 70
     0
  9
$DIMTIH
 70
     1
  9
$DIMTOH
 70
     1
  9
$DIMSE1
 70
     0
  9
$DIMSE2
 70
     0
  9
$DIMTAD
 70
     0
  9
$DIMZIN
 70
     0
  9
$DIMBLK
  1

  9
$DIMASO
 70
     1
  9
$DIMSHO
 70
     1
  9
$DIMPOST
  1
\X
  9
$DIMAPOST
  1

  9
$DIMALT
 70
     1
  9
$DIMALTD
 70
     2
  9
$DIMALTF
 40
25.3999999999999986
  9
$DIMLFAC
 40
1.0
  9
$DIMTOFL
 70
     0
  9
$DIMTVP
 40
0.0
  9
$DIMTIX
 70
     0
  9
$DIMSOXD
 70
     0
  9
$DIMSAH
 70
     0
  9
$DIMBLK1
  1

  9
$DIMBLK2
  1

  9
$DIMSTYLE
  2
STANDARD
  9
$DIMCLRD
 70
     0
  9
$DIMCLRE
 70
     0
  9
$DIMCLRT
 70
     0
  9
$DIMTFAC
 40
1.0
  9
$DIMGAP
 40
0.09
  9
$LUNITS
 70
     2
  9
$LUPREC
 70
     4
  9
$SKETCHINC
 40
0.1
  9
$FILLETRAD
 40
0.0
  9
$AUNITS
 70
     0
  9
$AUPREC
 70
     0
  9
$MENU
  1
.
  9
$ELEVATION
 40
0.0
  9
$PELEVATION
 40
0.0
  9
$THICKNESS
 40
0.0
  9
$LIMCHECK
 70
     0
  9
$BLIPMODE
 70
     0
  9
$CHAMFERA
 40
0.0
  9
$CHAMFERB
 40
0.0
  9
$SKPOLY
 70
     0
  9
$TDCREATE
 40
2458172.4620254631154239
  9
$TDUPDATE
 40
2459207.7783912038430572
  9
$TDINDWG
 40
0.0991378819
  9
$TDUSRTIMER
 40
0.0991378819
  9
$USRTIMER
 70
     1
  9
$ANGBASE
 50
0.0
  9
$ANGDIR
 70
     0
  9
$PDMODE
 70
     0
  9
$PDSIZE
 40
0.3125
  9
$PLINEWID
 40
0.0
  9
$COORDS
 70
     1
  9
$SPLFRAME
 70
     0
  9
$SPLINETYPE
 70
     6
  9
$SPLINESEGS
 70
     8
  9
$ATTDIA
 70
     1
  9
$ATTREQ
 70
     1
  9
$HANDLING
 70
     1
  9
$HANDSEED
  5
85E9
  9
$SURFTAB1
 70
     6
  9
$SURFTAB2
 70
     6
  9
$SURFTYPE
 70
     6
  9
$SURFU
 70
     6
  9
$SURFV
 70
     6
  9
$UCSNAME
  2

  9
$UCSORG
 10
0.0
 20
0.0
 30
0.0
  9
$UCSXDIR
 10
1.0
 20
0.0
 30
0.0
  9
$UCSYDIR
 10
0.0
 20
1.0
 30
0.0
  9
$PUCSNAME
  2

  9
$PUCSORG
 10
0.0
 20
0.0
 30
0.0
  9
$PUCSXDIR
 10
1.0
 20
0.0
 30
0.0
  9
$PUCSYDIR
 10
0.0
 20
1.0
 30
0.0
  9
$USERI1
 70
     0
  9
$USERI2
 70
     0
  9
$USERI3
 70
     0
  9
$USERI4
 70
     0
  9
$USERI5
 70
     0
  9
$USERR1
 40
0.0
  9
$USERR2
 40
0.0
  9
$USERR3
 40
0.0
  9
$USERR4
 40
0.0
  9
$USERR5
 40
0.0
  9
$WORLDVIEW
 70
     1
  9
$SHADEDGE
 70
     3
  9
$SHADEDIF
 70
    70
  9
$TILEMODE
 70
     1
  9
$MAXACTVP
 70
    64
  9
$PLIMCHECK
 70
     0
  9
$PEXTMIN
 10
1.0000000000000000E+20
 20
1.0000000000000000E+20
 30
1.0000000000000000E+20
  9
$PEXTMAX
 10
-1.0000000000000000E+20
 20
-1.0000000000000000E+20
 30
-1.0000000000000000E+20
  9
$PLIMMIN
 10
0.0
 20
0.0
  9
$PLIMMAX
 10
12.0
 20
9.0
  9
$UNITMODE
 70
     0
  9
$VISRETAIN
 70
     1
  9
$PLINEGEN
 70
     0
  9
$PSLTSCALE
 70
     1
  0
ENDSEC
  0
SECTION
  2
TABLES
  0
TABLE
  2
VPORT
 70
     1
  0
VPORT
  2
*ACTIVE
 70
     0
 10
0.0
 20
0.0
 11
1.0
 21
1.0
 12
36.9065973523155222
 22
5.228519082992209
 13
0.0
 23
0.0
 14
1.0
 24
1.0
 15
0.0
 25
0.0
 16
0.0
 26
0.0
 36
24.7332413121020203
 17
103.0958557128905966
 27
-4.5597535845750086
 37
0.0
 40
10.7103460502125802
 41
2.9182795698924728
 42
50.0
 43
0.0
 44
0.0
 50
0.0
 51
0.0
 71
     0
 72
   100
 73
     1
 74
     1
 75
     0
 76
     0
 77
     0
 78
     0
  0
ENDTAB
  0
TABLE
  2
LTYPE
 70
     2
  0
LTYPE
  2
CONTINUOUS
 70
     0
  3
Solid line
 72
    65
 73
     0
 40
0.0
  0
LTYPE
  2
PHANTOM2
 70
     0
  3
___ _ _ ___ _ _ ___ _ _ ___ _ _
 72
    65
 73
     6
 40
1.25
 49
0.625
 49
-0.125
 49
0.125
 49
-0.125
 49
0.125
 49
-0.125
  0
ENDTAB
  0
TABLE
  2
LAYER
 70
     2
  0
LAYER
  2
0
 70
     0
 62
   255
  6
CONTINUOUS
  0
LAYER
  2
DEFPOINTS
 70
     0
 62
     7
  6
CONTINUOUS
  0
ENDTAB
  0
TABLE
  2
STYLE
 70
     1
  0
STYLE
  2
STANDARD
 70
     0
 40
0.0
 41
0.8
 50
0.0
 71
     0
 42
0.2
  3
txt
  4

  0
ENDTAB
  0
TABLE
  2
VIEW
 70
     0
  0
ENDTAB
  0
TABLE
  2
UCS
 70
     0
  0
ENDTAB
  0
TABLE
  2
APPID
 70
     9
  0
APPID
  2
ACAD
 70
     0
  0
APPID
  2
ACAD_MLEADERVER
 70
     0
  0
APPID
  2
ACAD_EXEMPT_FROM_CAD_STANDARDS
 70
     0
  0
APPID
  2
ACAD_DSTYLE_DIMJAG
 70
     0
  0
APPID
  2
ACAD_DSTYLE_DIMTALN
 70
     0
  0
APPID
  2
ACAD_NAV_VCDISPLAY
 70
     0
  0
APPID
  2
ACAECLAYERSTANDARD
 70
     0
  0
APPID
  2
ACCMTRANSPARENCY
 70
     0
  0
APPID
  2
ACDBATTR
 70
     0
  0
ENDTAB
  0
TABLE
  2
DIMSTYLE
 70
     1
  0
DIMSTYLE
  2
STANDARD
 70
     0
  3

  4

  5

  6

  7

 40
1.0
 41
0.1875
 42
0.0625
 43
0.38
 44
0.125
 45
0.0
 46
0.0
 47
0.01
 48
0.01
140
0.15625
141
0.09
142
0.0
143
25.3999999999999986
144
1.0
145
0.0
146
1.0
147
0.09
 71
     1
 72
     0
 73
     1
 74
     1
 75
     0
 76
     0
 77
     0
 78
     4
170
     0
171
     2
172
     0
173
     0
174
     0
175
     0
176
     0
177
     0
178
     0
  0
ENDTAB
  0
ENDSEC
  0
SECTION
  2
BLOCKS
  0
BLOCK
  8
0
  2
$MODEL_SPACE
 70
     0
 10
0.0
 20
0.0
 30
0.0
  3
$MODEL_SPACE
  1

  0
ENDBLK
  5
21
  8
0
  0
BLOCK
 67
     1
  8
0
  2
$PAPER_SPACE
 70
     0
 10
0.0
 20
0.0
 30
0.0
  3
$PAPER_SPACE
  1

  0
ENDBLK
  5
1D
 67
     1
  8
0
  0
ENDSEC
  0
SECTION
  2
ENTITIES
  0
ATTDEF
  5
383D
  8
DEFPOINTS
 10
142.9228476869986935
 20
-4.614190341115477
 30
0.0
 40
0.001
  1
K-72298AR-4ND
  3

  2
MODELNUMBER
 70
     0
1001
ACDBATTR
1070
     0
1070
     1
  0
ATTDEF
  5
383E
  8
DEFPOINTS
 10
142.9228476869986935
 20
-4.615857007782143
 30
0.0
 40
0.001
  1
ALEO
  3

  2
TRADENAME
 70
     0
1001
ACDBATTR
1070
     0
1070
     1
  0
ATTDEF
  5
383F
  8
DEFPOINTS
 10
142.9228476869986935
 20
-4.6175236744488082
 30
0.0
 40
0.001
  1
BATHROOM SINK FAUCET
  3

  2
PRODUCT
 70
     0
1001
ACDBATTR
1070
     0
1070
     1
  0
LINE
  5
8386
  8
0
 10
136.0418824429744973
 20
4.2878523323135509
 30
0.0
 11
141.6529505296001048
 21
4.285831725842395
 31
0.0
  0
LINE
  5
8387
  8
0
 10
136.0028883649665943
 20
4.5088909273533551
 30
0.0
 11
144.0040064881777084
 21
4.5088909273533551
 31
0.0
  0
ARC
  5
8388
  8
0
 10
143.9917333426944879
 20
5.9360555332417198
 30
0.0
 40
0.0196850496075271
 50
0.0000459569977086
 51
89.9603781762829442
  0
LINE
  5
8389
  8
0
 10
143.9917469555209948
 20
5.9557405781423958
 30
0.0
 11
139.4599422083020102
 21
5.9557405781423958
 31
0.0
  0
ARC
  5
838A
  8
0
 10
139.4599422082754074
 20
5.936056022538863
 30
0.0
 40
0.0196845556035381
 50
89.9999999224380218
 51
202.6512080028506091
  0
ARC
  5
838B
  8
0
 10
139.643000554067811
 20
6.0124478856720742
 30
0.0
 40
0.2180430056812233
 50
202.6512080008442922
 51
216.9434213943297038
  0
ARC
  5
838C
  8
0
 10
139.6956143204031946
 20
6.0722751445602441
 30
0.0
 40
0.2964937637073275
 50
220.0742754337817928
 51
249.7110615026255971
  0
ARC
  5
838D
  8
0
 10
139.9573285687407918
 20
6.8104943872924011
 30
0.0
 40
1.079712568668485
 50
250.2684985462867076
 51
266.6232891938939815
  0
ARC
  5
838E
  8
0
 10
140.2159228116734084
 20
9.5817666981511067
 30
0.0
 40
3.8625712650330262
 50
265.215208051631123
 51
268.3647380272793725
  0
ARC
  5
838F
  8
0
 10
132.4029464523563888
 20
4.8331405738859976
 30
0.0
 40
9.6467884516785514
 50
358.7170932835128951
 51
1.078962790492519
  0
ARC
  5
8390
  8
0
 10
141.3115929327545075
 20
5.0009231668552721
 30
0.0
 40
0.7365621295690797
 50
1.078962790492723
 51
39.3143937768506007
  0
ARC
  5
8391
  8
0
 10
141.3915875404408098
 20
4.9677401847092213
 30
0.0
 40
0.6998733723344119
 50
45.5777867724929209
 51
79.0869185398994716
  0
ARC
  5
8392
  8
0
 10
141.0016146908168082
 20
2.6348249686024872
 30
0.0
 40
3.0649915749249992
 50
80.1851659432152246
 51
89.1028933377652947
  0
ARC
  5
8393
  8
0
 10
140.0432610283988026
 20
-25.3671932228523112
 30
0.0
 40
31.0829290166614989
 50
88.1446661608429167
 51
89.355078558586186
  0
ARC
  5
8394
  8
0
 10
141.0666980561387902
 20
39.2674131811978029
 30
0.0
 40
33.5604066134863075
 50
268.3591135428500252
 51
268.8499665646367021
  0
LINE
  5
8395
  8
0
 10
144.0114183923020903
 20
5.936055537343548
 30
0.0
 11
144.0114007611020099
 21
5.0883906659435487
 31
0.0
  0
LINE
  5
8396
  8
0
 10
144.0114007611020099
 20
5.0883906659435487
 30
0.0
 11
143.1194945042284132
 21
4.6724879480693602
 31
0.0
  0
ARC
  5
8397
  8
0
 10
142.8699168268034043
 20
5.2077090045922603
 30
0.0
 40
0.5905510955153255
 50
280.4628461198078071
 51
294.9999999967088797
  0
ARC
  5
8398
  8
0
 10
142.8699165827507045
 20
5.2077103261650057
 30
0.0
 40
0.5905524394335713
 50
275.5438225718218064
 51
280.4628461198078071
  0
ARC
  5
8399
  8
0
 10
142.8682323248166028
 20
5.2250628895847049
 30
0.0
 40
0.6079865491620066
 50
270.9146287461865086
 51
275.5438225718218064
  0
ARC
  5
839A
  8
0
 10
143.0512511337589956
 20
4.3907799490350641
 30
0.0
 40
0.9251968489255968
 50
11.2910773100479993
 51
39.1690610572798477
  0
ARC
  5
839B
  8
0
 10
143.6496947826070141
 20
4.5102638760869453
 30
0.0
 40
0.3149418123464204
 50
359.750225552790198
 51
11.2910773100479993
  0
ARC
  5
839C
  8
0
 10
144.0040057621108929
 20
4.4773935610566147
 30
0.0
 40
0.0314973663051137
 50
0.0755961073481136
 51
89.9986792368701742
  0
LINE
  5
839D
  8
0
 10
144.0355031010005007
 20
4.4774351187007531
 30
0.0
 11
144.0355031009983975
 21
-4.6117791068576004
 31
0.0
  0
LINE
  5
839E
  8
0
 10
141.8186779539001066
 20
-4.6117791068576004
 30
0.0
 11
141.8186779539001066
 21
2.8698751273961132
 31
0.0
  0
LINE
  5
839F
  8
0
 10
137.2398439143154008
 20
3.7461678295882761
 30
0.0
 11
136.2657274006556918
 21
3.9890423555291461
 31
0.0
  0
ARC
  5
83A0
  8
0
 10
136.9622865369296107
 20
4.7440982491181352
 30
0.0
 40
1.027279919384255
 50
195.5356329568282092
 51
227.3076399526217131
  0
ARC
  5
83A1
  8
0
 10
136.0028883649665943
 20
4.4773909273533583
 30
0.0
 40
0.0315
 50
90.0
 51
195.5356329568294882
  0
ARC
  5
83A2
  8
0
 10
142.550017398960307
 20
4.5021623286620871
 30
0.0
 40
0.4122070075907612
 50
163.8015362199390097
 51
179.0646994776296879
  0
LINE
  5
83A3
  8
0
 10
139.4642161884603979
 20
5.8876324101056801
 30
0.0
 11
141.826052213701189
 21
5.8876324101056801
 31
0.0
  0
ARC
  5
83A4
  8
0
 10
141.7765896208333061
 20
2.174609016804975
 30
0.0
 40
3.7133528336654882
 50
77.9292177092147114
 51
89.2367863347012502
  0
ARC
  5
83A5
  8
0
 10
142.4553803452708109
 20
5.3799306143272778
 30
0.0
 40
0.4370007742776802
 50
11.1019982877488097
 51
77.0751354751623836
  0
ARC
  5
83A6
  8
0
 10
140.9284343046329866
 20
5.0507572811188624
 30
0.0
 40
1.998966060171979
 50
359.0541233127868281
 51
11.9329665808362293
  0
ARC
  5
83A7
  8
0
 10
341.3604559732576149
 20
4.739102861453147
 30
0.0
 40
198.4335236522971115
 50
179.9195408197413997
 51
180.0344128723604911
  0
ARC
  5
83A8
  8
0
 10
141.7476909315246871
 20
2.8549941910555701
 30
0.0
 40
1.433970639417584
 50
51.0333981678265332
 51
93.7882100881954841
  0
ARC
  5
83A9
  8
0
 10
141.5413619299025925
 20
3.1273109071969598
 30
0.0
 40
1.3920837244809761
 50
2.3174434938059161
 51
37.2496746846802225
  0
LINE
  5
83AA
  8
0
 10
142.9323071120211068
 20
3.1836011932711901
 30
0.0
 11
142.9574181979479022
 21
-4.6117791068576004
 31
0.0
  0
ARC
  5
83AB
  8
0
 10
140.650359511032093
 20
2.8146968852421601
 30
0.0
 40
1.169620717306554
 50
2.7039998693847669
 51
27.3619788711018295
  0
ARC
  5
83AC
  8
0
 10
141.0007161901804125
 20
2.9627055267540392
 30
0.0
 40
0.7909886237861486
 50
29.5049876157077406
 51
83.0628427190627292
  0
ARC
  5
83AD
  8
0
 10
140.6343472501359884
 20
0.5904742909708923
 30
0.0
 40
3.191036739774697
 50
81.6771525009860255
 51
86.9347102313626294
  0
ARC
  5
83AE
  8
0
 10
138.5210327935442933
 20
-49.2904823732211028
 30
0.0
 40
53.1165542047351735
 50
87.5355866663303601
 51
90.7446393389899129
  0
ARC
  5
83AF
  8
0
 10
136.6532202806860141
 20
6.01941148255258
 30
0.0
 40
2.3477146319932118
 50
284.469824091606597
 51
287.7709912949201794
  0
ARC
  5
83B0
  8
0
 10
137.4421344559509066
 20
3.5579505494415029
 30
0.0
 40
0.2370823621952922
 50
97.5047139859804446
 51
107.7709912949201936
  0
ARC
  5
83B1
  8
0
 10
137.8476551399189134
 20
0.4796722418417581
 30
0.0
 40
3.3419566533969598
 50
90.2902099119812647
 51
97.5047139859804446
  0
LINE
  5
83B2
  8
0
 10
136.4475486627185035
 20
3.7469188250901579
 30
0.0
 11
136.9656358903228863
 21
3.6177451714092932
 31
0.0
  0
LINE
  5
83B3
  8
0
 10
137.0124210448782947
 20
3.6431474377271398
 30
0.0
 11
137.0450566998013926
 21
3.7379282616463452
 31
0.0
  0
LINE
  5
83B4
  8
0
 10
137.0960153553000964
 20
3.725222841842398
 30
0.0
 11
136.3828881379000961
 21
3.9030254267423921
 31
0.0
  0
LINE
  5
83B5
  8
0
 10
137.133860303900093
 20
3.7360747062423978
 30
0.0
 11
137.1424323394894884
 21
3.7704552630987709
 31
0.0
  0
LINE
  5
83B6
  8
0
 10
137.133860303900093
 20
3.7360747062423938
 30
0.0
 11
136.354567673400112
 21
3.930374181442406
 31
0.0
  0
LINE
  5
83B7
  8
0
 10
137.0960153553000964
 20
3.725222841842398
 30
0.0
 11
137.133860303900093
 21
3.7360747062423978
 31
0.0
  0
LINE
  5
83B8
  8
0
 10
136.354567673400112
 20
3.9303741814423989
 30
0.0
 11
136.3631397090915129
 21
3.9647547391091349
 31
0.0
  0
LINE
  5
83B9
  8
0
 10
136.354567673400112
 20
3.9303741814423989
 30
0.0
 11
136.3828881379000961
 21
3.9030254267423921
 31
0.0
  0
LINE
  5
83BA
  8
0
 10
136.4181654647804862
 20
3.7913119946300671
 30
0.0
 11
136.4338467933995105
 21
3.8903200069382708
 31
0.0
  0
ARC
  5
83BB
  8
0
 10
136.4570803853997916
 20
3.785148476706758
 30
0.0
 40
0.0394
 50
170.9999999989323101
 51
256.0000000079464257
  0
ARC
  5
83BC
  8
0
 10
136.9751676130042028
 20
3.6559748230258928
 30
0.0
 40
0.0394
 50
256.0000000079438109
 51
340.9999999797871055
  0
ARC
  5
83BD
  8
0
 10
136.8223465064000948
 20
4.1465968562423932
 30
0.0
 40
0.5163490183999945
 50
233.9193387186518862
 51
278.0806612972386915
  0
LINE
  5
83BE
  8
0
 10
136.5837916361820987
 20
3.6980281706661691
 30
0.0
 11
136.5933016972699079
 21
3.689192297621239
 31
0.0
  0
LINE
  5
83BF
  8
0
 10
136.5933016972699079
 20
3.689192297621239
 30
0.0
 11
136.6142579208074039
 21
3.679285829945552
 31
0.0
  0
LINE
  5
83C0
  8
0
 10
136.6142579208074039
 20
3.679285829945552
 30
0.0
 11
136.6256865667430986
 21
3.678144980443018
 31
0.0
  0
LINE
  5
83C1
  8
0
 10
136.6256865667430986
 20
3.678144980443018
 30
0.0
 11
136.6161676778513936
 21
3.6869454470644629
 31
0.0
  0
LINE
  5
83C2
  8
0
 10
136.6161676778513936
 20
3.6869454470644629
 30
0.0
 11
136.5952291114726052
 21
3.6969227339913391
 31
0.0
  0
LINE
  5
83C3
  8
0
 10
136.5952291114726052
 20
3.6969227339913391
 30
0.0
 11
136.5837916361820987
 21
3.6980281706661691
 31
0.0
  0
LINE
  5
83C4
  8
0
 10
136.6142579208074039
 20
3.679285829945552
 30
0.0
 11
136.6161676778513936
 21
3.6869454470644629
 31
0.0
  0
LINE
  5
83C5
  8
0
 10
136.5933016972699079
 20
3.689192297621239
 30
0.0
 11
136.5952291114726052
 21
3.6969227339913391
 31
0.0
  0
LINE
  5
83C6
  8
0
 10
136.6457194617428001
 20
3.6702302128333839
 30
0.0
 11
136.655625088895107
 21
3.662980868399063
 31
0.0
  0
LINE
  5
83C7
  8
0
 10
136.655625088895107
 20
3.662980868399063
 30
0.0
 11
136.6773202584986109
 21
3.6560381521383958
 31
0.0
  0
LINE
  5
83C8
  8
0
 10
136.6773202584986109
 20
3.6560381521383958
 30
0.0
 11
136.6891042824852889
 21
3.656322645665429
 31
0.0
  0
LINE
  5
83C9
  8
0
 10
136.6891042824852889
 20
3.656322645665429
 30
0.0
 11
136.679202308800086
 21
3.663586643142398
 31
0.0
  0
LINE
  5
83CA
  8
0
 10
136.679202308800086
 20
3.663586643142398
 30
0.0
 11
136.6575127197847905
 21
3.6705517426811509
 31
0.0
  0
LINE
  5
83CB
  8
0
 10
136.6575127197847905
 20
3.6705517426811509
 30
0.0
 11
136.6457194617428001
 21
3.6702302128333839
 31
0.0
  0
LINE
  5
83CC
  8
0
 10
136.6500745434759096
 20
3.687697491592306
 30
0.0
 11
136.6592938063290035
 21
3.6776952903303801
 31
0.0
  0
LINE
  5
83CD
  8
0
 10
136.6592938063290035
 20
3.6776952903303801
 30
0.0
 11
136.6809779686184925
 21
3.6707084259977552
 31
0.0
  0
LINE
  5
83CE
  8
0
 10
136.6809779686184925
 20
3.6707084259977552
 30
0.0
 11
136.6934327117558041
 21
3.673683027274933
 31
0.0
  0
LINE
  5
83CF
  8
0
 10
136.6934327117558041
 20
3.673683027274933
 30
0.0
 11
136.6842298097907076
 21
3.6837508481045829
 31
0.0
  0
LINE
  5
83D0
  8
0
 10
136.6842298097907076
 20
3.6837508481045829
 30
0.0
 11
136.6625560153042898
 21
3.6907792961826749
 31
0.0
  0
LINE
  5
83D1
  8
0
 10
136.6625560153042898
 20
3.6907792961826749
 30
0.0
 11
136.6500745434759096
 21
3.687697491592306
 31
0.0
  0
LINE
  5
83D2
  8
0
 10
136.6163810982380085
 20
3.690648913163709
 30
0.0
 11
136.6257541505297866
 21
3.6812635283646129
 31
0.0
  0
LINE
  5
83D3
  8
0
 10
136.6257541505297866
 20
3.6812635283646129
 30
0.0
 11
136.6470753440385124
 21
3.6728208753560132
 31
0.0
  0
LINE
  5
83D4
  8
0
 10
136.6470753440385124
 20
3.6728208753560132
 30
0.0
 11
136.6590078081480897
 21
3.6737007303924929
 31
0.0
  0
LINE
  5
83D5
  8
0
 10
136.6590078081480897
 20
3.6737007303924929
 30
0.0
 11
136.6496371342886107
 21
3.6830956553343439
 31
0.0
  0
LINE
  5
83D6
  8
0
 10
136.6496371342886107
 20
3.6830956553343439
 30
0.0
 11
136.6283318523975936
 21
3.6916021260323251
 31
0.0
  0
LINE
  5
83D7
  8
0
 10
136.6283318523975936
 20
3.6916021260323251
 30
0.0
 11
136.6163810982380085
 21
3.690648913163709
 31
0.0
  0
LINE
  5
83D8
  8
0
 10
136.5918278226914993
 20
3.7109459903034678
 30
0.0
 11
136.5970489248992124
 21
3.704221606838626
 31
0.0
  0
LINE
  5
83D9
  8
0
 10
136.5970489248992124
 20
3.704221606838626
 30
0.0
 11
136.6179702935000932
 21
3.6941753435424012
 31
0.0
  0
LINE
  5
83DA
  8
0
 10
136.6179702935000932
 20
3.6941753435424012
 30
0.0
 11
136.6300671393593973
 21
3.695714497855608
 31
0.0
  0
LINE
  5
83DB
  8
0
 10
136.6300671393593973
 20
3.695714497855608
 30
0.0
 11
136.6245619187457976
 21
3.7027844635141811
 31
0.0
  0
LINE
  5
83DC
  8
0
 10
136.5588049600501108
 20
3.7191795146891371
 30
0.0
 11
136.5645952628374005
 21
3.7119157432438672
 31
0.0
  0
LINE
  5
83DD
  8
0
 10
136.5645952628374005
 20
3.7119157432438672
 30
0.0
 11
136.5851416191653129
 21
3.7005951725097361
 31
0.0
  0
LINE
  5
83DE
  8
0
 10
136.5851416191653129
 20
3.7005951725097361
 30
0.0
 11
136.5967192025233885
 21
3.7000516783076911
 31
0.0
  0
LINE
  5
83DF
  8
0
 10
136.5967192025233885
 20
3.7000516783076911
 30
0.0
 11
136.5877673513055868
 21
3.7111264090645051
 31
0.0
  0
LINE
  5
83E0
  8
0
 10
136.5877673513055868
 20
3.7111264090645051
 30
0.0
 11
136.5837210338634122
 21
3.7129672397702249
 31
0.0
  0
LINE
  5
83E1
  8
0
 10
136.5332624712561937
 20
3.7245650145793792
 30
0.0
 11
136.5534173462021101
 21
3.7114445133235381
 31
0.0
  0
LINE
  5
83E2
  8
0
 10
136.5534173462021101
 20
3.7114445133235381
 30
0.0
 11
136.5644818945150973
 21
3.7088433483170422
 31
0.0
  0
LINE
  5
83E3
  8
0
 10
136.5644818945150973
 20
3.7088433483170422
 30
0.0
 11
136.5553927923106983
 21
3.719367594797482
 31
0.0
  0
LINE
  5
83E4
  8
0
 10
136.5553927923106983
 20
3.719367594797482
 30
0.0
 11
136.5536384995878905
 21
3.7204676579571578
 31
0.0
  0
LINE
  5
83E5
  8
0
 10
136.5199275892489936
 20
3.7288727319010309
 30
0.0
 11
136.5228171694166122
 21
3.7268023577371201
 31
0.0
  0
LINE
  5
83E6
  8
0
 10
136.5228171694166122
 20
3.7268023577371201
 30
0.0
 11
136.5333602750000921
 21
3.722109799842396
 31
0.0
  0
LINE
  5
83E7
  8
0
 10
136.5333602750000921
 20
3.722109799842396
 30
0.0
 11
136.5290386333633137
 21
3.7266010934695428
 31
0.0
  0
LINE
  5
83E8
  8
0
 10
136.5331106665842071
 20
3.7188598602172682
 30
0.0
 11
136.5334275160469133
 21
3.7201306739054121
 31
0.0
  0
LINE
  5
83E9
  8
0
 10
136.5334275160469133
 20
3.7201306739054121
 30
0.0
 11
136.5323409117019082
 21
3.72086884127211
 31
0.0
  0
LINE
  5
83EA
  8
0
 10
136.5323409117019082
 20
3.72086884127211
 30
0.0
 11
136.5255467680333084
 21
3.7240732189059709
 31
0.0
  0
LINE
  5
83EB
  8
0
 10
136.5332624712561937
 20
3.7245650145793792
 30
0.0
 11
136.533493206527595
 21
3.7254904436396141
 31
0.0
  0
LINE
  5
83EC
  8
0
 10
136.6274289483779114
 20
3.702069632742333
 30
0.0
 11
136.6519151399938892
 21
3.6922322366565652
 31
0.0
  0
LINE
  5
83ED
  8
0
 10
136.6519151399938892
 20
3.6922322366565652
 30
0.0
 11
136.6590991560082102
 21
3.694173363128896
 31
0.0
  0
LINE
  5
83EE
  8
0
 10
136.619947564338986
 20
3.6764894560876971
 30
0.0
 11
136.6496850367277887
 21
3.6647729087750021
 31
0.0
  0
LINE
  5
83EF
  8
0
 10
136.6496850367277887
 20
3.6647729087750021
 30
0.0
 11
136.6457573332401978
 21
3.6675346227332351
 31
0.0
  0
LINE
  5
83F0
  8
0
 10
136.6457573332401978
 20
3.6675346227332351
 30
0.0
 11
136.6244282144440945
 21
3.6759454891336989
 31
0.0
  0
LINE
  5
83F1
  8
0
 10
136.6244282144440945
 20
3.6759454891336989
 30
0.0
 11
136.619947564338986
 21
3.6764894560876971
 31
0.0
  0
LINE
  5
83F2
  8
0
 10
136.5588912763122948
 20
3.7077829535434819
 30
0.0
 11
136.5875640974342105
 21
3.6917963286452991
 31
0.0
  0
LINE
  5
83F3
  8
0
 10
136.5875640974342105
 20
3.6917963286452991
 30
0.0
 11
136.5837917886503874
 21
3.6951812979245231
 31
0.0
  0
LINE
  5
83F4
  8
0
 10
136.5837917886503874
 20
3.6951812979245231
 30
0.0
 11
136.5632282349359912
 21
3.7066626781594278
 31
0.0
  0
LINE
  5
83F5
  8
0
 10
136.5632282349359912
 20
3.7066626781594278
 30
0.0
 11
136.5588912763122948
 21
3.7077829535434819
 31
0.0
  0
LINE
  5
83F6
  8
0
 10
136.6773202584986109
 20
3.6560381521383958
 30
0.0
 11
136.679202308800086
 21
3.663586643142398
 31
0.0
  0
LINE
  5
83F7
  8
0
 10
136.655625088895107
 20
3.662980868399063
 30
0.0
 11
136.6575127197847905
 21
3.6705517426811509
 31
0.0
  0
LINE
  5
83F8
  8
0
 10
136.6809779686184925
 20
3.6707084259977552
 30
0.0
 11
136.6842298097907076
 21
3.6837508481045829
 31
0.0
  0
LINE
  5
83F9
  8
0
 10
136.6592938063290035
 20
3.6776952903303801
 30
0.0
 11
136.6625560153042898
 21
3.6907792961826749
 31
0.0
  0
LINE
  5
83FA
  8
0
 10
136.6470753440385124
 20
3.6728208753560132
 30
0.0
 11
136.6496371342886107
 21
3.6830956553343439
 31
0.0
  0
LINE
  5
83FB
  8
0
 10
136.6257541505297866
 20
3.6812635283646129
 30
0.0
 11
136.6283318523975936
 21
3.6916021260323251
 31
0.0
  0
LINE
  5
83FC
  8
0
 10
136.6519151399938892
 20
3.6922322366565652
 30
0.0
 11
136.6527925366023908
 21
3.6957457799491098
 31
0.0
  0
LINE
  5
83FD
  8
0
 10
136.6179702935000932
 20
3.6941753435424012
 30
0.0
 11
136.620889630431293
 21
3.7037000678249359
 31
0.0
  0
LINE
  5
83FE
  8
0
 10
136.5970489248992124
 20
3.704221606838626
 30
0.0
 11
136.5985656020411056
 21
3.70926607323561
 31
0.0
  0
LINE
  5
83FF
  8
0
 10
136.5851416191653129
 20
3.7005951725097361
 30
0.0
 11
136.5877673513055868
 21
3.7111264090645051
 31
0.0
  0
LINE
  5
8400
  8
0
 10
136.5645952628374005
 20
3.7119157432438672
 30
0.0
 11
136.5664954824962933
 21
3.717262052087924
 31
0.0
  0
LINE
  5
8401
  8
0
 10
136.5534173462021101
 20
3.7114445133235381
 30
0.0
 11
136.5553927923106983
 21
3.719367594797482
 31
0.0
  0
LINE
  5
8402
  8
0
 10
136.5332624712561937
 20
3.7245650145793792
 30
0.0
 11
136.5318101451491941
 21
3.7259100779715228
 31
0.0
  0
LINE
  5
8403
  8
0
 10
136.5228171694166122
 20
3.7268023577371201
 30
0.0
 11
136.523241685440496
 21
3.7280464349168581
 31
0.0
  0
LINE
  5
8404
  8
0
 10
136.8223877129896096
 20
3.638539487349493
 30
0.0
 11
136.8098426363171995
 21
3.6352025777547752
 31
0.0
  0
LINE
  5
8405
  8
0
 10
136.8098426363171995
 20
3.6352025777547752
 30
0.0
 11
136.7866885843280045
 21
3.6362940369810408
 31
0.0
  0
LINE
  5
8406
  8
0
 10
136.7866885843280045
 20
3.6362940369810408
 30
0.0
 11
136.7760620925105002
 21
3.6406521509269139
 31
0.0
  0
LINE
  5
8407
  8
0
 10
136.7760620925105002
 20
3.6406521509269139
 30
0.0
 11
136.7885983413621034
 21
3.6439536541024178
 31
0.0
  0
LINE
  5
8408
  8
0
 10
136.7885983413621034
 20
3.6439536541024178
 30
0.0
 11
136.8117700506300878
 21
3.6429330140974052
 31
0.0
  0
LINE
  5
8409
  8
0
 10
136.8117700506300878
 20
3.6429330140974052
 30
0.0
 11
136.8223877129896096
 21
3.638539487349493
 31
0.0
  0
LINE
  5
840A
  8
0
 10
136.7866885843280045
 20
3.6362940369810408
 30
0.0
 11
136.7885983413621034
 21
3.6439536541024178
 31
0.0
  0
LINE
  5
840B
  8
0
 10
136.8098426363171995
 20
3.6352025777547752
 30
0.0
 11
136.8117700506300878
 21
3.6429330140974052
 31
0.0
  0
LINE
  5
840C
  8
0
 10
136.7546583377738045
 20
3.6430687004405931
 30
0.0
 11
136.7425088270632045
 21
3.6413183194820462
 31
0.0
  0
LINE
  5
840D
  8
0
 10
136.7425088270632045
 20
3.6413183194820462
 30
0.0
 11
136.7200937214321925
 21
3.6453735300504881
 31
0.0
  0
LINE
  5
840E
  8
0
 10
136.7200937214321925
 20
3.6453735300504881
 30
0.0
 11
136.7098226074396905
 21
3.6511569870822842
 31
0.0
  0
LINE
  5
840F
  8
0
 10
136.7098226074396905
 20
3.6511569870822842
 30
0.0
 11
136.7219757715172079
 21
3.652922021108469
 31
0.0
  0
LINE
  5
8410
  8
0
 10
136.7219757715172079
 20
3.652922021108469
 30
0.0
 11
136.7443964580936893
 21
3.6488891937290431
 31
0.0
  0
LINE
  5
8411
  8
0
 10
136.7443964580936893
 20
3.6488891937290431
 30
0.0
 11
136.7546583377738045
 21
3.6430687004405931
 31
0.0
  0
LINE
  5
8412
  8
0
 10
136.7590134194973928
 20
3.6605359792018919
 30
0.0
 11
136.7461775444955947
 21
3.6560327414137488
 31
0.0
  0
LINE
  5
8413
  8
0
 10
136.7461775444955947
 20
3.6560327414137488
 30
0.0
 11
136.723751431481702
 21
3.6600438039273828
 31
0.0
  0
LINE
  5
8414
  8
0
 10
136.723751431481702
 20
3.6600438039273828
 30
0.0
 11
136.714151036719187
 21
3.6685173686895531
 31
0.0
  0
LINE
  5
8415
  8
0
 10
136.714151036719187
 20
3.6685173686895531
 30
0.0
 11
136.727003272435411
 21
3.6730862260886918
 31
0.0
  0
LINE
  5
8416
  8
0
 10
136.727003272435411
 20
3.6730862260886918
 30
0.0
 11
136.7494397536084136
 21
3.6691167472317581
 31
0.0
  0
LINE
  5
8417
  8
0
 10
136.7494397536084136
 20
3.6691167472317581
 30
0.0
 11
136.7590134194973928
 21
3.6605359792018919
 31
0.0
  0
LINE
  5
8418
  8
0
 10
136.7901485743628882
 20
3.6473238153823782
 30
0.0
 11
136.7774664891350938
 21
3.6434373939734739
 31
0.0
  0
LINE
  5
8419
  8
0
 10
136.7774664891350938
 20
3.6434373939734739
 30
0.0
 11
136.7546774071477103
 21
3.6459926678591752
 31
0.0
  0
LINE
  5
841A
  8
0
 10
136.7546774071477103
 20
3.6459926678591752
 30
0.0
 11
136.7445547336041898
 21
3.6523714863191361
 31
0.0
  0
LINE
  5
841B
  8
0
 10
136.7445547336041898
 20
3.6523714863191361
 30
0.0
 11
136.7572391976266886
 21
3.6562674477804289
 31
0.0
  0
LINE
  5
841C
  8
0
 10
136.7572391976266886
 20
3.6562674477804289
 30
0.0
 11
136.7800441910798952
 21
3.6537759916219801
 31
0.0
  0
LINE
  5
841D
  8
0
 10
136.7800441910798952
 20
3.6537759916219801
 30
0.0
 11
136.7901485743628882
 21
3.6473238153823782
 31
0.0
  0
LINE
  5
841E
  8
0
 10
136.821356730428306
 20
3.6537180061426322
 30
0.0
 11
136.813589863987886
 21
3.650231886961822
 31
0.0
  0
LINE
  5
841F
  8
0
 10
136.813589863987886
 20
3.650231886961822
 30
0.0
 11
136.7904009570125936
 21
3.6511835505799008
 31
0.0
  0
LINE
  5
8420
  8
0
 10
136.7904009570125936
 20
3.6511835505799008
 30
0.0
 11
136.7804426652606935
 21
3.6582216683061359
 31
0.0
  0
LINE
  5
8421
  8
0
 10
136.7804426652606935
 20
3.6582216683061359
 30
0.0
 11
136.7886226343761962
 21
3.6618795329410041
 31
0.0
  0
LINE
  5
8422
  8
0
 10
136.8543795930673923
 20
3.645484481747796
 30
0.0
 11
136.8458569250271921
 21
3.641789334733708
 31
0.0
  0
LINE
  5
8423
  8
0
 10
136.8458569250271921
 20
3.641789334733708
 30
0.0
 11
136.8224008831313938
 21
3.6414397940690222
 31
0.0
  0
LINE
  5
8424
  8
0
 10
136.8224008831313938
 20
3.6414397940690222
 30
0.0
 11
136.8119233287017948
 21
3.6463952633240022
 31
0.0
  0
LINE
  5
8425
  8
0
 10
136.8119233287017948
 20
3.6463952633240022
 30
0.0
 11
136.8250266153420114
 21
3.6519710306062541
 31
0.0
  0
LINE
  5
8426
  8
0
 10
136.8250266153420114
 20
3.6519710306062541
 30
0.0
 11
136.8294635192557962
 21
3.6516967566736191
 31
0.0
  0
LINE
  5
8427
  8
0
 10
136.8794606111133874
 20
3.6382481237807118
 30
0.0
 11
136.8555052105664913
 21
3.6361255494183871
 31
0.0
  0
LINE
  5
8428
  8
0
 10
136.8555052105664913
 20
3.6361255494183871
 30
0.0
 11
136.8445146212667964
 21
3.6390233478252898
 31
0.0
  0
LINE
  5
8429
  8
0
 10
136.8445146212667964
 20
3.6390233478252898
 30
0.0
 11
136.8574806566217035
 21
3.6440486309056399
 31
0.0
  0
LINE
  5
842A
  8
0
 10
136.8574806566217035
 20
3.6440486309056399
 30
0.0
 11
136.8595460535291011
 21
3.6441963384783369
 31
0.0
  0
LINE
  5
842B
  8
0
 10
136.8932569638658094
 20
3.635791264525114
 30
0.0
 11
136.889733634218203
 21
3.6353198083578269
 31
0.0
  0
LINE
  5
842C
  8
0
 10
136.889733634218203
 20
3.6353198083578269
 30
0.0
 11
136.8782216020335909
 21
3.6361262139152539
 31
0.0
  0
LINE
  5
842D
  8
0
 10
136.8782216020335909
 20
3.6361262139152539
 30
0.0
 11
136.8841459197520862
 21
3.638062902959124
 31
0.0
  0
LINE
  5
842E
  8
0
 10
136.876916238948894
 20
3.6331395034931901
 30
0.0
 11
136.8772330883666939
 21
3.6344103171925428
 31
0.0
  0
LINE
  5
842F
  8
0
 10
136.8772330883666939
 20
3.6344103171925428
 30
0.0
 11
136.878539051644708
 21
3.634551950452138
 31
0.0
  0
LINE
  5
8430
  8
0
 10
136.878539051644708
 20
3.634551950452138
 30
0.0
 11
136.8860422886180004
 21
3.6341915907246398
 31
0.0
  0
LINE
  5
8431
  8
0
 10
136.8794606111133874
 20
3.6382481237807118
 30
0.0
 11
136.8796913465880891
 21
3.6391735527902931
 31
0.0
  0
LINE
  5
8432
  8
0
 10
136.7857556047443097
 20
3.6625943637136471
 30
0.0
 11
136.7595172030844992
 21
3.665404029164371
 31
0.0
  0
LINE
  5
8433
  8
0
 10
136.7595172030844992
 20
3.665404029164371
 30
0.0
 11
136.7540853971161141
 21
3.67049063333587
 31
0.0
  0
LINE
  5
8434
  8
0
 10
136.78035210926231
 20
3.6364961112549561
 30
0.0
 11
136.7485948938214904
 21
3.640111911644329
 31
0.0
  0
LINE
  5
8435
  8
0
 10
136.7485948938214904
 20
3.640111911644329
 30
0.0
 11
136.7533593963293015
 21
3.6407064152414028
 31
0.0
  0
LINE
  5
8436
  8
0
 10
136.7533593963293015
 20
3.6407064152414028
 30
0.0
 11
136.7761405530216052
 21
3.638119354749481
 31
0.0
  0
LINE
  5
8437
  8
0
 10
136.7761405530216052
 20
3.638119354749481
 30
0.0
 11
136.78035210926231
 21
3.6364961112549561
 31
0.0
  0
LINE
  5
8438
  8
0
 10
136.8489530189598895
 20
3.6354624385479251
 30
0.0
 11
136.8161311547953005
 21
3.6348081607176819
 31
0.0
  0
LINE
  5
8439
  8
0
 10
136.8161311547953005
 20
3.6348081607176819
 30
0.0
 11
136.8210510525730115
 21
3.6360259194946378
 31
0.0
  0
LINE
  5
843A
  8
0
 10
136.8210510525730115
 20
3.6360259194946378
 30
0.0
 11
136.8445977743475908
 21
3.6365093728370139
 31
0.0
  0
LINE
  5
843B
  8
0
 10
136.8445977743475908
 20
3.6365093728370139
 30
0.0
 11
136.8489530189598895
 21
3.6354624385479251
 31
0.0
  0
LINE
  5
843C
  8
0
 10
136.7200937214321925
 20
3.6453735300504881
 30
0.0
 11
136.7219757715172079
 21
3.652922021108469
 31
0.0
  0
LINE
  5
843D
  8
0
 10
136.7425088270632045
 20
3.6413183194820462
 30
0.0
 11
136.7443964580936893
 21
3.6488891937290431
 31
0.0
  0
LINE
  5
843E
  8
0
 10
136.723751431481702
 20
3.6600438039273828
 30
0.0
 11
136.727003272435411
 21
3.6730862260886918
 31
0.0
  0
LINE
  5
843F
  8
0
 10
136.7461775444955947
 20
3.6560327414137488
 30
0.0
 11
136.7494397536084136
 21
3.6691167472317581
 31
0.0
  0
LINE
  5
8440
  8
0
 10
136.7546774071477103
 20
3.6459926678591752
 30
0.0
 11
136.7572391976266886
 21
3.6562674477804289
 31
0.0
  0
LINE
  5
8441
  8
0
 10
136.7774664891350938
 20
3.6434373939734739
 30
0.0
 11
136.7800441910798952
 21
3.6537759916219801
 31
0.0
  0
LINE
  5
8442
  8
0
 10
136.7595172030844992
 20
3.665404029164371
 30
0.0
 11
136.7603920165215072
 21
3.6689182165139052
 31
0.0
  0
LINE
  5
8443
  8
0
 10
136.7904009570125936
 20
3.6511835505799008
 30
0.0
 11
136.7922949226903881
 21
3.6609639286292248
 31
0.0
  0
LINE
  5
8444
  8
0
 10
136.813589863987886
 20
3.650231886961822
 30
0.0
 11
136.8146189510790975
 21
3.6553979232123548
 31
0.0
  0
LINE
  5
8445
  8
0
 10
136.8224008831313938
 20
3.6414397940690222
 30
0.0
 11
136.8250266153420114
 21
3.6519710306062541
 31
0.0
  0
LINE
  5
8446
  8
0
 10
136.8458569250271921
 20
3.641789334733708
 30
0.0
 11
136.846689070621693
 21
3.6474019443511412
 31
0.0
  0
LINE
  5
8447
  8
0
 10
136.8555052105664913
 20
3.6361255494183871
 30
0.0
 11
136.8574806566217035
 21
3.6440486309056399
 31
0.0
  0
LINE
  5
8448
  8
0
 10
136.8794606111133874
 20
3.6382481237807118
 30
0.0
 11
136.8813744079664048
 21
3.6387539184579181
 31
0.0
  0
LINE
  5
8449
  8
0
 10
136.889733634218203
 20
3.6353198083578269
 30
0.0
 11
136.889942867674506
 21
3.6366175615102101
 31
0.0
  0
LINE
  5
844A
  8
0
 10
136.679380361759911
 20
3.6671482587778028
 30
0.0
 11
136.6891413159468129
 21
3.6593186629515939
 31
0.0
  0
LINE
  5
844B
  8
0
 10
136.6891413159468129
 20
3.6593186629515939
 30
0.0
 11
136.7111964537074869
 21
3.6538196995722698
 31
0.0
  0
LINE
  5
844C
  8
0
 10
136.7111964537074869
 20
3.6538196995722698
 30
0.0
 11
136.7234825040328872
 21
3.6561563902691701
 31
0.0
  0
LINE
  5
844D
  8
0
 10
136.7234825040328872
 20
3.6561563902691701
 30
0.0
 11
136.7137430929182074
 21
3.664033711111681
 31
0.0
  0
LINE
  5
844E
  8
0
 10
136.7137430929182074
 20
3.664033711111681
 30
0.0
 11
136.6916879550724104
 21
3.6695326746695218
 31
0.0
  0
LINE
  5
844F
  8
0
 10
136.6916879550724104
 20
3.6695326746695218
 30
0.0
 11
136.679380361759911
 21
3.6671482587778028
 31
0.0
  0
LINE
  5
8450
  8
0
 10
136.6864172548785064
 20
3.6873621961001279
 30
0.0
 11
136.6939519339161961
 21
3.678612997607142
 31
0.0
  0
LINE
  5
8451
  8
0
 10
136.6939519339161961
 20
3.678612997607142
 30
0.0
 11
136.716007071574893
 21
3.6731140340414572
 31
0.0
  0
LINE
  5
8452
  8
0
 10
136.716007071574893
 20
3.6731140340414572
 30
0.0
 11
136.7268314756402106
 21
3.6772857991570862
 31
0.0
  0
LINE
  5
8453
  8
0
 10
136.6832101564000936
 20
3.654044954842397
 30
0.0
 11
136.7139575007624899
 21
3.6463787808799211
 31
0.0
  0
LINE
  5
8454
  8
0
 10
136.7139575007624899
 20
3.6463787808799211
 30
0.0
 11
136.7098859939050044
 21
3.648563732061457
 31
0.0
  0
LINE
  5
8455
  8
0
 10
136.7098859939050044
 20
3.648563732061457
 30
0.0
 11
136.6878308561157951
 21
3.6540626955177968
 31
0.0
  0
LINE
  5
8456
  8
0
 10
136.6878308561157951
 20
3.6540626955177968
 30
0.0
 11
136.6832101564000936
 21
3.654044954842397
 31
0.0
  0
LINE
  5
8457
  8
0
 10
136.716007071574893
 20
3.6731140340414572
 30
0.0
 11
136.7175943563568126
 21
3.6795888716587051
 31
0.0
  0
LINE
  5
8458
  8
0
 10
136.6939519339161961
 20
3.678612997607142
 30
0.0
 11
136.6955647077411129
 21
3.6850814799481491
 31
0.0
  0
LINE
  5
8459
  8
0
 10
136.7111964537074869
 20
3.6538196995722698
 30
0.0
 11
136.7137430929182074
 21
3.664033711111681
 31
0.0
  0
LINE
  5
845A
  8
0
 10
136.6891413159468129
 20
3.6593186629515939
 30
0.0
 11
136.691687955126099
 21
3.6695326746561352
 31
0.0
  0
LINE
  5
845B
  8
0
 10
144.0355031009983975
 20
-4.6117791068576004
 30
0.0
 11
141.8186779539001066
 21
-4.6117791068576004
 31
0.0
  0
LINE
  5
845D
  8
0
 10
142.0473166830556977
 20
4.6171538042912728
 30
0.0
 11
142.8779373739980088
 21
4.6171538042912728
 31
0.0
  0
ENDSEC
  0
EOF
