  0
SECTION
  2
HEADER
  9
$ACADVER
  1
AC1009
  9
$INSBASE
 10
3498.0456122318928465
 20
159.2296071540324078
 30
0.0
  9
$EXTMIN
 10
3491.1541232454442252
 20
150.6860684525441911
 30
0.0
  9
$EXTMAX
 10
3506.1160707534108951
 20
160.2335441619324001
 30
0.0
  9
$LIMMIN
 10
0.0
 20
0.0
  9
$LIMMAX
 10
11.6929133858000007
 20
8.2677165353999982
  9
$ORTHOMODE
 70
     0
  9
$REGENMODE
 70
     1
  9
$FILLMODE
 70
     1
  9
$QTEXTMODE
 70
     0
  9
$MIRRTEXT
 70
     0
  9
$DRAGMODE
 70
     2
  9
$LTSCALE
 40
0.6431102362
  9
$OSMODE
 70
  3839
  9
$ATTMODE
 70
     1
  9
$TEXTSIZE
 40
0.2
  9
$TRACEWID
 40
0.05
  9
$TEXTSTYLE
  7
STANDARD
  9
$CLAYER
  8
0
  9
$CELTYPE
  6
BYLAYER
  9
$CECOLOR
 62
   256
  9
$DIMSCALE
 40
1.0
  9
$DIMASZ
 40
0.1875
  9
$DIMEXO
 40
0.0625
  9
$DIMDLI
 40
0.4443307087
  9
$DIMRND
 40
0.0
  9
$DIMDLE
 40
0.0
  9
$DIMEXE
 40
0.125
  9
$DIMTP
 40
0.01
  9
$DIMTM
 40
0.01
  9
$DIMTXT
 40
2.0
  9
$DIMCEN
 40
0.1052362205
  9
$DIMTSZ
 40
0.0
  9
$DIMTOL
 70
     1
  9
$DIMLIM
 70
     0
  9
$DIMTIH
 70
     1
  9
$DIMTOH
 70
     1
  9
$DIMSE1
 70
     0
  9
$DIMSE2
 70
     0
  9
$DIMTAD
 70
     0
  9
$DIMZIN
 70
     0
  9
$DIMBLK
  1

  9
$DIMASO
 70
     1
  9
$DIMSHO
 70
     1
  9
$DIMPOST
  1
\X
  9
$DIMAPOST
  1

  9
$DIMALT
 70
     1
  9
$DIMALTD
 70
     2
  9
$DIMALTF
 40
25.3999999999999986
  9
$DIMLFAC
 40
1.0
  9
$DIMTOFL
 70
     0
  9
$DIMTVP
 40
0.0
  9
$DIMTIX
 70
     0
  9
$DIMSOXD
 70
     0
  9
$DIMSAH
 70
     0
  9
$DIMBLK1
  1

  9
$DIMBLK2
  1

  9
$DIMSTYLE
  2
STANDARD
  9
$DIMCLRD
 70
     0
  9
$DIMCLRE
 70
     0
  9
$DIMCLRT
 70
     0
  9
$DIMTFAC
 40
1.0
  9
$DIMGAP
 40
0.09
  9
$LUNITS
 70
     2
  9
$LUPREC
 70
     4
  9
$SKETCHINC
 40
0.1
  9
$FILLETRAD
 40
0.0
  9
$AUNITS
 70
     0
  9
$AUPREC
 70
     0
  9
$MENU
  1
.
  9
$ELEVATION
 40
0.0
  9
$PELEVATION
 40
0.0
  9
$THICKNESS
 40
0.0
  9
$LIMCHECK
 70
     0
  9
$BLIPMODE
 70
     0
  9
$CHAMFERA
 40
0.0
  9
$CHAMFERB
 40
0.0
  9
$SKPOLY
 70
     0
  9
$TDCREATE
 40
2458060.468368056230247
  9
$TDUPDATE
 40
2459166.7637268519029021
  9
$TDINDWG
 40
0.5835140046
  9
$TDUSRTIMER
 40
0.5835140046
  9
$USRTIMER
 70
     1
  9
$ANGBASE
 50
0.0
  9
$ANGDIR
 70
     0
  9
$PDMODE
 70
     0
  9
$PDSIZE
 40
0.3125
  9
$PLINEWID
 40
0.0
  9
$COORDS
 70
     1
  9
$SPLFRAME
 70
     0
  9
$SPLINETYPE
 70
     6
  9
$SPLINESEGS
 70
     8
  9
$ATTDIA
 70
     1
  9
$ATTREQ
 70
     1
  9
$HANDLING
 70
     1
  9
$HANDSEED
  5
14FE8
  9
$SURFTAB1
 70
     6
  9
$SURFTAB2
 70
     6
  9
$SURFTYPE
 70
     6
  9
$SURFU
 70
     6
  9
$SURFV
 70
     6
  9
$UCSNAME
  2

  9
$UCSORG
 10
0.0
 20
0.0
 30
0.0
  9
$UCSXDIR
 10
1.0
 20
0.0
 30
0.0
  9
$UCSYDIR
 10
0.0
 20
1.0
 30
0.0
  9
$PUCSNAME
  2

  9
$PUCSORG
 10
0.0
 20
0.0
 30
0.0
  9
$PUCSXDIR
 10
1.0
 20
0.0
 30
0.0
  9
$PUCSYDIR
 10
0.0
 20
1.0
 30
0.0
  9
$USERI1
 70
     0
  9
$USERI2
 70
     0
  9
$USERI3
 70
     0
  9
$USERI4
 70
     0
  9
$USERI5
 70
     0
  9
$USERR1
 40
0.0
  9
$USERR2
 40
0.0
  9
$USERR3
 40
0.0
  9
$USERR4
 40
0.0
  9
$USERR5
 40
0.0
  9
$WORLDVIEW
 70
     1
  9
$SHADEDGE
 70
     3
  9
$SHADEDIF
 70
    70
  9
$TILEMODE
 70
     1
  9
$MAXACTVP
 70
    64
  9
$PLIMCHECK
 70
     0
  9
$PEXTMIN
 10
1.0000000000000000E+20
 20
1.0000000000000000E+20
 30
1.0000000000000000E+20
  9
$PEXTMAX
 10
-1.0000000000000000E+20
 20
-1.0000000000000000E+20
 30
-1.0000000000000000E+20
  9
$PLIMMIN
 10
0.0
 20
0.0
  9
$PLIMMAX
 10
12.0
 20
9.0
  9
$UNITMODE
 70
     0
  9
$VISRETAIN
 70
     1
  9
$PLINEGEN
 70
     0
  9
$PSLTSCALE
 70
     1
  0
ENDSEC
  0
SECTION
  2
TABLES
  0
TABLE
  2
VPORT
 70
     1
  0
VPORT
  2
*ACTIVE
 70
     0
 10
0.0
 20
0.0
 11
1.0
 21
1.0
 12
0.0
 22
0.0
 13
0.0
 23
0.0
 14
1.0
 24
1.0
 15
0.0
 25
0.0
 16
0.0
 26
0.0
 36
69.7202144524254663
 17
3498.6343994140629547
 27
155.4607238769530966
 37
0.0
 40
17.7386652344803402
 41
3.1182994454713491
 42
50.0
 43
0.0
 44
0.0
 50
0.0
 51
0.0
 71
     0
 72
   100
 73
     1
 74
     1
 75
     0
 76
     0
 77
     0
 78
     0
  0
ENDTAB
  0
TABLE
  2
LTYPE
 70
     2
  0
LTYPE
  2
CONTINUOUS
 70
     0
  3
Solid line
 72
    65
 73
     0
 40
0.0
  0
LTYPE
  2
PHANTOM2
 70
     0
  3
___ _ _ ___ _ _ ___ _ _ ___ _ _
 72
    65
 73
     6
 40
1.25
 49
0.625
 49
-0.125
 49
0.125
 49
-0.125
 49
0.125
 49
-0.125
  0
ENDTAB
  0
TABLE
  2
LAYER
 70
     2
  0
LAYER
  2
0
 70
     0
 62
   255
  6
CONTINUOUS
  0
LAYER
  2
DEFPOINTS
 70
     0
 62
     7
  6
CONTINUOUS
  0
ENDTAB
  0
TABLE
  2
STYLE
 70
     1
  0
STYLE
  2
STANDARD
 70
     0
 40
0.0
 41
0.8
 50
0.0
 71
     0
 42
0.2
  3
txt
  4

  0
ENDTAB
  0
TABLE
  2
VIEW
 70
     0
  0
ENDTAB
  0
TABLE
  2
UCS
 70
     0
  0
ENDTAB
  0
TABLE
  2
APPID
 70
     9
  0
APPID
  2
ACAD
 70
     0
  0
APPID
  2
ACAD_MLEADERVER
 70
     0
  0
APPID
  2
ACAD_EXEMPT_FROM_CAD_STANDARDS
 70
     0
  0
APPID
  2
ACAD_NAV_VCDISPLAY
 70
     0
  0
APPID
  2
ACAECLAYERSTANDARD
 70
     0
  0
APPID
  2
ACCMTRANSPARENCY
 70
     0
  0
APPID
  2
ACAD_DSTYLE_DIMJAG
 70
     0
  0
APPID
  2
ACAD_DSTYLE_DIMTALN
 70
     0
  0
APPID
  2
ACDBATTR
 70
     0
  0
ENDTAB
  0
TABLE
  2
DIMSTYLE
 70
     1
  0
DIMSTYLE
  2
STANDARD
 70
     0
  3

  4

  5

  6

  7

 40
1.0
 41
0.1875
 42
0.0625
 43
0.38
 44
0.125
 45
0.0
 46
0.0
 47
0.01
 48
0.01
140
0.15625
141
0.09
142
0.0
143
25.3999999999999986
144
1.0
145
0.0
146
1.0
147
0.09
 71
     1
 72
     0
 73
     1
 74
     1
 75
     0
 76
     0
 77
     0
 78
     4
170
     0
171
     2
172
     0
173
     0
174
     0
175
     0
176
     0
177
     0
178
     0
  0
ENDTAB
  0
ENDSEC
  0
SECTION
  2
BLOCKS
  0
BLOCK
  8
0
  2
$MODEL_SPACE
 70
     0
 10
0.0
 20
0.0
 30
0.0
  3
$MODEL_SPACE
  1

  0
ENDBLK
  5
21
  8
0
  0
BLOCK
 67
     1
  8
0
  2
$PAPER_SPACE
 70
     0
 10
0.0
 20
0.0
 30
0.0
  3
$PAPER_SPACE
  1

  0
ENDBLK
  5
1D
 67
     1
  8
0
  0
BLOCK
  8
0
  2
_FILLED
 70
     0
 10
0.0
 20
0.0
 30
0.0
  3
_FILLED
  1

  0
SOLID
  5
13356
  8
0
  6
BYBLOCK
 62
     0
 10
0.0
 20
0.0
 30
0.0
 11
-1.0
 21
0.1666666667
 31
0.0
 12
-1.0
 22
-0.1666666667
 32
0.0
 13
-1.0
 23
-0.1666666667
 33
0.0
  0
ENDBLK
  5
13357
  8
0
  6
BYBLOCK
 62
     0
  0
ENDSEC
  0
SECTION
  2
ENTITIES
  0
ATTDEF
  5
12BEB
  8
DEFPOINTS
 10
3498.0463194708390802
 20
159.233265953458897
 30
0.0
 40
0.001
  1
K-72292T-4E2
  3

  2
MODELNUMBER
 70
     0
1001
ACDBATTR
1070
     0
1070
     1
  0
ATTDEF
  5
12BEC
  8
DEFPOINTS
 10
3498.0463194708390802
 20
159.2315992867922887
 30
0.0
 40
0.001
  1
ALEO
  3

  2
TRADENAME
 70
     0
1001
ACDBATTR
1070
     0
1070
     1
  0
ATTDEF
  5
12BED
  8
DEFPOINTS
 10
3498.0463194708390802
 20
159.2299326201255951
 30
0.0
 40
0.001
  1
BATH AND SHOWER FAUCET
  3

  2
PRODUCT
 70
     0
1001
ACDBATTR
1070
     0
1070
     1
  0
ARC
  5
14D7F
  8
0
 10
3503.9180970920610889
 20
158.946224704067987
 30
0.0
 40
0.4666272964036019
 50
102.3374020218374056
 51
128.7673401488241041
  0
ARC
  5
14D80
  8
0
 10
3503.7920166358157985
 20
159.1003378243576094
 30
0.0
 40
0.2675256816083563
 50
128.3807801743056984
 51
166.5601859411370924
  0
ARC
  5
14D81
  8
0
 10
3503.9284332312990955
 20
158.8271767491405058
 30
0.0
 40
0.5318948608466214
 50
99.6228534389390603
 51
123.628932461179005
  0
ARC
  5
14D82
  8
0
 10
3503.8182473036931697
 20
158.9928996175609939
 30
0.0
 40
0.3328847959744083
 50
123.6347722553361024
 51
149.3669202457149083
  0
ARC
  5
14D83
  8
0
 10
3503.7366135519691852
 20
159.0412413210486875
 30
0.0
 40
0.2380112500479929
 50
149.3669202457149083
 51
163.4708317943278075
  0
ARC
  5
14D84
  8
0
 10
3504.1319839586931266
 20
158.253363157256814
 30
0.0
 40
1.0888442427771661
 50
104.0008196777807967
 51
120.4144889319425005
  0
ARC
  5
14D85
  8
0
 10
3503.7943980647428361
 20
158.9340849083301919
 30
0.0
 40
0.3351911567538347
 50
129.5965935990413129
 51
152.018549275069887
  0
LINE
  5
14D86
  8
0
 10
3503.49839090971318
 20
159.0913518016569128
 30
0.0
 11
3503.49839090971318
 21
158.8793914848752138
 31
0.0
  0
LINE
  5
14D87
  8
0
 10
3503.5807545355128241
 20
159.1923668356569124
 30
0.0
 11
3503.5807545355128241
 21
159.0216040390569106
 31
0.0
  0
LINE
  5
14D88
  8
0
 10
3503.868553581112792
 20
159.309860304056798
 30
0.0
 11
3503.868553581112792
 21
159.1390975074569099
 31
0.0
  0
ARC
  5
14D89
  8
0
 10
3503.3174340833529641
 20
160.0778319246651904
 30
0.0
 40
1.088556386624963
 50
283.9986345046125962
 51
300.4166741050516976
  0
ARC
  5
14D8A
  8
0
 10
3503.7963936968681082
 20
158.7613562060469121
 30
0.0
 40
0.337978079905169
 50
129.644859312521902
 51
151.8508182796792028
  0
ARC
  5
14D8B
  8
0
 10
3503.9541882320418154
 20
158.4711205596838965
 30
0.0
 40
0.6403653477438197
 50
96.5773761170752607
 51
109.5950676000767032
  0
ARC
  5
14D8C
  8
0
 10
3503.8677162872941153
 20
158.6916023618150007
 30
0.0
 40
0.4029079975033125
 50
111.9547735668398047
 51
142.2056972221062097
  0
ARC
  5
14D8D
  8
0
 10
3497.8029592469929412
 20
152.6041020934783887
 30
0.0
 40
0.5260784960444567
 50
224.1452624783883039
 51
258.4105860742586742
  0
ARC
  5
14D8E
  8
0
 10
3497.8177264027090132
 20
152.5758315661333882
 30
0.0
 40
0.5178883126925083
 50
184.6127154182167089
 51
220.7610875505255024
  0
ARC
  5
14D8F
  8
0
 10
3501.870108694305145
 20
153.1841357031960058
 30
0.0
 40
4.6145944983121261
 50
182.4216043267269924
 51
188.0968738925556067
  0
ARC
  5
14D90
  8
0
 10
3770.9150915468471794
 20
165.1868312488986135
 30
0.0
 40
273.9271655661220279
 50
181.2483483233633024
 51
182.5521614671420139
  0
CIRCLE
  5
14D91
  8
0
 10
3498.0456122248201609
 20
158.8831504611324021
 30
0.0
 40
0.3110236149650856
  0
LINE
  5
14D92
  8
0
 10
3491.1557766466521571
 20
159.0819797259347865
 30
0.0
 11
3491.2566486983591858
 21
157.3423636181134952
 31
0.0
  0
ARC
  5
14D93
  8
0
 10
3619.1173898905071837
 20
164.200068406335788
 30
0.0
 40
128.0445127803922105
 50
183.0700700471955997
 51
183.5743413490741887
  0
ARC
  5
14D94
  8
0
 10
3493.1411056033389286
 20
156.3543635646863095
 30
0.0
 40
1.8243045811762399
 50
184.3082846499875131
 51
193.0912928522432992
  0
ARC
  5
14D95
  8
0
 10
3491.8008235085258093
 20
156.0345186896776966
 30
0.0
 40
0.4464808193055362
 50
192.0705308249399934
 51
231.3564470196907905
  0
ARC
  5
14D96
  8
0
 10
3491.8471075873371774
 20
156.0998829216364925
 30
0.0
 40
0.5264571693836551
 50
231.8645104694413988
 51
255.3335376052677077
  0
ARC
  5
14D97
  8
0
 10
3492.1401004208928498
 20
159.1390559729323968
 30
0.0
 40
0.9859771754492233
 50
356.6814066915889043
 51
183.3185933084110957
  0
ARC
  5
14D98
  8
0
 10
3492.1401004208928498
 20
157.9194845621989032
 30
0.0
 40
2.3675976244216499
 50
259.627291486025797
 51
280.372708513974203
  0
ARC
  5
14D99
  8
0
 10
3498.288265216794116
 20
152.6041020934783887
 30
0.0
 40
0.5260784960444567
 50
281.5894139257413258
 51
315.8547375216118098
  0
ARC
  5
14D9A
  8
0
 10
3498.2734980610771345
 20
152.5758315661333882
 30
0.0
 40
0.5178883126925083
 50
319.2389124494745261
 51
355.3872845817832058
  0
ARC
  5
14D9B
  8
0
 10
3494.2211157694819121
 20
153.1841357031960058
 30
0.0
 40
4.6145944983121261
 50
351.9031261074443933
 51
357.5783956732728939
  0
ARC
  5
14D9C
  8
0
 10
3498.0456122318928465
 20
159.1263150792121053
 30
0.0
 40
0.9969920968779447
 50
5.3362737253286241
 51
174.6637262746762076
  0
ARC
  5
14D9D
  8
0
 10
3225.1761329169398778
 20
165.1868312488986135
 30
0.0
 40
273.9271655661220279
 50
357.4478385328579861
 51
358.7516516766365839
  0
ARC
  5
14D9E
  8
0
 10
3503.9511240428928431
 20
158.302060578872613
 30
0.0
 40
0.365826950305861
 50
0.0317889793503165
 51
179.9682110206497043
  0
ARC
  5
14D9F
  8
0
 10
3503.9511240428928431
 20
159.2296071540324078
 30
0.0
 40
1.0039370079000001
 50
300.3060670969900912
 51
239.6939329030097952
  0
LINE
  5
14DA0
  8
0
 10
3503.4445183070720304
 20
158.7351006267604987
 30
0.0
 11
3503.4445183070720304
 21
154.9968935616261092
 31
0.0
  0
ARC
  5
14DA1
  8
0
 10
3498.0456122318928465
 20
154.0436893683099129
 30
0.0
 40
1.985732270043278
 50
259.8968003700206282
 51
280.1031996299793718
  0
ARC
  5
14DA2
  8
0
 10
3503.9340803694822171
 20
158.4748284931478963
 30
0.0
 40
0.6050769475089913
 50
95.079041904665317
 51
122.5203954585837067
  0
ARC
  5
14DA3
  8
0
 10
3503.8199363105131852
 20
158.6538581104233003
 30
0.0
 40
0.3927553281205706
 50
122.5203954585837067
 51
145.7939310081935105
  0
ARC
  5
14DA4
  8
0
 10
3503.7440482344131851
 20
158.7054433454493108
 30
0.0
 40
0.3009945708935624
 50
145.7939310081935105
 51
174.345417620940708
  0
ARC
  5
14DA5
  8
0
 10
3503.9510320111130568
 20
159.2298774418568996
 30
0.0
 40
0.4527559055000014
 50
345.9515419105148908
 51
194.0884562034700878
  0
ARC
  5
14DA6
  8
0
 10
3503.9511240428928431
 20
159.2298774418568996
 30
0.0
 40
0.535433078809374
 50
327.7304494851478012
 51
212.2695505148521988
  0
ARC
  5
14DA7
  8
0
 10
3503.9511240428928431
 20
159.2298774418568996
 30
0.0
 40
0.5866141824065747
 50
321.7977086017897932
 51
218.2022913982102921
  0
LINE
  5
14DA8
  8
0
 10
3503.5852971488930052
 20
158.3022635478324105
 30
0.0
 11
3503.5852971488930052
 21
155.0779189566933098
 31
0.0
  0
ARC
  5
14DA9
  8
0
 10
3503.4312158629818441
 20
155.1866663822355008
 30
0.0
 40
0.1885922724562554
 50
279.2814600802853988
 51
324.7863373214614739
  0
ARC
  5
14DAA
  8
0
 10
3503.8809200119421803
 20
152.9923730842102998
 30
0.0
 40
2.051474784732199
 50
101.793399133271194
 51
110.9108280281215997
  0
ARC
  5
14DAB
  8
0
 10
3503.8523165062961198
 20
152.9726651465130942
 30
0.0
 40
2.0599522483084169
 50
109.9719577810676014
 51
177.985597615299298
  0
ARC
  5
14DAC
  8
0
 10
3503.9511240428928431
 20
153.1080194626215984
 30
0.0
 40
2.1584048163828058
 50
181.6711529392622992
 51
358.3288470607377008
  0
ARC
  5
14DAD
  8
0
 10
3503.7884075052638764
 20
152.7518973615717925
 30
0.0
 40
2.0022301728879781
 50
173.9047856671035106
 51
192.5005024923420081
  0
ARC
  5
14DAE
  8
0
 10
3503.9511240428928431
 20
152.8756067096281868
 30
0.0
 40
2.1895382570840249
 50
194.7399262139950054
 51
345.2600737860050231
  0
ARC
  5
14DAF
  8
0
 10
3503.9841509937250521
 20
158.946224704067987
 30
0.0
 40
0.4666272964036019
 50
51.2326598511758533
 51
77.6625979781625944
  0
ARC
  5
14DB0
  8
0
 10
3504.1102314499707973
 20
159.1003378243576094
 30
0.0
 40
0.2675256816083563
 50
13.4398140588628507
 51
51.6192198256942518
  0
ARC
  5
14DB1
  8
0
 10
3503.9738148544870455
 20
158.8271767491405058
 30
0.0
 40
0.5318948608466214
 50
56.3710675388209168
 51
80.3771465610609539
  0
ARC
  5
14DB2
  8
0
 10
3504.0840007820929713
 20
158.9928996175609939
 30
0.0
 40
0.3328847959744083
 50
30.6330797542850917
 51
56.3652277446638621
  0
ARC
  5
14DB3
  8
0
 10
3504.1656345338169558
 20
159.0412413210486875
 30
0.0
 40
0.2380112500479929
 50
16.5291682056721498
 51
30.6330797542850917
  0
ARC
  5
14DB4
  8
0
 10
3503.7702641270930144
 20
158.253363157256814
 30
0.0
 40
1.0888442427771661
 50
59.585511068057528
 51
75.9991803222191606
  0
ARC
  5
14DB5
  8
0
 10
3504.1078500210428501
 20
158.9340849083301919
 30
0.0
 40
0.3351911567538347
 50
27.9814507249301094
 51
50.4034064009586729
  0
LINE
  5
14DB6
  8
0
 10
3504.403857176072961
 20
159.0913518016569128
 30
0.0
 11
3504.403857176072961
 21
158.8793914848752138
 31
0.0
  0
LINE
  5
14DB7
  8
0
 10
3504.3214935502742264
 20
159.1923668356569124
 30
0.0
 11
3504.3214935502742264
 21
159.0216040390569106
 31
0.0
  0
LINE
  5
14DB8
  8
0
 10
3504.0336945046738037
 20
159.309860304056798
 30
0.0
 11
3504.0336945046728943
 21
159.1390975074569099
 31
0.0
  0
ARC
  5
14DB9
  8
0
 10
3504.5848140024331769
 20
160.0778319246651904
 30
0.0
 40
1.088556386624963
 50
239.5833258949483024
 51
256.0013654953875175
  0
ARC
  5
14DBA
  8
0
 10
3504.1058543889180328
 20
158.7613562060469121
 30
0.0
 40
0.337978079905169
 50
28.1491817203207617
 51
50.3551406874780767
  0
ARC
  5
14DBB
  8
0
 10
3503.9513819026587953
 20
158.490011887615708
 30
0.0
 40
0.621218876604101
 50
69.598976608564854
 51
83.5274242758105174
  0
ARC
  5
14DBC
  8
0
 10
3504.0345319035582179
 20
158.6916024687645006
 30
0.0
 40
0.4029078489361501
 50
37.7942999159596624
 51
68.6520539185282814
  0
LINE
  5
14DBD
  8
0
 10
3504.4577297787141106
 20
158.7351006267604987
 30
0.0
 11
3504.4577297787141106
 21
154.9968935616261092
 31
0.0
  0
ARC
  5
14DBE
  8
0
 10
3503.968167716303924
 20
158.4748284931478963
 30
0.0
 40
0.6050769475089913
 50
57.4796045414162222
 51
84.920958095334683
  0
ARC
  5
14DBF
  8
0
 10
3504.0823117752729559
 20
158.6538581104233003
 30
0.0
 40
0.3927553281205706
 50
34.2060689918064469
 51
57.4796045414162222
  0
ARC
  5
14DC0
  8
0
 10
3504.1581998513738654
 20
158.7054433454493108
 30
0.0
 40
0.3009945708935624
 50
5.654582379059284
 51
34.2060689918064469
  0
LINE
  5
14DC1
  8
0
 10
3504.3169509368931358
 20
158.3022635478324105
 30
0.0
 11
3504.3169509368931358
 21
155.0779189566933098
 31
0.0
  0
ARC
  5
14DC2
  8
0
 10
3504.4710322228038422
 20
155.1866663822355008
 30
0.0
 40
0.1885922724562554
 50
215.2136626785384124
 51
260.7185399197146012
  0
ARC
  5
14DC3
  8
0
 10
3504.0213280738439607
 20
152.9923730842102998
 30
0.0
 40
2.051474784732199
 50
69.0891719718784003
 51
78.2066008667288344
  0
ARC
  5
14DC4
  8
0
 10
3504.0499315794900212
 20
152.9726651465130942
 30
0.0
 40
2.0599522483084169
 50
2.0144023847006678
 51
70.0280422189323843
  0
ARC
  5
14DC5
  8
0
 10
3504.1138405805218099
 20
152.7518973615717925
 30
0.0
 40
2.0022301728879781
 50
347.4994975076579067
 51
6.0952143328948196
  0
ARC
  5
14DC6
  8
0
 10
3503.9511240428928431
 20
158.8250521694507995
 30
0.0
 40
0.592092621081577
 50
77.0458309976301052
 51
102.9541690023698948
  0
ARC
  5
14DC7
  8
0
 10
3503.9511240428928431
 20
158.7261677314039048
 30
0.0
 40
0.6352993597710221
 50
79.8823139540168654
 51
100.1176860459831062
  0
ARC
  5
14DC8
  8
0
 10
3503.9511240428928431
 20
158.5951169027997878
 30
0.0
 40
0.7194970540587523
 50
83.4101390372591709
 51
96.5898609627670908
  0
ARC
  5
14DC9
  8
0
 10
3503.9511240428928431
 20
158.424362213187095
 30
0.0
 40
0.7194890006341219
 50
83.4100649482868306
 51
96.5899350516868935
  0
ARC
  5
14DCA
  8
0
 10
3503.9511240428928431
 20
158.4316849423071005
 30
0.0
 40
0.6792325020253749
 50
84.0604497433119633
 51
95.9395502566880509
  0
ARC
  5
14DCB
  8
0
 10
3503.9511240428928431
 20
158.3758289876656136
 30
0.0
 40
0.7052444250275097
 50
84.2537532464437362
 51
95.7462467535562638
  0
LINE
  5
14DCD
  8
0
 10
3493.1244241951339973
 20
159.0819797259347865
 30
0.0
 11
3493.0235521434269685
 21
157.3423636181134952
 31
0.0
  0
ARC
  5
14DCE
  8
0
 10
3365.1628109512789706
 20
164.200068406335788
 30
0.0
 40
128.0445127803922105
 50
356.4256586509258113
 51
356.9299299528044003
  0
ARC
  5
14DCF
  8
0
 10
3491.1390952384472257
 20
156.3543635646863095
 30
0.0
 40
1.8243045811762399
 50
346.9087071477550808
 51
355.6917153500124869
  0
ARC
  5
14DD0
  8
0
 10
3492.4793773332598903
 20
156.0345186896776966
 30
0.0
 40
0.4464808193055362
 50
308.6435529803093232
 51
347.9294691750599782
  0
ARC
  5
14DD1
  8
0
 10
3492.4330932544489769
 20
156.0998829216364925
 30
0.0
 40
0.5264571693836551
 50
284.6664623947323207
 51
308.1354895305585728
  0
ENDSEC
  0
EOF
