  0
SECTION
  2
HEADER
  9
$ACADVER
  1
AC1009
  9
$INSBASE
 10
3499.7766213214222262
 20
163.4723240982889081
 30
0.0
  9
$EXTMIN
 10
3492.8851323349717859
 20
163.4675085905286949
 30
0.0
  9
$EXTMAX
 10
3507.8470798429389106
 20
170.7506586016014012
 30
0.0
  9
$LIMMIN
 10
0.0
 20
0.0
  9
$LIMMAX
 10
11.6929133858000007
 20
8.2677165353999982
  9
$ORTHOMODE
 70
     0
  9
$REGENMODE
 70
     1
  9
$FILLMODE
 70
     1
  9
$QTEXTMODE
 70
     0
  9
$MIRRTEXT
 70
     0
  9
$DRAGMODE
 70
     2
  9
$LTSCALE
 40
0.6431102362
  9
$OSMODE
 70
  3839
  9
$ATTMODE
 70
     1
  9
$TEXTSIZE
 40
0.2
  9
$TRACEWID
 40
0.05
  9
$TEXTSTYLE
  7
STANDARD
  9
$CLAYER
  8
0
  9
$CELTYPE
  6
BYLAYER
  9
$CECOLOR
 62
   256
  9
$DIMSCALE
 40
1.0
  9
$DIMASZ
 40
0.1875
  9
$DIMEXO
 40
0.0625
  9
$DIMDLI
 40
0.4443307087
  9
$DIMRND
 40
0.0
  9
$DIMDLE
 40
0.0
  9
$DIMEXE
 40
0.125
  9
$DIMTP
 40
0.01
  9
$DIMTM
 40
0.01
  9
$DIMTXT
 40
2.0
  9
$DIMCEN
 40
0.1052362205
  9
$DIMTSZ
 40
0.0
  9
$DIMTOL
 70
     1
  9
$DIMLIM
 70
     0
  9
$DIMTIH
 70
     1
  9
$DIMTOH
 70
     1
  9
$DIMSE1
 70
     0
  9
$DIMSE2
 70
     0
  9
$DIMTAD
 70
     0
  9
$DIMZIN
 70
     0
  9
$DIMBLK
  1

  9
$DIMASO
 70
     1
  9
$DIMSHO
 70
     1
  9
$DIMPOST
  1
\X
  9
$DIMAPOST
  1

  9
$DIMALT
 70
     1
  9
$DIMALTD
 70
     2
  9
$DIMALTF
 40
25.3999999999999986
  9
$DIMLFAC
 40
1.0
  9
$DIMTOFL
 70
     0
  9
$DIMTVP
 40
0.0
  9
$DIMTIX
 70
     0
  9
$DIMSOXD
 70
     0
  9
$DIMSAH
 70
     0
  9
$DIMBLK1
  1

  9
$DIMBLK2
  1

  9
$DIMSTYLE
  2
STANDARD
  9
$DIMCLRD
 70
     0
  9
$DIMCLRE
 70
     0
  9
$DIMCLRT
 70
     0
  9
$DIMTFAC
 40
1.0
  9
$DIMGAP
 40
0.09
  9
$LUNITS
 70
     2
  9
$LUPREC
 70
     4
  9
$SKETCHINC
 40
0.1
  9
$FILLETRAD
 40
0.0
  9
$AUNITS
 70
     0
  9
$AUPREC
 70
     0
  9
$MENU
  1
.
  9
$ELEVATION
 40
0.0
  9
$PELEVATION
 40
0.0
  9
$THICKNESS
 40
0.0
  9
$LIMCHECK
 70
     0
  9
$BLIPMODE
 70
     0
  9
$CHAMFERA
 40
0.0
  9
$CHAMFERB
 40
0.0
  9
$SKPOLY
 70
     0
  9
$TDCREATE
 40
2458060.468368056230247
  9
$TDUPDATE
 40
2459166.7648726850748062
  9
$TDINDWG
 40
0.585608912
  9
$TDUSRTIMER
 40
0.585608912
  9
$USRTIMER
 70
     1
  9
$ANGBASE
 50
0.0
  9
$ANGDIR
 70
     0
  9
$PDMODE
 70
     0
  9
$PDSIZE
 40
0.3125
  9
$PLINEWID
 40
0.0
  9
$COORDS
 70
     1
  9
$SPLFRAME
 70
     0
  9
$SPLINETYPE
 70
     6
  9
$SPLINESEGS
 70
     8
  9
$ATTDIA
 70
     1
  9
$ATTREQ
 70
     1
  9
$HANDLING
 70
     1
  9
$HANDSEED
  5
1609D
  9
$SURFTAB1
 70
     6
  9
$SURFTAB2
 70
     6
  9
$SURFTYPE
 70
     6
  9
$SURFU
 70
     6
  9
$SURFV
 70
     6
  9
$UCSNAME
  2

  9
$UCSORG
 10
0.0
 20
0.0
 30
0.0
  9
$UCSXDIR
 10
1.0
 20
0.0
 30
0.0
  9
$UCSYDIR
 10
0.0
 20
1.0
 30
0.0
  9
$PUCSNAME
  2

  9
$PUCSORG
 10
0.0
 20
0.0
 30
0.0
  9
$PUCSXDIR
 10
1.0
 20
0.0
 30
0.0
  9
$PUCSYDIR
 10
0.0
 20
1.0
 30
0.0
  9
$USERI1
 70
     0
  9
$USERI2
 70
     0
  9
$USERI3
 70
     0
  9
$USERI4
 70
     0
  9
$USERI5
 70
     0
  9
$USERR1
 40
0.0
  9
$USERR2
 40
0.0
  9
$USERR3
 40
0.0
  9
$USERR4
 40
0.0
  9
$USERR5
 40
0.0
  9
$WORLDVIEW
 70
     1
  9
$SHADEDGE
 70
     3
  9
$SHADEDIF
 70
    70
  9
$TILEMODE
 70
     1
  9
$MAXACTVP
 70
    64
  9
$PLIMCHECK
 70
     0
  9
$PEXTMIN
 10
1.0000000000000000E+20
 20
1.0000000000000000E+20
 30
1.0000000000000000E+20
  9
$PEXTMAX
 10
-1.0000000000000000E+20
 20
-1.0000000000000000E+20
 30
-1.0000000000000000E+20
  9
$PLIMMIN
 10
0.0
 20
0.0
  9
$PLIMMAX
 10
12.0
 20
9.0
  9
$UNITMODE
 70
     0
  9
$VISRETAIN
 70
     1
  9
$PLINEGEN
 70
     0
  9
$PSLTSCALE
 70
     1
  0
ENDSEC
  0
SECTION
  2
TABLES
  0
TABLE
  2
VPORT
 70
     1
  0
VPORT
  2
*ACTIVE
 70
     0
 10
0.0
 20
0.0
 11
1.0
 21
1.0
 12
0.0
 22
0.0
 13
0.0
 23
0.0
 14
1.0
 24
1.0
 15
0.0
 25
0.0
 16
0.0
 26
0.0
 36
65.3737110263173378
 17
3500.3662109375
 27
167.1003848494636088
 37
0.0
 40
16.6327998865063194
 41
3.1182994454713491
 42
50.0
 43
0.0
 44
0.0
 50
0.0
 51
0.0
 71
     0
 72
   100
 73
     1
 74
     1
 75
     0
 76
     0
 77
     0
 78
     0
  0
ENDTAB
  0
TABLE
  2
LTYPE
 70
     2
  0
LTYPE
  2
CONTINUOUS
 70
     0
  3
Solid line
 72
    65
 73
     0
 40
0.0
  0
LTYPE
  2
PHANTOM2
 70
     0
  3
___ _ _ ___ _ _ ___ _ _ ___ _ _
 72
    65
 73
     6
 40
1.25
 49
0.625
 49
-0.125
 49
0.125
 49
-0.125
 49
0.125
 49
-0.125
  0
ENDTAB
  0
TABLE
  2
LAYER
 70
     2
  0
LAYER
  2
0
 70
     0
 62
   255
  6
CONTINUOUS
  0
LAYER
  2
DEFPOINTS
 70
     0
 62
     7
  6
CONTINUOUS
  0
ENDTAB
  0
TABLE
  2
STYLE
 70
     1
  0
STYLE
  2
STANDARD
 70
     0
 40
0.0
 41
0.8
 50
0.0
 71
     0
 42
0.2
  3
txt
  4

  0
ENDTAB
  0
TABLE
  2
VIEW
 70
     0
  0
ENDTAB
  0
TABLE
  2
UCS
 70
     0
  0
ENDTAB
  0
TABLE
  2
APPID
 70
     9
  0
APPID
  2
ACAD
 70
     0
  0
APPID
  2
ACAD_MLEADERVER
 70
     0
  0
APPID
  2
ACAD_EXEMPT_FROM_CAD_STANDARDS
 70
     0
  0
APPID
  2
ACAD_NAV_VCDISPLAY
 70
     0
  0
APPID
  2
ACAECLAYERSTANDARD
 70
     0
  0
APPID
  2
ACCMTRANSPARENCY
 70
     0
  0
APPID
  2
ACAD_DSTYLE_DIMJAG
 70
     0
  0
APPID
  2
ACAD_DSTYLE_DIMTALN
 70
     0
  0
APPID
  2
ACDBATTR
 70
     0
  0
ENDTAB
  0
TABLE
  2
DIMSTYLE
 70
     1
  0
DIMSTYLE
  2
STANDARD
 70
     0
  3

  4

  5

  6

  7

 40
1.0
 41
0.1875
 42
0.0625
 43
0.38
 44
0.125
 45
0.0
 46
0.0
 47
0.01
 48
0.01
140
0.15625
141
0.09
142
0.0
143
25.3999999999999986
144
1.0
145
0.0
146
1.0
147
0.09
 71
     1
 72
     0
 73
     1
 74
     1
 75
     0
 76
     0
 77
     0
 78
     4
170
     0
171
     2
172
     0
173
     0
174
     0
175
     0
176
     0
177
     0
178
     0
  0
ENDTAB
  0
ENDSEC
  0
SECTION
  2
BLOCKS
  0
BLOCK
  8
0
  2
$MODEL_SPACE
 70
     0
 10
0.0
 20
0.0
 30
0.0
  3
$MODEL_SPACE
  1

  0
ENDBLK
  5
21
  8
0
  0
BLOCK
 67
     1
  8
0
  2
$PAPER_SPACE
 70
     0
 10
0.0
 20
0.0
 30
0.0
  3
$PAPER_SPACE
  1

  0
ENDBLK
  5
1D
 67
     1
  8
0
  0
BLOCK
  8
0
  2
_FILLED
 70
     0
 10
0.0
 20
0.0
 30
0.0
  3
_FILLED
  1

  0
SOLID
  5
13356
  8
0
  6
BYBLOCK
 62
     0
 10
0.0
 20
0.0
 30
0.0
 11
-1.0
 21
0.1666666667
 31
0.0
 12
-1.0
 22
-0.1666666667
 32
0.0
 13
-1.0
 23
-0.1666666667
 33
0.0
  0
ENDBLK
  5
13357
  8
0
  6
BYBLOCK
 62
     0
  0
ENDSEC
  0
SECTION
  2
ENTITIES
  0
ATTDEF
  5
12BEB
  8
DEFPOINTS
 10
3499.7767949833919374
 20
163.4708419238619967
 30
0.0
 40
0.001
  1
K-72292T-4E2
  3

  2
MODELNUMBER
 70
     0
1001
ACDBATTR
1070
     0
1070
     1
  0
ATTDEF
  5
12BEC
  8
DEFPOINTS
 10
3499.7767949833919374
 20
163.4691752571953884
 30
0.0
 40
0.001
  1
ALEO
  3

  2
TRADENAME
 70
     0
1001
ACDBATTR
1070
     0
1070
     1
  0
ATTDEF
  5
12BED
  8
DEFPOINTS
 10
3499.7767949833919374
 20
163.4675085905286949
 30
0.0
 40
0.001
  1
BATH AND SHOWER FAUCET
  3

  2
PRODUCT
 70
     0
1001
ACDBATTR
1070
     0
1070
     1
  0
LINE
  5
1553F
  8
0
 10
3492.8868246553738572
 20
163.4723240983888957
 30
0.0
 11
3492.8868246553738572
 21
165.3227177990889061
 31
0.0
  0
LINE
  5
15540
  8
0
 10
3492.8868246553738572
 20
165.3227177990889061
 30
0.0
 11
3494.8553943654678733
 21
165.3227177990889061
 31
0.0
  0
ARC
  5
15541
  8
0
 10
3498.8156125624859669
 20
169.3264481960526098
 30
0.0
 40
0.0319893728334751
 50
90.8982769399967054
 51
171.8009099871690069
  0
LINE
  5
15542
  8
0
 10
3498.7839501691528312
 20
169.3310103033196015
 30
0.0
 11
3498.7839501691528312
 21
163.4723240982889081
 31
0.0
  0
ARC
  5
15543
  8
0
 10
3493.3584233926549132
 20
165.3169947014822867
 30
0.0
 40
0.40077031363664
 50
164.3539480415761886
 51
178.985887488442188
  0
LINE
  5
15544
  8
0
 10
3492.9577158532238172
 20
165.324087806288901
 30
0.0
 11
3492.9577158532238172
 21
165.3227177990889061
 31
0.0
  0
ARC
  5
15545
  8
0
 10
3493.8711095104208653
 20
135.4670051696508892
 30
0.0
 40
31.2967520655791809
 50
88.2321154073374885
 51
91.7678845926624831
  0
ARC
  5
15546
  8
0
 10
3492.9049508776361108
 20
166.7290422873080047
 30
0.0
 40
0.0198282589869327
 50
88.1565954843460133
 51
178.2062412422243938
  0
LINE
  5
15547
  8
0
 10
3492.8851323349717859
 20
166.7296629491393958
 30
0.0
 11
3492.8851323349717859
 21
165.4451639697182941
 31
0.0
  0
ARC
  5
15548
  8
0
 10
3492.9266781498190539
 20
165.4459320724448048
 30
0.0
 40
0.0415529146157568
 50
181.0591688096673124
 51
205.7726660651553914
  0
ARC
  5
15549
  8
0
 10
3492.8941314682970187
 20
165.4307187810503024
 30
0.0
 40
0.0056470778489326
 50
210.3572811547821004
 51
266.8930563816450103
  0
LINE
  5
1554A
  8
0
 10
3492.8938253976698434
 20
165.4250800037889064
 30
0.0
 11
3494.8483936231718872
 21
165.4250800037889064
 31
0.0
  0
ARC
  5
1554B
  8
0
 10
3507.602890234716142
 20
165.7241487803225937
 30
0.0
 40
14.7236606898656692
 50
176.875089606385103
 51
178.3775440620460131
  0
ARC
  5
1554C
  8
0
 10
3493.5904307649288967
 20
166.4891542029604921
 30
0.0
 40
0.6903341530863067
 50
166.0023032088465129
 51
176.8757158893571955
  0
ARC
  5
1554D
  8
0
 10
3492.9637072690638888
 20
166.6453871612607998
 30
0.0
 40
0.0444308495431551
 50
94.6069397671767121
 51
166.0023032088465129
  0
ARC
  5
1554E
  8
0
 10
3493.1153760410820723
 20
164.974775089480886
 30
0.0
 40
1.7219112986641281
 50
92.0774268913847322
 51
95.1724750535575765
  0
ARC
  5
1554F
  8
0
 10
3492.9695979799848828
 20
102.0501608703806937
 30
0.0
 40
64.6454475412267442
 50
89.2010018798325746
 51
89.9261184191798151
  0
ARC
  5
15550
  8
0
 10
3493.0986346245658751
 20
166.6969644470773915
 30
0.0
 40
0.0456996103590282
 50
181.7677889478896134
 51
223.0100975865647968
  0
ARC
  5
15551
  8
0
 10
3493.263925612373896
 20
166.9017889702562059
 30
0.0
 40
0.3085120832107774
 50
229.9028768099852016
 51
257.5097681155390887
  0
ARC
  5
15552
  8
0
 10
3493.838668027174208
 20
169.4191961892815073
 30
0.0
 40
2.890689112798829
 50
257.1789115941800219
 51
270.6455638829423833
  0
LINE
  5
15553
  8
0
 10
3498.8331354458459828
 20
169.1362091642986911
 30
0.0
 11
3500.7201071969971053
 21
169.1362091642986911
 31
0.0
  0
ARC
  5
15554
  8
0
 10
3498.8344970370408191
 20
169.1179557602696093
 30
0.0
 40
0.0183041167290913
 50
94.266010593324026
 51
146.7000397563959098
  0
ARC
  5
15555
  8
0
 10
3526.9983577755137958
 20
167.5022528474731871
 30
0.0
 40
28.2260181109807
 50
176.6980704053997897
 51
178.3565622515870928
  0
ARC
  5
15556
  8
0
 10
3499.5141261124717857
 20
169.3760559243353043
 30
0.0
 40
0.7119885958805258
 50
199.6862202215714035
 51
252.1832838036636133
  0
ARC
  5
15557
  8
0
 10
3499.7724669495701164
 20
169.7863856171335897
 30
0.0
 40
1.216111608964056
 50
261.3600908699733054
 51
270.1957291048231014
  0
ARC
  5
15558
  8
0
 10
3499.6492016207230336
 20
169.0183675120748035
 30
0.0
 40
0.4383396465649373
 50
246.6692131860399115
 51
262.2086637048639091
  0
ARC
  5
15559
  8
0
 10
3499.5192695527471187
 20
168.7081625177586091
 30
0.0
 40
0.1021023721506713
 50
223.042323318643497
 51
244.6793562938449043
  0
ARC
  5
1555A
  8
0
 10
3499.4970518989730408
 20
168.6951970598084927
 30
0.0
 40
0.0772249868120958
 50
209.447796462760607
 51
227.2667112119453918
  0
ARC
  5
1555B
  8
0
 10
3499.4823784904019703
 20
168.6863345212130127
 30
0.0
 40
0.0600923416172781
 50
182.0688744606844978
 51
208.9675882081313034
  0
ARC
  5
1555C
  8
0
 10
3502.6865980697298255
 20
168.7009599280657142
 30
0.0
 40
3.2643159545040179
 50
179.8669533851335132
 51
180.2947860567026908
  0
ARC
  5
1555D
  8
0
 10
3499.4514730930391124
 20
168.7066635971796984
 30
0.0
 40
0.0292424403623068
 50
131.6321802715700926
 51
176.3209793174856941
  0
ARC
  5
1555E
  8
0
 10
3499.7716646109670364
 20
167.5056172284836009
 30
0.0
 40
1.2886525439541421
 50
89.7796153113998514
 51
98.1504515584733355
  0
ARC
  5
1555F
  8
0
 10
3499.6744780941298814
 20
168.1789977040432973
 30
0.0
 40
0.608295776541333
 50
98.0809645516706041
 51
108.8229763106413941
  0
ARC
  5
15560
  8
0
 10
3499.5214648328660587
 20
168.6249348834849116
 30
0.0
 40
0.1368416330860793
 50
108.4249659427918004
 51
130.8020462785729876
  0
ARC
  5
15561
  8
0
 10
3499.7848310555109492
 20
166.6387210814469881
 30
0.0
 40
2.189240546997703
 50
90.2148618238570634
 51
94.9550579996492132
  0
ARC
  5
15562
  8
0
 10
3499.6975228530400273
 20
167.6677710090089874
 30
0.0
 40
1.1564968079170981
 50
95.0492667424903175
 51
104.3757101845604041
  0
ARC
  5
15563
  8
0
 10
3499.492785665140218
 20
168.4339482589587078
 30
0.0
 40
0.3635679763257313
 50
103.0989985646301932
 51
118.2750382539862954
  0
ARC
  5
15564
  8
0
 10
3499.3592338879630006
 20
168.6859696341603012
 30
0.0
 40
0.0783726604874245
 50
119.5667914248101056
 51
146.1291497410261968
  0
ARC
  5
15565
  8
0
 10
3499.3117201287500393
 20
168.7178624790126946
 30
0.0
 40
0.021147570996574
 50
146.1291497410275895
 51
188.6543870208705016
  0
ARC
  5
15566
  8
0
 10
3499.3417037380841066
 20
168.722426190170097
 30
0.0
 40
0.0514765058305286
 50
188.6543870208705016
 51
227.914332025423704
  0
ARC
  5
15567
  8
0
 10
3499.5046655983119308
 20
168.9403128242759919
 30
0.0
 40
0.3233786038426683
 50
232.3651877055106922
 51
259.4919229893861825
  0
ARC
  5
15568
  8
0
 10
3499.6189260969008501
 20
169.3488198566928986
 30
0.0
 40
0.7468322107537987
 50
256.5874133619823851
 51
258.9357716193918009
  0
ARC
  5
15569
  8
0
 10
3499.4043304546439686
 20
168.69064416385811
 30
0.0
 40
0.0920866883317074
 50
110.6388085080569965
 51
146.7737551451716911
  0
ARC
  5
1556A
  8
0
 10
3499.3481262460882135
 20
168.7274599475734078
 30
0.0
 40
0.0248980360908634
 50
146.7737551451716911
 51
216.7322402203485012
  0
ARC
  5
1556B
  8
0
 10
3499.4677452137129876
 20
168.8479083880291967
 30
0.0
 40
0.194415611569423
 50
224.1176703247556929
 51
258.7462327275288203
  0
ARC
  5
1556C
  8
0
 10
3499.7760904135489
 20
169.8357353210626002
 30
0.0
 40
1.260692089358934
 50
265.8329105498988838
 51
270.0241286365774727
  0
ARC
  5
1556D
  8
0
 10
3499.7482401050369845
 20
169.4534803774361933
 30
0.0
 40
0.8774239304791356
 50
255.9333643715314963
 51
265.8329106284543855
  0
ARC
  5
1556E
  8
0
 10
3499.5796620111600532
 20
168.7806849424260065
 30
0.0
 40
0.18383019412808
 50
234.5710846796812064
 51
255.9333643715314963
  0
ARC
  5
1556F
  8
0
 10
3499.4850247312929241
 20
168.6507060976109926
 30
0.0
 40
0.0231258507108578
 50
142.6152049720575974
 51
238.9508351500697927
  0
ARC
  5
15570
  8
0
 10
3499.5111953318241831
 20
168.6291259419334949
 30
0.0
 40
0.0570369482497579
 50
121.0961940744718959
 51
141.3522012881728074
  0
ARC
  5
15571
  8
0
 10
3499.6192571757428595
 20
168.4252829448188891
 30
0.0
 40
0.2876819149527858
 50
99.9716029569203357
 51
118.5567033813453008
  0
ARC
  5
15572
  8
0
 10
3499.75204028065491
 20
167.7924798058602107
 30
0.0
 40
0.9341590807371504
 50
92.6133426296154454
 51
101.2720589207099948
  0
ARC
  5
15573
  8
0
 10
3499.7760648807261532
 20
167.4711606061682119
 30
0.0
 40
1.2562743046086291
 50
89.9746220197947082
 51
93.0397268189106228
  0
ARC
  5
15574
  8
0
 10
3499.6090109692390797
 20
168.4085746070026062
 30
0.0
 40
0.3079185733781986
 50
101.2096682715002061
 51
117.9132074917645951
  0
ARC
  5
15575
  8
0
 10
3499.4888252850491881
 20
168.6354393907730866
 30
0.0
 40
0.0511848031035646
 50
117.9132074917645951
 51
151.0009783027745129
  0
ARC
  5
15576
  8
0
 10
3499.4622751057941059
 20
168.6501558028330976
 30
0.0
 40
0.0208288349521736
 50
151.0009783027745129
 51
221.1572083174646082
  0
ARC
  5
15577
  8
0
 10
3499.7679475008808367
 20
167.5324791574165033
 30
0.0
 40
1.285672956155109
 50
89.6134498459259845
 51
100.0169247153381065
  0
ARC
  5
15578
  8
0
 10
3499.5860119308158573
 20
168.4875174978060954
 30
0.0
 40
0.3138183145326711
 50
97.6347619112184191
 51
123.0991903783523043
  0
ARC
  5
15579
  8
0
 10
3499.4316026969681843
 20
168.7272949185633877
 30
0.0
 40
0.0286730472413608
 50
126.2727965752391981
 51
193.0446837474104029
  0
ARC
  5
1557A
  8
0
 10
3499.4569267423958081
 20
168.7446163339423038
 30
0.0
 40
0.0583304694855221
 50
204.0732375281608881
 51
233.5738504875733099
  0
ARC
  5
1557B
  8
0
 10
3499.549161695515977
 20
168.7630861012445109
 30
0.0
 40
0.1196783346568372
 50
230.2212477987143018
 51
245.775322122238407
  0
ARC
  5
1557C
  8
0
 10
3499.7791635931948804
 20
169.1830680942007916
 30
0.0
 40
0.5982233072538916
 50
242.1886894468478886
 51
246.0073642250353885
  0
ARC
  5
1557D
  8
0
 10
3499.7605533095838837
 20
169.122255443730694
 30
0.0
 40
0.535153471477344
 50
245.1802345789153037
 51
260.9858305285185907
  0
ARC
  5
1557E
  8
0
 10
3499.771396586604169
 20
169.1134854547372868
 30
0.0
 40
0.5283289042506463
 50
259.6753024528949823
 51
270.5666169902165166
  0
ARC
  5
1557F
  8
0
 10
3499.7766213214222262
 20
169.2230837198636948
 30
0.0
 40
0.6058229244783571
 50
258.3491611273410058
 51
281.6508388726589942
  0
ARC
  5
15580
  8
0
 10
3499.7758298417970764
 20
169.219317000612989
 30
0.0
 40
0.6019739762488153
 50
249.8250313368868092
 51
258.3505407196204828
  0
ARC
  5
15581
  8
0
 10
3499.7739358000148968
 20
169.2141621975009116
 30
0.0
 40
0.5964822197544738
 50
247.3657367265593905
 51
249.8250313368868092
  0
ARC
  5
15582
  8
0
 10
3499.5753381503909623
 20
168.6349076363181041
 30
0.0
 40
0.042223023496074
 50
126.5363961272176994
 51
137.1533912834046873
  0
LINE
  5
15583
  8
0
 10
3499.5502013783711845
 20
168.6688329425888924
 30
0.0
 11
3499.5440683077868016
 21
168.6713654614889037
 31
0.0
  0
LINE
  5
15584
  8
0
 10
3499.5440683078718394
 20
168.6713654614534903
 30
0.0
 11
3499.5342257881729893
 21
168.6694878396747015
 31
0.0
  0
LINE
  5
15585
  8
0
 10
3499.5342257881729893
 20
168.6694878396747015
 30
0.0
 11
3499.5440683077881658
 21
168.6597040655595094
 31
0.0
  0
LINE
  5
15586
  8
0
 10
3499.5440683077881658
 20
168.6597040655595094
 30
0.0
 11
3499.5634606967450964
 21
168.6520157611253126
 31
0.0
  0
LINE
  5
15587
  8
0
 10
3499.5634606967450964
 20
168.6520157611253126
 30
0.0
 11
3499.5637533472549876
 21
168.6521588714811912
 31
0.0
  0
LINE
  5
15588
  8
0
 10
3499.5637533472549876
 20
168.6521588714811912
 30
0.0
 11
3499.5667129440221288
 21
168.6548324857589876
 31
0.0
  0
LINE
  5
15589
  8
0
 10
3504.6900241584221476
 20
163.9447650430888928
 30
0.0
 11
3506.6742587536809879
 21
163.9447650430888928
 31
0.0
  0
LINE
  5
1558A
  8
0
 10
3504.6782048060208581
 20
163.4723240982889081
 30
0.0
 11
3504.6782048060208581
 21
163.9329540194889034
 31
0.0
  0
ARC
  5
1558B
  8
0
 10
3504.6900158347989418
 20
163.9329540172441
 30
0.0
 40
0.0118110287777615
 50
89.9596217672068832
 51
179.9999891104060907
  0
ARC
  5
1558C
  8
0
 10
3505.531646555568841
 20
165.0319778151097978
 30
0.0
 40
0.3434251610789576
 50
208.3059913517741961
 51
230.2032787275697956
  0
ARC
  5
1558D
  8
0
 10
3505.8630870200709069
 20
165.7071840208020035
 30
0.0
 40
1.0889115928836091
 50
239.5860221852275913
 51
255.9986692386434015
  0
LINE
  5
1558E
  8
0
 10
3505.3118318778670073
 20
164.7681173430260912
 30
0.0
 11
3505.3118318778670073
 21
164.9388801395182043
 31
0.0
  0
LINE
  5
1558F
  8
0
 10
3505.5996309234660657
 20
164.6506238747251132
 30
0.0
 11
3505.5996309234660657
 21
164.8213866711780895
 31
0.0
  0
ARC
  5
15590
  8
0
 10
3505.0177891728308168
 20
163.8073984101224028
 30
0.0
 40
1.1690645903204471
 50
60.1521463049099481
 51
75.4325451111945995
  0
ARC
  5
15591
  8
0
 10
3505.6711830257982001
 20
165.171987621182808
 30
0.0
 40
0.5720388726872333
 50
242.6154861213624088
 51
260.8242289202502207
  0
ARC
  5
15592
  8
0
 10
3505.5782078436241136
 20
164.9962680393946073
 30
0.0
 40
0.3732496471270856
 50
217.070649754328997
 51
242.8814217326302014
  0
ARC
  5
15593
  8
0
 10
3505.4859928727610168
 20
164.926600632995104
 30
0.0
 40
0.2576765171807856
 50
196.9410690256688952
 51
217.070649754328997
  0
ARC
  5
15594
  8
0
 10
3505.6899858050869625
 20
164.7701637203581129
 30
0.0
 40
0.4607016359482287
 50
169.3536468334800134
 51
179.8619932545884126
  0
ARC
  5
15595
  8
0
 10
3505.5277280946711471
 20
165.1991994470402858
 30
0.0
 40
0.3381971589168597
 50
208.0604850811319864
 51
230.3293330400759089
  0
LINE
  5
15596
  8
0
 10
3505.2292855055648033
 20
164.7712733984608064
 30
0.0
 11
3505.2292855055648033
 21
164.4172059879888934
 31
0.0
  0
LINE
  5
15597
  8
0
 10
3505.2292855055648033
 20
164.4172059879888934
 30
0.0
 11
3506.1349807592778234
 21
164.4172059879888934
 31
0.0
  0
LINE
  5
15598
  8
0
 10
3506.2293576268839388
 20
164.0628752805249064
 30
0.0
 11
3505.1349121206649215
 21
164.0628752806788953
 31
0.0
  0
ARC
  5
15599
  8
0
 10
3505.1349121206148993
 20
164.0235052020289004
 30
0.0
 40
0.039370078649988
 50
89.9999999272280888
 51
180.0000019855779954
  0
ARC
  5
1559A
  8
0
 10
-604760.6068015220807865
 20
163.984234800524689
 30
0.0
 40
608265.7023435652954504
 50
359.9999962821336794
 51
0.0000036990870758
  0
ARC
  5
1559B
  8
0
 10
3505.6368037549977998
 20
165.4003742791798004
 30
0.0
 40
0.5167465537622872
 50
216.5274773208718102
 51
263.780381528493308
  0
ARC
  5
1559C
  8
0
 10
3505.5506358917868965
 20
165.2882670445964948
 30
0.0
 40
0.382748892934877
 50
191.4673679194791021
 51
210.7095455783612863
  0
ARC
  5
1559D
  8
0
 10
3505.4871261578591657
 20
165.1742397098105926
 30
0.0
 40
0.2580979438293223
 50
211.5034905245508128
 51
228.8306345131275918
  0
ARC
  5
1559E
  8
0
 10
3505.6547141241308054
 20
165.3630335470087118
 30
0.0
 40
0.5105401426194383
 50
228.6203064758637993
 51
260.0913065395793069
  0
LINE
  5
1559F
  8
0
 10
3505.2292855055648033
 20
164.8691323770324004
 30
0.0
 11
3505.2292855055648033
 21
165.0826387331615877
 31
0.0
  0
LINE
  5
155A0
  8
0
 10
3499.7569365853719319
 20
168.699256051684813
 30
0.0
 11
3499.7667791050721462
 21
168.7101634808888946
 31
0.0
  0
LINE
  5
155A1
  8
0
 10
3499.7667791050721462
 20
168.7101634808888946
 30
0.0
 11
3499.7864641444721201
 21
168.7101634807887081
 31
0.0
  0
LINE
  5
155A2
  8
0
 10
3499.7864641445398775
 20
168.6884342903483116
 30
0.0
 11
3499.7667791050721462
 21
168.6884342902889102
 31
0.0
  0
LINE
  5
155A3
  8
0
 10
3499.7667791050721462
 20
168.6884342902889102
 30
0.0
 11
3499.7569365853810268
 21
168.6992560516981996
 31
0.0
  0
LINE
  5
155A4
  8
0
 10
3499.7667791050721462
 20
168.7101634808888946
 30
0.0
 11
3499.7667791050721462
 21
168.6884342902889102
 31
0.0
  0
LINE
  5
155A5
  8
0
 10
3499.7569365853669296
 20
168.6668633205212018
 30
0.0
 11
3499.7667791052649591
 21
168.6758901495699092
 31
0.0
  0
LINE
  5
155A6
  8
0
 10
3499.7667791052649591
 20
168.6758901495699092
 30
0.0
 11
3499.7864641444562039
 21
168.6758901495065004
 31
0.0
  0
LINE
  5
155A7
  8
0
 10
3499.7864641447331451
 20
168.6578824813483095
 30
0.0
 11
3499.7667791052649591
 21
168.6578824812889081
 31
0.0
  0
LINE
  5
155A8
  8
0
 10
3499.7667791052649591
 20
168.6578824812889081
 30
0.0
 11
3499.7569365853760246
 21
168.6668633205345884
 31
0.0
  0
LINE
  5
155A9
  8
0
 10
3499.7667791052649591
 20
168.6758901495699092
 30
0.0
 11
3499.7667791052649591
 21
168.6578824812889081
 31
0.0
  0
LINE
  5
155AA
  8
0
 10
3499.7569365853560157
 20
168.6402668628572883
 30
0.0
 11
3499.7667791054300324
 21
168.6475779875891874
 31
0.0
  0
LINE
  5
155AB
  8
0
 10
3499.7667791054300324
 20
168.6475779875891874
 30
0.0
 11
3499.7864641448300063
 21
168.6475779870253859
 31
0.0
  0
LINE
  5
155AC
  8
0
 10
3499.7864641448991279
 20
168.6329779758482914
 30
0.0
 11
3499.7667791054300324
 21
168.63297797578889
 31
0.0
  0
LINE
  5
155AD
  8
0
 10
3499.7667791054300324
 20
168.63297797578889
 30
0.0
 11
3499.7569365853669296
 21
168.6402668628707033
 31
0.0
  0
LINE
  5
155AE
  8
0
 10
3499.7667791054300324
 20
168.6475779875891874
 30
0.0
 11
3499.7667791054300324
 21
168.63297797578889
 31
0.0
  0
LINE
  5
155AF
  8
0
 10
3499.7290977357488373
 20
168.6839332350187135
 30
0.0
 11
3499.7389402554140361
 21
168.6934087466634082
 31
0.0
  0
LINE
  5
155B0
  8
0
 10
3499.7389402554140361
 20
168.6934087466634082
 30
0.0
 11
3499.7586252949699883
 21
168.6924427116398135
 31
0.0
  0
LINE
  5
155B1
  8
0
 10
3499.7586252949699883
 20
168.6924427116398135
 30
0.0
 11
3499.7684678144960344
 21
168.6820220062319038
 31
0.0
  0
LINE
  5
155B2
  8
0
 10
3499.7684678144960344
 20
168.6820220062319038
 30
0.0
 11
3499.758625294804915
 21
168.6726176514324038
 31
0.0
  0
LINE
  5
155B3
  8
0
 10
3499.758625294804915
 20
168.6726176514324038
 30
0.0
 11
3499.7389740484759386
 21
168.673560975384504
 31
0.0
  0
LINE
  5
155B4
  8
0
 10
3499.7389740484759386
 20
168.673560975384504
 30
0.0
 11
3499.7290977357588417
 21
168.6839332350321001
 31
0.0
  0
LINE
  5
155B5
  8
0
 10
3499.7389402554140361
 20
168.6934087466634082
 30
0.0
 11
3499.7389740484759386
 21
168.673560975384504
 31
0.0
  0
LINE
  5
155B6
  8
0
 10
3499.7586252947371577
 20
168.6726176513573989
 30
0.0
 11
3499.7586252949699883
 21
168.6924427116398135
 31
0.0
  0
LINE
  5
155B7
  8
0
 10
3499.7012588861261975
 20
168.7039741825076931
 30
0.0
 11
3499.7111014057709326
 21
168.7139497560746122
 31
0.0
  0
LINE
  5
155B8
  8
0
 10
3499.7111014057709326
 20
168.7139497560746122
 30
0.0
 11
3499.730786445171816
 21
168.7119683489889042
 31
0.0
  0
LINE
  5
155B9
  8
0
 10
3499.730786445171816
 20
168.7119683489889042
 30
0.0
 11
3499.7406289648179154
 21
168.7000625674243111
 31
0.0
  0
LINE
  5
155BA
  8
0
 10
3499.7406289648179154
 20
168.7000625674243111
 30
0.0
 11
3499.7307492106801874
 21
168.6901967060169056
 31
0.0
  0
LINE
  5
155BB
  8
0
 10
3499.7307492106801874
 20
168.6901967060169056
 30
0.0
 11
3499.7111344132458726
 21
168.6921210425429933
 31
0.0
  0
LINE
  5
155BC
  8
0
 10
3499.7111344132458726
 20
168.6921210425429933
 30
0.0
 11
3499.7012588861362019
 21
168.7039741825211081
 31
0.0
  0
LINE
  5
155BD
  8
0
 10
3499.7111014057709326
 20
168.7139497560746122
 30
0.0
 11
3499.7111344132458726
 21
168.6921210425429933
 31
0.0
  0
LINE
  5
155BE
  8
0
 10
3499.7307492106119753
 20
168.6901967059419007
 30
0.0
 11
3499.730786445171816
 21
168.7119683489889042
 31
0.0
  0
LINE
  5
155BF
  8
0
 10
3499.7012588860848155
 20
168.6714175246835907
 30
0.0
 11
3499.7108534046337809
 21
168.6793174851038088
 31
0.0
  0
LINE
  5
155C0
  8
0
 10
3499.7108534046337809
 20
168.6793174851038088
 30
0.0
 11
3499.7307864453209731
 21
168.6776258183199957
 31
0.0
  0
LINE
  5
155C1
  8
0
 10
3499.7307864453209731
 20
168.6776258183199957
 30
0.0
 11
3499.7406289648538404
 21
168.6676420110547099
 31
0.0
  0
LINE
  5
155C2
  8
0
 10
3499.7406289648538404
 20
168.6676420110547099
 30
0.0
 11
3499.7307864450658599
 21
168.6595848623279892
 31
0.0
  0
LINE
  5
155C3
  8
0
 10
3499.7307864450658599
 20
168.6595848623279892
 30
0.0
 11
3499.7113854156541493
 21
168.6614241472809965
 31
0.0
  0
LINE
  5
155C4
  8
0
 10
3499.7113854156541493
 20
168.6614241472809965
 30
0.0
 11
3499.7012588860948199
 21
168.671417524697091
 31
0.0
  0
LINE
  5
155C5
  8
0
 10
3499.7108534046337809
 20
168.6793174851038088
 30
0.0
 11
3499.7113854156541493
 21
168.6614241472809965
 31
0.0
  0
LINE
  5
155C6
  8
0
 10
3499.7307864449981025
 20
168.6595848622530127
 30
0.0
 11
3499.7307864453209731
 21
168.6776258183199957
 31
0.0
  0
LINE
  5
155C7
  8
0
 10
3499.6734200363907803
 20
168.6913137451807927
 30
0.0
 11
3499.6832625560418819
 21
168.6998846190147106
 31
0.0
  0
LINE
  5
155C8
  8
0
 10
3499.6832625560418819
 20
168.6998846190147106
 30
0.0
 11
3499.7029475955100679
 21
168.696956387191392
 31
0.0
  0
LINE
  5
155C9
  8
0
 10
3499.7029475955100679
 20
168.696956387191392
 30
0.0
 11
3499.7127901151848164
 21
168.6855216971013078
 31
0.0
  0
LINE
  5
155CA
  8
0
 10
3499.7127901151848164
 20
168.6855216971013078
 30
0.0
 11
3499.7029475954709596
 21
168.6770348602888987
 31
0.0
  0
LINE
  5
155CB
  8
0
 10
3499.7029475954709596
 20
168.6770348602888987
 30
0.0
 11
3499.683262556119189
 21
168.6798996546523028
 31
0.0
  0
LINE
  5
155CC
  8
0
 10
3499.683262556119189
 20
168.6798996546523028
 30
0.0
 11
3499.6734200364007847
 21
168.691313745194293
 31
0.0
  0
LINE
  5
155CD
  8
0
 10
3499.6832625560418819
 20
168.6998846190147106
 30
0.0
 11
3499.683262556119189
 21
168.6798996546523028
 31
0.0
  0
LINE
  5
155CE
  8
0
 10
3499.7029475954032023
 20
168.6770348602138938
 30
0.0
 11
3499.7029475955100679
 21
168.696956387191392
 31
0.0
  0
LINE
  5
155CF
  8
0
 10
3499.6734200364298886
 20
168.6616200418129097
 30
0.0
 11
3499.683262556110094
 21
168.6684163479054916
 31
0.0
  0
LINE
  5
155D0
  8
0
 10
3499.683262556110094
 20
168.6684163479054916
 30
0.0
 11
3499.702947595670139
 21
168.6655842922282886
 31
0.0
  0
LINE
  5
155D1
  8
0
 10
3499.702947595670139
 20
168.6655842922282886
 30
0.0
 11
3499.7127901152080085
 21
168.6559977704845039
 31
0.0
  0
LINE
  5
155D2
  8
0
 10
3499.7127901152080085
 20
168.6559977704845039
 30
0.0
 11
3499.7029475954709596
 21
168.6492413218888942
 31
0.0
  0
LINE
  5
155D3
  8
0
 10
3499.7029475954709596
 20
168.6492413218888942
 30
0.0
 11
3499.6832887026748722
 21
168.6520277873881071
 31
0.0
  0
LINE
  5
155D4
  8
0
 10
3499.6832887026748722
 20
168.6520277873881071
 30
0.0
 11
3499.6734200364389835
 21
168.6616200418262963
 31
0.0
  0
LINE
  5
155D5
  8
0
 10
3499.683262556110094
 20
168.6684163479054916
 30
0.0
 11
3499.6832887026748722
 21
168.6520277873881071
 31
0.0
  0
LINE
  5
155D6
  8
0
 10
3499.7029475954032023
 20
168.6492413218138893
 30
0.0
 11
3499.702947595670139
 21
168.6655842922282886
 31
0.0
  0
LINE
  5
155D7
  8
0
 10
3499.7290977357520205
 20
168.6545102045363933
 30
0.0
 11
3499.7389433781618209
 21
168.662151625138506
 31
0.0
  0
LINE
  5
155D8
  8
0
 10
3499.7389433781618209
 20
168.662151625138506
 30
0.0
 11
3499.7585698733228128
 21
168.661218604013186
 31
0.0
  0
LINE
  5
155D9
  8
0
 10
3499.7585698733228128
 20
168.661218604013186
 30
0.0
 11
3499.7684678144978534
 21
168.652598975749612
 31
0.0
  0
LINE
  5
155DA
  8
0
 10
3499.7684678144978534
 20
168.652598975749612
 30
0.0
 11
3499.7586252948649417
 21
168.6449370168184032
 31
0.0
  0
LINE
  5
155DB
  8
0
 10
3499.7586252948649417
 20
168.6449370168184032
 30
0.0
 11
3499.7389711223390805
 21
168.6458565624811001
 31
0.0
  0
LINE
  5
155DC
  8
0
 10
3499.7389711223390805
 20
168.6458565624811001
 30
0.0
 11
3499.729097735762025
 21
168.6545102045498936
 31
0.0
  0
LINE
  5
155DD
  8
0
 10
3499.7389433781618209
 20
168.662151625138506
 30
0.0
 11
3499.7389711223390805
 21
168.6458565624811001
 31
0.0
  0
LINE
  5
155DE
  8
0
 10
3499.7586252947971843
 20
168.6449370167433983
 30
0.0
 11
3499.7585698733228128
 21
168.661218604013186
 31
0.0
  0
LINE
  5
155DF
  8
0
 10
3499.7012588861230142
 20
168.6447139123660861
 30
0.0
 11
3499.7111014057709326
 21
168.6511213227888959
 31
0.0
  0
LINE
  5
155E0
  8
0
 10
3499.7111014057709326
 20
168.6511213227888959
 30
0.0
 11
3499.730786445171816
 21
168.6492674476889135
 31
0.0
  0
LINE
  5
155E1
  8
0
 10
3499.730786445171816
 20
168.6492674476889135
 30
0.0
 11
3499.7406289648379243
 21
168.6410273535732074
 31
0.0
  0
LINE
  5
155E2
  8
0
 10
3499.7406289648379243
 20
168.6410273535732074
 30
0.0
 11
3499.7307864452409376
 21
168.6346441135210057
 31
0.0
  0
LINE
  5
155E3
  8
0
 10
3499.7307864452409376
 20
168.6346441135210057
 30
0.0
 11
3499.7111285455848702
 21
168.6364739841824871
 31
0.0
  0
LINE
  5
155E4
  8
0
 10
3499.7111285455848702
 20
168.6364739841824871
 30
0.0
 11
3499.7012588861321092
 21
168.6447139123795012
 31
0.0
  0
LINE
  5
155E5
  8
0
 10
3499.7111014057709326
 20
168.6511213227888959
 30
0.0
 11
3499.7111285455848702
 21
168.6364739841824871
 31
0.0
  0
LINE
  5
155E6
  8
0
 10
3499.7307864451731803
 20
168.6346441134460008
 30
0.0
 11
3499.730786445171816
 21
168.6492674476889135
 31
0.0
  0
LINE
  5
155E7
  8
0
 10
3499.5899034874678364
 20
168.697250203176992
 30
0.0
 11
3499.5997460071380374
 21
168.7035626798707995
 31
0.0
  0
LINE
  5
155E8
  8
0
 10
3499.5997460071380374
 20
168.7035626798707995
 30
0.0
 11
3499.6194310465921262
 21
168.6976059347774139
 31
0.0
  0
LINE
  5
155E9
  8
0
 10
3499.6194310465921262
 20
168.6976059347774139
 30
0.0
 11
3499.6292735661950246
 21
168.6854526863249077
 31
0.0
  0
LINE
  5
155EA
  8
0
 10
3499.6292735661950246
 20
168.6854526863249077
 30
0.0
 11
3499.6194310464998125
 21
168.6791976450587924
 31
0.0
  0
LINE
  5
155EB
  8
0
 10
3499.6194310464998125
 20
168.6791976450587924
 30
0.0
 11
3499.5997460071707792
 21
168.6850395349889027
 31
0.0
  0
LINE
  5
155EC
  8
0
 10
3499.5997460071707792
 20
168.6850395349889027
 30
0.0
 11
3499.5899034874778408
 21
168.6972502031904924
 31
0.0
  0
LINE
  5
155ED
  8
0
 10
3499.5997460071380374
 20
168.7035626798707995
 30
0.0
 11
3499.5997460071707792
 21
168.6850395349889027
 31
0.0
  0
LINE
  5
155EE
  8
0
 10
3499.6194310464320552
 20
168.6791976449837875
 30
0.0
 11
3499.6194310465921262
 21
168.6976059347774139
 31
0.0
  0
LINE
  5
155EF
  8
0
 10
3499.5342257881839032
 20
168.6914504642165014
 30
0.0
 11
3499.5440683078641086
 21
168.6950341331373977
 31
0.0
  0
LINE
  5
155F0
  8
0
 10
3499.5440683078641086
 20
168.6950341331373977
 30
0.0
 11
3499.5635275584299961
 21
168.6871185814962075
 31
0.0
  0
LINE
  5
155F1
  8
0
 10
3499.5635275584299961
 20
168.6871185814962075
 30
0.0
 11
3499.5735958668469721
 21
168.6755502096216901
 31
0.0
  0
LINE
  5
155F2
  8
0
 10
3499.5735958668469721
 20
168.6755502096216901
 30
0.0
 11
3499.5637533471071947
 21
168.6719507737396953
 31
0.0
  0
LINE
  5
155F3
  8
0
 10
3499.5637533471071947
 20
168.6719507737396953
 30
0.0
 11
3499.5440683078718394
 21
168.6798480158888935
 31
0.0
  0
LINE
  5
155F4
  8
0
 10
3499.5440683078718394
 20
168.6798480158888935
 30
0.0
 11
3499.5342257881939076
 21
168.6914504642300017
 31
0.0
  0
LINE
  5
155F5
  8
0
 10
3499.5440683078641086
 20
168.6950341331373977
 30
0.0
 11
3499.5440683078718394
 21
168.6798480158888935
 31
0.0
  0
LINE
  5
155F6
  8
0
 10
3499.5637533470389826
 20
168.6719507736646904
 30
0.0
 11
3499.5635275584299961
 21
168.6871185814962075
 31
0.0
  0
LINE
  5
155F7
  8
0
 10
3499.5620646378019956
 20
168.6929214128657009
 30
0.0
 11
3499.5719071574990267
 21
168.6978755447975971
 31
0.0
  0
LINE
  5
155F8
  8
0
 10
3499.5719071574990267
 20
168.6978755447975971
 30
0.0
 11
3499.5916154056808409
 21
168.6908898983319034
 31
0.0
  0
LINE
  5
155F9
  8
0
 10
3499.5916154056808409
 20
168.6908898983319034
 30
0.0
 11
3499.6014347165860272
 21
168.6791207098071084
 31
0.0
  0
LINE
  5
155FA
  8
0
 10
3499.6014347165860272
 20
168.6791207098071084
 30
0.0
 11
3499.5915921968507973
 21
168.6741894398516877
 31
0.0
  0
LINE
  5
155FB
  8
0
 10
3499.5915921968507973
 20
168.6741894398516877
 30
0.0
 11
3499.572211713534216
 21
168.6809218851512071
 31
0.0
  0
LINE
  5
155FC
  8
0
 10
3499.572211713534216
 20
168.6809218851512071
 30
0.0
 11
3499.5620646378110905
 21
168.6929214128792012
 31
0.0
  0
LINE
  5
155FD
  8
0
 10
3499.5719071574990267
 20
168.6978755447975971
 30
0.0
 11
3499.572211713534216
 21
168.6809218851512071
 31
0.0
  0
LINE
  5
155FE
  8
0
 10
3499.59159219678304
 20
168.6741894397767112
 30
0.0
 11
3499.5916154056808409
 21
168.6908898983319034
 31
0.0
  0
LINE
  5
155FF
  8
0
 10
3499.5899034874951212
 20
168.6699045207180063
 30
0.0
 11
3499.5997460072408103
 21
168.6744783717772975
 31
0.0
  0
LINE
  5
15600
  8
0
 10
3499.5997460072408103
 20
168.6744783717772975
 30
0.0
 11
3499.619431046507998
 21
168.6686944516393964
 31
0.0
  0
LINE
  5
15601
  8
0
 10
3499.619431046507998
 20
168.6686944516393964
 30
0.0
 11
3499.6292735662232189
 21
168.6584076981316969
 31
0.0
  0
LINE
  5
15602
  8
0
 10
3499.6292735662232189
 20
168.6584076981316969
 30
0.0
 11
3499.6194310465712078
 21
168.6539101670688012
 31
0.0
  0
LINE
  5
15603
  8
0
 10
3499.6194310465712078
 20
168.6539101670688012
 30
0.0
 11
3499.5997460071707792
 21
168.6595567744888911
 31
0.0
  0
LINE
  5
15604
  8
0
 10
3499.5997460071707792
 20
168.6595567744888911
 30
0.0
 11
3499.5899034875051257
 21
168.6699045207315066
 31
0.0
  0
LINE
  5
15605
  8
0
 10
3499.5997460072408103
 20
168.6744783717772975
 30
0.0
 11
3499.5997460071707792
 21
168.6595567744888911
 31
0.0
  0
LINE
  5
15606
  8
0
 10
3499.6194310465029957
 20
168.6539101669937963
 30
0.0
 11
3499.619431046507998
 21
168.6686944516393964
 31
0.0
  0
LINE
  5
15607
  8
0
 10
3499.6177423371100303
 20
168.6743065168234068
 30
0.0
 11
3499.6275848568720903
 21
168.6801982376468914
 31
0.0
  0
LINE
  5
15608
  8
0
 10
3499.6275848568720903
 20
168.6801982376468914
 30
0.0
 11
3499.6472698961711103
 21
168.6753830777545033
 31
0.0
  0
LINE
  5
15609
  8
0
 10
3499.6472698961711103
 20
168.6753830777545033
 30
0.0
 11
3499.657112415849042
 21
168.6647500133576045
 31
0.0
  0
LINE
  5
1560A
  8
0
 10
3499.657112415849042
 20
168.6647500133576045
 30
0.0
 11
3499.6472698962988943
 21
168.6588949231093864
 31
0.0
  0
LINE
  5
1560B
  8
0
 10
3499.6472698962988943
 20
168.6588949231093864
 30
0.0
 11
3499.6275848567038338
 21
168.6636368282929084
 31
0.0
  0
LINE
  5
1560C
  8
0
 10
3499.6275848567038338
 20
168.6636368282929084
 30
0.0
 11
3499.6177423371200348
 21
168.6743065168369071
 31
0.0
  0
LINE
  5
1560D
  8
0
 10
3499.6275848568720903
 20
168.6801982376468914
 30
0.0
 11
3499.6275848567038338
 21
168.6636368282929084
 31
0.0
  0
LINE
  5
1560E
  8
0
 10
3499.647269896231137
 20
168.6588949230344099
 30
0.0
 11
3499.6472698961711103
 21
168.6753830777545033
 31
0.0
  0
LINE
  5
1560F
  8
0
 10
3499.6455811868281671
 20
168.6814408713347007
 30
0.0
 11
3499.6554237064710833
 21
168.6886580207327029
 31
0.0
  0
LINE
  5
15610
  8
0
 10
3499.6554237064710833
 20
168.6886580207327029
 30
0.0
 11
3499.6751087458710572
 21
168.6847900196173953
 31
0.0
  0
LINE
  5
15611
  8
0
 10
3499.6751087458710572
 20
168.6847900196173953
 30
0.0
 11
3499.6849512654957834
 21
168.6737765655925045
 31
0.0
  0
LINE
  5
15612
  8
0
 10
3499.6849512654957834
 20
168.6737765655925045
 30
0.0
 11
3499.6751087458710572
 21
168.6666204165888985
 31
0.0
  0
LINE
  5
15613
  8
0
 10
3499.6751087458710572
 20
168.6666204165888985
 30
0.0
 11
3499.655423706478814
 21
168.6704175581791105
 31
0.0
  0
LINE
  5
15614
  8
0
 10
3499.655423706478814
 20
168.6704175581791105
 30
0.0
 11
3499.6455811868381716
 21
168.6814408713480873
 31
0.0
  0
LINE
  5
15615
  8
0
 10
3499.6554237064710833
 20
168.6886580207327029
 30
0.0
 11
3499.655423706478814
 21
168.6704175581791105
 31
0.0
  0
LINE
  5
15616
  8
0
 10
3499.6751087458028451
 20
168.6666204165138936
 30
0.0
 11
3499.6751087458710572
 21
168.6847900196173953
 31
0.0
  0
LINE
  5
15617
  8
0
 10
3499.6455811867508601
 20
168.6544952246910043
 30
0.0
 11
3499.6554237064938206
 21
168.659999172481804
 31
0.0
  0
LINE
  5
15618
  8
0
 10
3499.6554237064938206
 20
168.659999172481804
 30
0.0
 11
3499.6751087458710572
 21
168.6562378739893973
 31
0.0
  0
LINE
  5
15619
  8
0
 10
3499.6751087458710572
 20
168.6562378739893973
 30
0.0
 11
3499.6849512654712271
 21
168.6470167656001991
 31
0.0
  0
LINE
  5
1561A
  8
0
 10
3499.6849512654712271
 20
168.6470167656001991
 30
0.0
 11
3499.6747940162140367
 21
168.6415888459528105
 31
0.0
  0
LINE
  5
1561B
  8
0
 10
3499.6747940162140367
 20
168.6415888459528105
 30
0.0
 11
3499.6554237064588051
 21
168.6452521772193052
 31
0.0
  0
LINE
  5
1561C
  8
0
 10
3499.6554237064588051
 20
168.6452521772193052
 30
0.0
 11
3499.6455811867608645
 21
168.6544952247043909
 31
0.0
  0
LINE
  5
1561D
  8
0
 10
3499.6554237064938206
 20
168.659999172481804
 30
0.0
 11
3499.6554237064588051
 21
168.6452521772193052
 31
0.0
  0
LINE
  5
1561E
  8
0
 10
3499.6747940161458246
 20
168.6415888458778056
 30
0.0
 11
3499.6751087458710572
 21
168.6562378739893973
 31
0.0
  0
LINE
  5
1561F
  8
0
 10
3499.6455811868231649
 20
168.714368706658405
 30
0.0
 11
3499.6555790234319829
 21
168.7215833248311867
 31
0.0
  0
LINE
  5
15620
  8
0
 10
3499.6555790234319829
 20
168.7215833248311867
 30
0.0
 11
3499.6751087458637812
 21
168.7194232198762904
 31
0.0
  0
LINE
  5
15621
  8
0
 10
3499.6751087458637812
 20
168.7194232198762904
 30
0.0
 11
3499.6849512655749095
 21
168.7064192784050078
 31
0.0
  0
LINE
  5
15622
  8
0
 10
3499.6849512655749095
 20
168.7064192784050078
 30
0.0
 11
3499.6751087458151233
 21
168.6974575728860941
 31
0.0
  0
LINE
  5
15623
  8
0
 10
3499.6751087458151233
 20
168.6974575728860941
 30
0.0
 11
3499.6554237064710833
 21
168.7013805264888902
 31
0.0
  0
LINE
  5
15624
  8
0
 10
3499.6554237064710833
 20
168.7013805264888902
 30
0.0
 11
3499.6455811868318051
 21
168.7143687066719053
 31
0.0
  0
LINE
  5
15625
  8
0
 10
3499.6555790234319829
 20
168.7215833248311867
 30
0.0
 11
3499.6554237064710833
 21
168.7013805264888902
 31
0.0
  0
LINE
  5
15626
  8
0
 10
3499.6751087457469112
 20
168.6974575728110892
 30
0.0
 11
3499.6751087458637812
 21
168.7194232198762904
 31
0.0
  0
LINE
  5
15627
  8
0
 10
3499.6177423370868382
 20
168.7043970476235017
 30
0.0
 11
3499.6275848568589026
 21
168.7120781680008861
 31
0.0
  0
LINE
  5
15628
  8
0
 10
3499.6275848568589026
 20
168.7120781680008861
 30
0.0
 11
3499.6472698961711103
 21
168.7070924725194061
 31
0.0
  0
LINE
  5
15629
  8
0
 10
3499.6472698961711103
 20
168.7070924725194061
 30
0.0
 11
3499.6571124158408566
 21
168.6945398221824917
 31
0.0
  0
LINE
  5
1562A
  8
0
 10
3499.6571124158408566
 20
168.6945398221824917
 30
0.0
 11
3499.6472698961711103
 21
168.6869484127886096
 31
0.0
  0
LINE
  5
1562B
  8
0
 10
3499.6472698961711103
 20
168.6869484127886096
 30
0.0
 11
3499.6275848568720903
 21
168.6918215428154042
 31
0.0
  0
LINE
  5
1562C
  8
0
 10
3499.6275848568720903
 20
168.6918215428154042
 30
0.0
 11
3499.6177423370968427
 21
168.7043970476368884
 31
0.0
  0
LINE
  5
1562D
  8
0
 10
3499.6275848568589026
 20
168.7120781680008861
 30
0.0
 11
3499.6275848568720903
 21
168.6918215428154042
 31
0.0
  0
LINE
  5
1562E
  8
0
 10
3499.6472698961028982
 20
168.6869484127136047
 30
0.0
 11
3499.6472698961711103
 21
168.7070924725194061
 31
0.0
  0
LINE
  5
1562F
  8
0
 10
3499.7606682727409861
 20
168.7273127201725913
 30
0.0
 11
3499.7684678144642021
 21
168.7175253527236976
 31
0.0
  0
LINE
  5
15630
  8
0
 10
3499.7684678144642021
 20
168.7175253527236976
 30
0.0
 11
3499.7586252947698995
 21
168.7061974820888963
 31
0.0
  0
LINE
  5
15631
  8
0
 10
3499.7586252947698995
 20
168.7061974820888963
 30
0.0
 11
3499.7389402554908884
 21
168.7071792177956979
 31
0.0
  0
LINE
  5
15632
  8
0
 10
3499.7389402554908884
 20
168.7071792177956979
 30
0.0
 11
3499.7290977357661177
 21
168.7195180555843876
 31
0.0
  0
LINE
  5
15633
  8
0
 10
3499.7290977357661177
 20
168.7195180555843876
 30
0.0
 11
3499.7354168778301755
 21
168.7267800602969032
 31
0.0
  0
LINE
  5
15634
  8
0
 10
3499.7389405532380806
 20
168.7268862580239102
 30
0.0
 11
3499.7389402554081244
 21
168.707179217801297
 31
0.0
  0
LINE
  5
15635
  8
0
 10
3499.7586252947799039
 20
168.7061974819999932
 30
0.0
 11
3499.7586252947799039
 21
168.7273138568752984
 31
0.0
  0
LINE
  5
15636
  8
0
 10
3499.7650667263501418
 20
168.727386767741109
 30
0.0
 11
3499.7667791048988875
 21
168.725200154902808
 31
0.0
  0
LINE
  5
15637
  8
0
 10
3499.7667791048988875
 20
168.725200154902808
 30
0.0
 11
3499.7766216283089307
 21
168.7252001548459077
 31
0.0
  0
LINE
  5
15638
  8
0
 10
3499.7667791050721462
 20
168.7252001546829945
 30
0.0
 11
3499.7667791050721462
 21
168.7274005923135007
 31
0.0
  0
LINE
  5
15639
  8
0
 10
3499.7094467182009794
 20
168.7256673414397881
 30
0.0
 11
3499.7127901151329752
 21
168.7211747021613917
 31
0.0
  0
LINE
  5
1563A
  8
0
 10
3499.7127901151329752
 20
168.7211747021613917
 30
0.0
 11
3499.7029475954259397
 21
168.7107850205501052
 31
0.0
  0
LINE
  5
1563B
  8
0
 10
3499.7029475954259397
 20
168.7107850205501052
 30
0.0
 11
3499.6832625560809902
 21
168.7137618642265977
 31
0.0
  0
LINE
  5
1563C
  8
0
 10
3499.6832625560809902
 20
168.7137618642265977
 30
0.0
 11
3499.6760483482221389
 21
168.7235428619034963
 31
0.0
  0
LINE
  5
1563D
  8
0
 10
3499.6832507868371067
 20
168.7241026875369982
 30
0.0
 11
3499.6832625561710302
 21
168.7137618642888981
 31
0.0
  0
LINE
  5
1563E
  8
0
 10
3499.7029400413362055
 20
168.7253476178370022
 30
0.0
 11
3499.7029475954259397
 21
168.7107850205501052
 31
0.0
  0
LINE
  5
1563F
  8
0
 10
3499.6292735662232189
 20
168.7185332395812054
 30
0.0
 11
3499.6194310465712078
 21
168.7104587486304865
 31
0.0
  0
LINE
  5
15640
  8
0
 10
3499.6194310465712078
 20
168.7104587486304865
 30
0.0
 11
3499.6046226675262005
 21
168.7149337263693951
 31
0.0
  0
LINE
  5
15641
  8
0
 10
3499.6194310464820774
 20
168.7104587485613081
 30
0.0
 11
3499.6194310464820774
 21
168.7171786644817075
 31
0.0
  0
LINE
  5
15642
  8
0
 10
3499.5981527091289536
 20
168.713876464988914
 30
0.0
 11
3499.6014347165569234
 21
168.7093670388169926
 31
0.0
  0
LINE
  5
15643
  8
0
 10
3499.6014347165569234
 20
168.7093670388169926
 30
0.0
 11
3499.5915921968708062
 21
168.7026749559136078
 31
0.0
  0
LINE
  5
15644
  8
0
 10
3499.5915921968708062
 20
168.7026749559136078
 30
0.0
 11
3499.5729783525562198
 21
168.7093167673909875
 31
0.0
  0
LINE
  5
15645
  8
0
 10
3499.5915921968708062
 20
168.7026749558889094
 30
0.0
 11
3499.5915921968708062
 21
168.7127567209969925
 31
0.0
  0
LINE
  5
15646
  8
0
 10
3499.5694421569178303
 20
168.7086190492786102
 30
0.0
 11
3499.5735958668901731
 21
168.7030485504583055
 31
0.0
  0
LINE
  5
15647
  8
0
 10
3499.5735958668901731
 20
168.7030485504583055
 30
0.0
 11
3499.5637533471958704
 21
168.6977229565189873
 31
0.0
  0
LINE
  5
15648
  8
0
 10
3499.5637533471958704
 20
168.6977229565189873
 30
0.0
 11
3499.5481750507619836
 21
168.7040448785527929
 31
0.0
  0
LINE
  5
15649
  8
0
 10
3499.5637533472709038
 20
168.6977229564886898
 30
0.0
 11
3499.5637533472709038
 21
168.7075597756355876
 31
0.0
  0
LINE
  5
1564A
  8
0
 10
3499.5432892065277883
 20
168.7027532168199002
 30
0.0
 11
3499.5457570172161468
 21
168.6995847512463911
 31
0.0
  0
LINE
  5
1564B
  8
0
 10
3499.5457570172161468
 20
168.6995847512463911
 30
0.0
 11
3499.5359144975650452
 21
168.695632467414498
 31
0.0
  0
LINE
  5
1564C
  8
0
 10
3499.5359144975650452
 20
168.695632467414498
 30
0.0
 11
3499.5294049916519725
 21
168.6985730273412969
 31
0.0
  0
LINE
  5
1564D
  8
0
 10
3499.5359144975709569
 20
168.695632467411599
 30
0.0
 11
3499.5359144975709569
 21
168.7006279687182086
 31
0.0
  0
LINE
  5
1564E
  8
0
 10
3499.5176418973051113
 20
168.6944208636984115
 30
0.0
 11
3499.5359144976068819
 21
168.6859908412149878
 31
0.0
  0
LINE
  5
1564F
  8
0
 10
3499.5359144976068819
 20
168.6859908412149878
 30
0.0
 11
3499.5457570172188753
 21
168.6747914849948984
 31
0.0
  0
LINE
  5
15650
  8
0
 10
3499.5457570172188753
 20
168.6747914849948984
 30
0.0
 11
3499.5359144975768686
 21
168.6725535839703127
 31
0.0
  0
LINE
  5
15651
  8
0
 10
3499.5359144975768686
 20
168.6725535839703127
 30
0.0
 11
3499.5162294583092262
 21
168.6815743219335104
 31
0.0
  0
LINE
  5
15652
  8
0
 10
3499.5162294583092262
 20
168.6815743219335104
 30
0.0
 11
3499.5082685227262118
 21
168.6906928223525881
 31
0.0
  0
LINE
  5
15653
  8
0
 10
3499.5051494563458618
 20
168.6893668567959992
 30
0.0
 11
3499.5080756479060256
 21
168.687892989995305
 31
0.0
  0
LINE
  5
15654
  8
0
 10
3499.5080756479060256
 20
168.687892989995305
 30
0.0
 11
3499.5179181675530344
 21
168.6769429344120113
 31
0.0
  0
LINE
  5
15655
  8
0
 10
3499.5179181675530344
 20
168.6769429344120113
 30
0.0
 11
3499.5080756478919284
 21
168.6761207524733095
 31
0.0
  0
LINE
  5
15656
  8
0
 10
3499.5080756478919284
 20
168.6761207524733095
 30
0.0
 11
3499.4930983799467867
 21
168.6838266402247939
 31
0.0
  0
LINE
  5
15657
  8
0
 10
3499.4859217326420548
 20
168.6801996837828028
 30
0.0
 11
3499.4883906085478884
 21
168.6800067146355104
 31
0.0
  0
LINE
  5
15658
  8
0
 10
3499.4883906085478884
 20
168.6800067146355104
 30
0.0
 11
3499.5080756479710544
 21
168.6697802246889069
 31
0.0
  0
LINE
  5
15659
  8
0
 10
3499.5080756479710544
 20
168.6697802246889069
 30
0.0
 11
3499.5179181677858651
 21
168.6606324347577015
 31
0.0
  0
LINE
  5
1565A
  8
0
 10
3499.5179181677858651
 20
168.6606324347577015
 30
0.0
 11
3499.5080756479769661
 21
168.6615409012773057
 31
0.0
  0
LINE
  5
1565B
  8
0
 10
3499.5080756479769661
 20
168.6615409012773057
 30
0.0
 11
3499.4883906087939067
 21
168.6717582691842949
 31
0.0
  0
LINE
  5
1565C
  8
0
 10
3499.4883906087939067
 20
168.6717582691842949
 30
0.0
 11
3499.4817370913078776
 21
168.6779667602245922
 31
0.0
  0
LINE
  5
1565D
  8
0
 10
3499.4785480889231621
 20
168.670559567470093
 30
0.0
 11
3499.488390608582904
 21
168.667670000952711
 31
0.0
  0
LINE
  5
1565E
  8
0
 10
3499.488390608582904
 20
168.667670000952711
 30
0.0
 11
3499.5080756482161632
 21
168.6574298883313929
 31
0.0
  0
LINE
  5
1565F
  8
0
 10
3499.5080756482161632
 20
168.6574298883313929
 30
0.0
 11
3499.5179181676508051
 21
168.6500036253021904
 31
0.0
  0
LINE
  5
15660
  8
0
 10
3499.5179181676508051
 20
168.6500036253021904
 30
0.0
 11
3499.5080756482170727
 21
168.6527052356300942
 31
0.0
  0
LINE
  5
15661
  8
0
 10
3499.5080756482170727
 20
168.6527052356300942
 30
0.0
 11
3499.4883906091718018
 21
168.6630182216144931
 31
0.0
  0
LINE
  5
15662
  8
0
 10
3499.4883906091718018
 20
168.6630182216144931
 30
0.0
 11
3499.4785480887630911
 21
168.6705595675990139
 31
0.0
  0
LINE
  5
15663
  8
0
 10
3499.5063869386181068
 20
168.66021863477701
 30
0.0
 11
3499.516229458170983
 21
168.6589301519161097
 31
0.0
  0
LINE
  5
15664
  8
0
 10
3499.5063869385207909
 20
168.673688289386007
 30
0.0
 11
3499.5162294582100913
 21
168.6741406761080952
 31
0.0
  0
LINE
  5
15665
  8
0
 10
3499.5162294582100913
 20
168.6741406761080952
 30
0.0
 11
3499.5359144975500385
 21
168.6651582115167969
 31
0.0
  0
LINE
  5
15666
  8
0
 10
3499.5359144975500385
 20
168.6651582115167969
 30
0.0
 11
3499.5457570172179658
 21
168.6557513068611058
 31
0.0
  0
LINE
  5
15667
  8
0
 10
3499.5457570172179658
 20
168.6557513068611058
 30
0.0
 11
3499.5359144975709569
 21
168.6551987868417086
 31
0.0
  0
LINE
  5
15668
  8
0
 10
3499.5359144975709569
 20
168.6551987868417086
 30
0.0
 11
3499.516229458170983
 21
168.6641513614081873
 31
0.0
  0
LINE
  5
15669
  8
0
 10
3499.516229458170983
 20
168.6641513614081873
 30
0.0
 11
3499.5063869385207909
 21
168.673688289386007
 31
0.0
  0
LINE
  5
1566A
  8
0
 10
3499.5063869386181068
 20
168.66021863477701
 30
0.0
 11
3499.5162294582410141
 21
168.6524225764048026
 31
0.0
  0
LINE
  5
1566B
  8
0
 10
3499.5162294582410141
 20
168.6524225764048026
 30
0.0
 11
3499.5359144975709569
 21
168.6434401117847983
 31
0.0
  0
LINE
  5
1566C
  8
0
 10
3499.5359144975709569
 20
168.6434401117847983
 30
0.0
 11
3499.5457570172948181
 21
168.6422816522639891
 31
0.0
  0
LINE
  5
1566D
  8
0
 10
3499.5457570172948181
 20
168.6422816522639891
 30
0.0
 11
3499.5359144975709569
 21
168.6499775773889098
 31
0.0
  0
LINE
  5
1566E
  8
0
 10
3499.5359144975709569
 20
168.6499775773889098
 30
0.0
 11
3499.516229458170983
 21
168.6589301519161097
 31
0.0
  0
LINE
  5
1566F
  8
0
 10
3499.5063869388618514
 20
168.6525181050641891
 30
0.0
 11
3499.516229458170983
 21
168.6494138035889137
 31
0.0
  0
LINE
  5
15670
  8
0
 10
3499.516229458170983
 20
168.6494138035889137
 30
0.0
 11
3499.5359144981848658
 21
168.6403930651609926
 31
0.0
  0
LINE
  5
15671
  8
0
 10
3499.5359144981848658
 20
168.6403930651609926
 30
0.0
 11
3499.5457570172779924
 21
168.634382521331105
 31
0.0
  0
LINE
  5
15672
  8
0
 10
3499.5457570172779924
 20
168.634382521331105
 30
0.0
 11
3499.5359144975382151
 21
168.6373334323853896
 31
0.0
  0
LINE
  5
15673
  8
0
 10
3499.5359144975382151
 20
168.6373334323853896
 30
0.0
 11
3499.5162294586580174
 21
168.6464468564689128
 31
0.0
  0
LINE
  5
15674
  8
0
 10
3499.5162294586580174
 20
168.6464468564689128
 30
0.0
 11
3499.5063869385057842
 21
168.6525181051912057
 31
0.0
  0
LINE
  5
15675
  8
0
 10
3499.5342257881029582
 20
168.6425485305097993
 30
0.0
 11
3499.5440683078350048
 21
168.6410132016073931
 31
0.0
  0
LINE
  5
15676
  8
0
 10
3499.5342257881029582
 20
168.6425485305097993
 30
0.0
 11
3499.544068307838188
 21
168.6361777071143138
 31
0.0
  0
LINE
  5
15677
  8
0
 10
3499.544068307838188
 20
168.6361777071143138
 30
0.0
 11
3499.5502013783711845
 21
168.6336451882889094
 31
0.0
  0
LINE
  5
15678
  8
0
 10
3499.5502013783711845
 20
168.6336451882889094
 30
0.0
 11
3499.5443812044650258
 21
168.6388572360710043
 31
0.0
  0
LINE
  5
15679
  8
0
 10
3499.5443812044650258
 20
168.6388572360710043
 30
0.0
 11
3499.5493144279721491
 21
168.63885723608891
 31
0.0
  0
LINE
  5
1567A
  8
0
 10
3499.5440683078718394
 20
168.6410132015888905
 30
0.0
 11
3499.5634606967469153
 21
168.6333248972457
 31
0.0
  0
LINE
  5
1567B
  8
0
 10
3499.5634606967469153
 20
168.6333248972457
 30
0.0
 11
3499.5637533473400254
 21
168.6334680075225947
 31
0.0
  0
LINE
  5
1567C
  8
0
 10
3499.5637533473400254
 20
168.6334680075225947
 30
0.0
 11
3499.5709997555090922
 21
168.6338972507118115
 31
0.0
  0
LINE
  5
1567D
  8
0
 10
3499.5709997555090922
 20
168.6338972507118115
 30
0.0
 11
3499.5924995989557829
 21
168.6433258091446135
 31
0.0
  0
LINE
  5
1567E
  8
0
 10
3499.5924995989557829
 20
168.6433258091446135
 30
0.0
 11
3499.5947849687881899
 21
168.6452129838719998
 31
0.0
  0
LINE
  5
1567F
  8
0
 10
3499.5342257882371086
 20
168.653217870754105
 30
0.0
 11
3499.5440683078591064
 21
168.6534072785028968
 31
0.0
  0
LINE
  5
15680
  8
0
 10
3499.5440683078591064
 20
168.6534072785028968
 30
0.0
 11
3499.5622396185822254
 21
168.6461947624268021
 31
0.0
  0
LINE
  5
15681
  8
0
 10
3499.5622396185822254
 20
168.6461947624268021
 30
0.0
 11
3499.5637533472099676
 21
168.6469376620134994
 31
0.0
  0
LINE
  5
15682
  8
0
 10
3499.5637533472099676
 20
168.6469376620134994
 30
0.0
 11
3499.573595866891992
 21
168.6474846493715916
 31
0.0
  0
LINE
  5
15683
  8
0
 10
3499.573595866891992
 20
168.6474846493715916
 30
0.0
 11
3499.5637533472709038
 21
168.6386892169358873
 31
0.0
  0
LINE
  5
15684
  8
0
 10
3499.5637533472709038
 20
168.6386892169358873
 30
0.0
 11
3499.5622396186849983
 21
168.6379463172777946
 31
0.0
  0
LINE
  5
15685
  8
0
 10
3499.5622396186849983
 20
168.6379463172777946
 30
0.0
 11
3499.5440683078468282
 21
168.6451588334136886
 31
0.0
  0
LINE
  5
15686
  8
0
 10
3499.5440683078468282
 20
168.6451588334136886
 30
0.0
 11
3499.5342257882371086
 21
168.653217870754105
 31
0.0
  0
LINE
  5
15687
  8
0
 10
3499.5924995989557829
 20
168.6433258091446135
 30
0.0
 11
3499.5924995989707895
 21
168.63885723608891
 31
0.0
  0
LINE
  5
15688
  8
0
 10
3499.5924995989707895
 20
168.63885723608891
 30
0.0
 11
3499.6163438093108198
 21
168.63885723608891
 31
0.0
  0
ARC
  5
15689
  8
0
 10
3499.7766683661438947
 20
169.1995040171512983
 30
0.0
 40
0.6070065626058422
 50
265.6291306549027809
 51
269.9955594152630169
  0
ARC
  5
1568A
  8
0
 10
3499.7765287194361008
 20
169.1975009659774116
 30
0.0
 40
0.6049986944284387
 50
254.9889756154965994
 51
265.6278600918457755
  0
ARC
  5
1568B
  8
0
 10
3499.7753505278360535
 20
169.1931072768311139
 30
0.0
 40
0.600449778100362
 50
247.3773334894507059
 51
254.9889756154965994
  0
ARC
  5
1568C
  8
0
 10
3499.5843559297268257
 20
168.7685629726371133
 30
0.0
 40
0.1402558603474966
 50
249.0582135725543083
 51
253.3069838070676951
  0
LINE
  5
1568D
  8
0
 10
3499.5440683078718394
 20
168.6342178428888872
 30
0.0
 11
3499.5637533472940959
 21
168.6263206006061068
 31
0.0
  0
LINE
  5
1568E
  8
0
 10
3499.5637533472709038
 20
168.6263206005889117
 30
0.0
 11
3499.5735958674840731
 21
168.6216715911770052
 31
0.0
  0
LINE
  5
1568F
  8
0
 10
3499.5735958674840731
 20
168.6216715911770052
 30
0.0
 11
3499.5637533472709038
 21
168.624904406888902
 31
0.0
  0
LINE
  5
15690
  8
0
 10
3499.5637533472709038
 20
168.624904406888902
 30
0.0
 11
3499.5440683078791153
 21
168.6329070696970973
 31
0.0
  0
LINE
  5
15691
  8
0
 10
3499.5440683078791153
 20
168.6329070696970973
 30
0.0
 11
3499.5342257881661681
 21
168.6375718460201938
 31
0.0
  0
LINE
  5
15692
  8
0
 10
3499.5620646380489234
 20
168.6278621572544125
 30
0.0
 11
3499.5719071575590533
 21
168.6228567980265041
 31
0.0
  0
LINE
  5
15693
  8
0
 10
3499.5719071575590533
 20
168.6228567980265041
 30
0.0
 11
3499.5915921971291027
 21
168.6160674359992129
 31
0.0
  0
LINE
  5
15694
  8
0
 10
3499.5915921971291027
 20
168.6160674359992129
 30
0.0
 11
3499.6014347165692016
 21
168.6143464967996124
 31
0.0
  0
LINE
  5
15695
  8
0
 10
3499.6014347165692016
 20
168.6143464967996124
 30
0.0
 11
3499.5915921968708062
 21
168.6175202978884045
 31
0.0
  0
LINE
  5
15696
  8
0
 10
3499.5915921968708062
 20
168.6175202978884045
 30
0.0
 11
3499.5719071574708323
 21
168.6242759774889066
 31
0.0
  0
LINE
  5
15697
  8
0
 10
3499.5719071574708323
 20
168.6242759774889066
 30
0.0
 11
3499.5620646380489234
 21
168.6278621572544125
 31
0.0
  0
LINE
  5
15698
  8
0
 10
3499.5899034879439569
 20
168.616025902316693
 30
0.0
 11
3499.5997460071380374
 21
168.6139266014473037
 31
0.0
  0
LINE
  5
15699
  8
0
 10
3499.5997460071380374
 20
168.6139266014473037
 30
0.0
 11
3499.6194310465712078
 21
168.6082135351888951
 31
0.0
  0
LINE
  5
1569A
  8
0
 10
3499.6194310465712078
 20
168.6082135351888951
 30
0.0
 11
3499.6292735662550513
 21
168.6045290798332132
 31
0.0
  0
LINE
  5
1569B
  8
0
 10
3499.6292735662550513
 20
168.6045290798332132
 30
0.0
 11
3499.619431046509817
 21
168.6065673881751081
 31
0.0
  0
LINE
  5
1569C
  8
0
 10
3499.619431046509817
 20
168.6065673881751081
 30
0.0
 11
3499.5997460071707792
 21
168.6123513082889076
 31
0.0
  0
LINE
  5
1569D
  8
0
 10
3499.5997460071707792
 20
168.6123513082889076
 30
0.0
 11
3499.589903487482843
 21
168.6160259024329093
 31
0.0
  0
LINE
  5
1569E
  8
0
 10
3499.617742337134132
 20
168.6096283815130903
 30
0.0
 11
3499.627584857608781
 21
168.6055968592883971
 31
0.0
  0
LINE
  5
1569F
  8
0
 10
3499.627584857608781
 20
168.6055968592883971
 30
0.0
 11
3499.6472698961579226
 21
168.6008907974238014
 31
0.0
  0
LINE
  5
156A0
  8
0
 10
3499.6472698961579226
 20
168.6008907974238014
 30
0.0
 11
3499.6571124158781458
 21
168.6002577120655985
 31
0.0
  0
LINE
  5
156A1
  8
0
 10
3499.6571124158781458
 20
168.6002577120655985
 30
0.0
 11
3499.6472698961711103
 21
168.6024225048938945
 31
0.0
  0
LINE
  5
156A2
  8
0
 10
3499.6472698961711103
 20
168.6024225048938945
 30
0.0
 11
3499.6275848568720903
 21
168.6071047032083925
 31
0.0
  0
LINE
  5
156A3
  8
0
 10
3499.6275848568720903
 20
168.6071047032083925
 30
0.0
 11
3499.6177423371600526
 21
168.6096283815539039
 31
0.0
  0
LINE
  5
156A4
  8
0
 10
3499.6455811869909667
 20
168.6006166064113074
 30
0.0
 11
3499.6554237064929112
 21
168.5996220041610911
 31
0.0
  0
LINE
  5
156A5
  8
0
 10
3499.6554237064929112
 20
168.5996220041610911
 30
0.0
 11
3499.6751087458901566
 21
168.5959045861677055
 31
0.0
  0
LINE
  5
156A6
  8
0
 10
3499.6751087458901566
 20
168.5959045861677055
 30
0.0
 11
3499.684951265493055
 21
168.5931381474470925
 31
0.0
  0
LINE
  5
156A7
  8
0
 10
3499.684951265493055
 20
168.5931381474470925
 30
0.0
 11
3499.6751087458710572
 21
168.5941108106293882
 31
0.0
  0
LINE
  5
156A8
  8
0
 10
3499.6751087458710572
 20
168.5941108106293882
 30
0.0
 11
3499.6554237064538029
 21
168.5978721090014858
 31
0.0
  0
LINE
  5
156A9
  8
0
 10
3499.6554237064538029
 20
168.5978721090014858
 30
0.0
 11
3499.6455811869909667
 21
168.6006166064113074
 31
0.0
  0
LINE
  5
156AA
  8
0
 10
3499.673420036438074
 20
168.5971872359963868
 30
0.0
 11
3499.6833645222159248
 21
168.5956284158739891
 31
0.0
  0
LINE
  5
156AB
  8
0
 10
3499.6833645222159248
 20
168.5956284158739891
 30
0.0
 11
3499.7029475954709596
 21
168.5928876170825959
 31
0.0
  0
LINE
  5
156AC
  8
0
 10
3499.7029475954709596
 20
168.5928876170825959
 30
0.0
 11
3499.7127901151720835
 21
168.5916701911889106
 31
0.0
  0
LINE
  5
156AD
  8
0
 10
3499.7127901151720835
 20
168.5916701911889106
 30
0.0
 11
3499.7029475949848347
 21
168.5913082973457904
 31
0.0
  0
LINE
  5
156AE
  8
0
 10
3499.7029475949848347
 20
168.5913082973457904
 30
0.0
 11
3499.6832625561710302
 21
168.5940786146888968
 31
0.0
  0
LINE
  5
156AF
  8
0
 10
3499.6832625561710302
 20
168.5940786146888968
 30
0.0
 11
3499.673420036438074
 21
168.5971872359963868
 31
0.0
  0
LINE
  5
156B0
  8
0
 10
3499.7012588860998221
 20
168.590835294108814
 30
0.0
 11
3499.7111014057709326
 21
168.5908467888930033
 31
0.0
  0
LINE
  5
156B1
  8
0
 10
3499.7111014057709326
 20
168.5908467888930033
 30
0.0
 11
3499.730786445009926
 21
168.5890139404015997
 31
0.0
  0
LINE
  5
156B2
  8
0
 10
3499.730786445009926
 20
168.5890139404015997
 30
0.0
 11
3499.7406289645541619
 21
168.5871487352976885
 31
0.0
  0
LINE
  5
156B3
  8
0
 10
3499.7406289645541619
 20
168.5871487352976885
 30
0.0
 11
3499.730786445171816
 21
168.5871487352976885
 31
0.0
  0
LINE
  5
156B4
  8
0
 10
3499.730786445171816
 20
168.5871487352976885
 30
0.0
 11
3499.7111014058050387
 21
168.5889942594104127
 31
0.0
  0
LINE
  5
156B5
  8
0
 10
3499.7111014058050387
 20
168.5889942594104127
 30
0.0
 11
3499.7012588860479809
 21
168.5908352941198132
 31
0.0
  0
LINE
  5
156B6
  8
0
 10
3499.7290974157708661
 20
168.5901562062888956
 30
0.0
 11
3499.7389402554708795
 21
168.5895454934675968
 31
0.0
  0
LINE
  5
156B7
  8
0
 10
3499.7389402554708795
 20
168.5895454934675968
 30
0.0
 11
3499.7586252947698995
 21
168.5886349634205033
 31
0.0
  0
LINE
  5
156B8
  8
0
 10
3499.7586252947698995
 20
168.5886349634205033
 30
0.0
 11
3499.7684678145169528
 21
168.58833400621441
 31
0.0
  0
LINE
  5
156B9
  8
0
 10
3499.7684678145169528
 20
168.58833400621441
 30
0.0
 11
3499.7586252947899084
 21
168.5870349132453043
 31
0.0
  0
LINE
  5
156BA
  8
0
 10
3499.7586252947899084
 20
168.5870349132453043
 30
0.0
 11
3499.7389402557978428
 21
168.5879498353318127
 31
0.0
  0
LINE
  5
156BB
  8
0
 10
3499.7389402557978428
 20
168.5879498353318127
 30
0.0
 11
3499.7290974157708661
 21
168.5901562062888956
 31
0.0
  0
LINE
  5
156BC
  8
0
 10
3499.7569365854810712
 20
168.586388244600812
 30
0.0
 11
3499.766779105068963
 21
168.5873435225566936
 31
0.0
  0
LINE
  5
156BD
  8
0
 10
3499.766779105068963
 20
168.5873435225566936
 30
0.0
 11
3499.7864641444161862
 21
168.5873435225641117
 31
0.0
  0
LINE
  5
156BE
  8
0
 10
3499.7864638421037853
 20
168.5854509240720915
 30
0.0
 11
3499.7667788007388481
 21
168.5854509240720915
 31
0.0
  0
LINE
  5
156BF
  8
0
 10
3499.7667791050721462
 20
168.5854509240720915
 30
0.0
 11
3499.7569365854810712
 21
168.586388244600812
 31
0.0
  0
LINE
  5
156C0
  8
0
 10
3499.7389402554831577
 20
168.6366072441983874
 30
0.0
 11
3499.7586252947439789
 21
168.6356923220891986
 31
0.0
  0
LINE
  5
156C1
  8
0
 10
3499.7586252947439789
 20
168.6356923220891986
 30
0.0
 11
3499.7684678144710233
 21
168.62874296988889
 31
0.0
  0
LINE
  5
156C2
  8
0
 10
3499.7684678144710233
 20
168.62874296988889
 30
0.0
 11
3499.729097735796131
 21
168.6305651509244115
 31
0.0
  0
LINE
  5
156C3
  8
0
 10
3499.729097735796131
 20
168.6305651509244115
 30
0.0
 11
3499.7389402554599656
 21
168.636607244184404
 31
0.0
  0
LINE
  5
156C4
  8
0
 10
3499.6734200363857781
 20
168.6375961997032107
 30
0.0
 11
3499.7127901151720835
 21
168.6320791548889133
 31
0.0
  0
LINE
  5
156C5
  8
0
 10
3499.7127901151720835
 20
168.6320791548889133
 30
0.0
 11
3499.7029475955068847
 21
168.6399657061365929
 31
0.0
  0
LINE
  5
156C6
  8
0
 10
3499.7029475955068847
 20
168.6399657061365929
 30
0.0
 11
3499.6832625560678025
 21
168.6427360236505137
 31
0.0
  0
LINE
  5
156C7
  8
0
 10
3499.6832625560678025
 20
168.6427360236505137
 30
0.0
 11
3499.6734200363239324
 21
168.6375961997119077
 31
0.0
  0
LINE
  5
156C8
  8
0
 10
3499.6571124158967905
 20
168.6406666757341952
 30
0.0
 11
3499.6472698962338654
 21
168.6495482062960036
 31
0.0
  0
LINE
  5
156C9
  8
0
 10
3499.6472698962338654
 20
168.6495482062960036
 30
0.0
 11
3499.6275848568639049
 21
168.6542542684055945
 31
0.0
  0
LINE
  5
156CA
  8
0
 10
3499.6275848568639049
 20
168.6542542684055945
 30
0.0
 11
3499.6177423371500481
 21
168.6500373452309134
 31
0.0
  0
LINE
  5
156CB
  8
0
 10
3499.6177423371500481
 20
168.6500373452309134
 30
0.0
 11
3499.6571124158967905
 21
168.6406666757341952
 31
0.0
  0
LINE
  5
156CC
  8
0
 10
3499.6014347166360494
 20
168.6547554604902075
 30
0.0
 11
3499.5620679600710901
 21
168.668267601788898
 31
0.0
  0
LINE
  5
156CD
  8
0
 10
3499.5620679600710901
 20
168.668267601788898
 30
0.0
 11
3499.5719104304707798
 21
168.6715153619888952
 31
0.0
  0
LINE
  5
156CE
  8
0
 10
3499.5719104304707798
 20
168.6715153619888952
 30
0.0
 11
3499.5915921970458839
 21
168.6647248448846881
 31
0.0
  0
LINE
  5
156CF
  8
0
 10
3499.5915921970458839
 20
168.6647248448846881
 30
0.0
 11
3499.6014347166360494
 21
168.6547554604902075
 31
0.0
  0
LINE
  5
156D0
  8
0
 10
3499.5682161460022144
 20
168.654277867986508
 30
0.0
 11
3499.5628049565530091
 21
168.6493938032959079
 31
0.0
  0
LINE
  5
156D1
  8
0
 10
3499.5628049565530091
 20
168.6493938032959079
 30
0.0
 11
3499.5620703313179547
 21
168.6492997813685975
 31
0.0
  0
LINE
  5
156D2
  8
0
 10
3499.5620703313179547
 20
168.6492997813685975
 30
0.0
 11
3499.562669539378021
 21
168.6487635695170866
 31
0.0
  0
LINE
  5
156D3
  8
0
 10
3499.562669539378021
 20
168.6487635695170866
 30
0.0
 11
3499.5622396186849983
 21
168.6461947624783022
 31
0.0
  0
LINE
  5
156D4
  8
0
 10
3499.5634606967450964
 20
168.6520157611253126
 30
0.0
 11
3499.5628049565530091
 21
168.6493938032959079
 31
0.0
  0
LINE
  5
156D5
  8
0
 10
3499.562669539378021
 20
168.6487635695170866
 30
0.0
 11
3499.5719071573398651
 21
168.6493132006960991
 31
0.0
  0
LINE
  5
156D6
  8
0
 10
3499.5719071573398651
 20
168.6493132006960991
 30
0.0
 11
3499.5763514761902115
 21
168.6513543861483129
 31
0.0
  0
LINE
  5
156D7
  8
0
 10
3499.5719071575408634
 20
168.6493132007055067
 30
0.0
 11
3499.5719071574708323
 21
168.6529353210906947
 31
0.0
  0
LINE
  5
156D8
  8
0
 10
3499.5829714868159499
 20
168.6490729098983934
 30
0.0
 11
3499.5719071574708323
 21
168.6440919912888887
 31
0.0
  0
LINE
  5
156D9
  8
0
 10
3499.5719071574708323
 20
168.6440919912888887
 30
0.0
 11
3499.5626723926379782
 21
168.6358034442374958
 31
0.0
  0
LINE
  5
156DA
  8
0
 10
3499.5626723926379782
 20
168.6358034442374958
 30
0.0
 11
3499.5620646377401499
 21
168.6358294083730129
 31
0.0
  0
LINE
  5
156DB
  8
0
 10
3499.5620646377401499
 20
168.6358294083730129
 30
0.0
 11
3499.5628049565061701
 21
168.635303730527113
 31
0.0
  0
LINE
  5
156DC
  8
0
 10
3499.5628049565061701
 20
168.635303730527113
 30
0.0
 11
3499.5634606967209947
 21
168.6333248973132015
 31
0.0
  0
LINE
  5
156DD
  8
0
 10
3499.56223961873593
 20
168.6379463172611963
 30
0.0
 11
3499.562672393351022
 21
168.6358034448772969
 31
0.0
  0
LINE
  5
156DE
  8
0
 10
3499.5628049564538742
 20
168.6353037305204907
 30
0.0
 11
3499.5719071574708323
 21
168.6358435460448106
 31
0.0
  0
LINE
  5
156DF
  8
0
 10
3499.5719071574708323
 20
168.6358435460448106
 30
0.0
 11
3499.5719071574708323
 21
168.6440919913405025
 31
0.0
  0
LINE
  5
156E0
  8
0
 10
3499.5719071574708323
 20
168.6358435460448106
 30
0.0
 11
3499.5915921968708062
 21
168.6444757163889108
 31
0.0
  0
LINE
  5
156E1
  8
0
 10
3499.5915921968708062
 20
168.6444757163889108
 30
0.0
 11
3499.5931184532960287
 21
168.6457411847061962
 31
0.0
  0
LINE
  5
156E2
  8
0
 10
3499.5915921968539806
 20
168.6444757163814074
 30
0.0
 11
3499.5915919903150098
 21
168.6462296755373984
 31
0.0
  0
LINE
  5
156E3
  8
0
 10
3499.5997460071707792
 20
168.63885723608891
 30
0.0
 11
3499.5997460071707792
 21
168.6436734414471914
 31
0.0
  0
LINE
  5
156E4
  8
0
 10
3499.5637533472481664
 20
168.6386892168748091
 30
0.0
 11
3499.5637533472709038
 21
168.6469376620169101
 31
0.0
  0
LINE
  5
156E5
  8
0
 10
3499.5637533472549876
 20
168.6521588714811912
 30
0.0
 11
3499.5637533472549876
 21
168.6559382645988876
 31
0.0
  0
LINE
  5
156E6
  8
0
 10
3499.544068312573927
 20
168.63290706778821
 30
0.0
 11
3499.544068312573927
 21
168.6342178414786019
 31
0.0
  0
LINE
  5
156E7
  8
0
 10
3499.544068312573927
 20
168.6361777051585022
 30
0.0
 11
3499.544068312573927
 21
168.641013199724398
 31
0.0
  0
LINE
  5
156E8
  8
0
 10
3499.544068312573927
 20
168.6451588315372874
 30
0.0
 11
3499.544068312573927
 21
168.6534072766312136
 31
0.0
  0
LINE
  5
156E9
  8
0
 10
3499.544068312573927
 20
168.6597040636619909
 30
0.0
 11
3499.544068312573927
 21
168.6713654595120886
 31
0.0
  0
LINE
  5
156EA
  8
0
 10
3499.5359144976068819
 20
168.6859908412149878
 30
0.0
 11
3499.5359144975768686
 21
168.6725535839703127
 31
0.0
  0
LINE
  5
156EB
  8
0
 10
3499.5359144975500385
 20
168.6651582115167969
 30
0.0
 11
3499.5359144975709569
 21
168.6551987868417086
 31
0.0
  0
LINE
  5
156EC
  8
0
 10
3499.5359144975709569
 20
168.6499775773889098
 30
0.0
 11
3499.5359144975709569
 21
168.6434401117847983
 31
0.0
  0
LINE
  5
156ED
  8
0
 10
3499.5359144981848658
 20
168.6403930651609926
 30
0.0
 11
3499.5359144975382151
 21
168.6373334323853896
 31
0.0
  0
LINE
  5
156EE
  8
0
 10
3499.5162294586580174
 20
168.6464468564689128
 30
0.0
 11
3499.516229458170983
 21
168.6494138035889137
 31
0.0
  0
LINE
  5
156EF
  8
0
 10
3499.5162294582410141
 20
168.6524225764048026
 30
0.0
 11
3499.516229458170983
 21
168.6589301519161097
 31
0.0
  0
LINE
  5
156F0
  8
0
 10
3499.516229458170983
 20
168.6641513614081873
 30
0.0
 11
3499.5157712922828068
 21
168.6741196176608923
 31
0.0
  0
LINE
  5
156F1
  8
0
 10
3499.5080756478919284
 20
168.6761207524733095
 30
0.0
 11
3499.5080756479060256
 21
168.687892989995305
 31
0.0
  0
LINE
  5
156F2
  8
0
 10
3499.5080756479710544
 20
168.6697802246889069
 30
0.0
 11
3499.5080756479769661
 21
168.6615409012773057
 31
0.0
  0
LINE
  5
156F3
  8
0
 10
3499.5080756482161632
 20
168.6574298883313929
 30
0.0
 11
3499.5080756482170727
 21
168.6527052356300942
 31
0.0
  0
LINE
  5
156F4
  8
0
 10
3499.4883906091718018
 20
168.6630182216144931
 30
0.0
 11
3499.488390608582904
 21
168.667670000952711
 31
0.0
  0
LINE
  5
156F5
  8
0
 10
3499.4883906087939067
 20
168.6717582691842949
 30
0.0
 11
3499.4883906085478884
 21
168.6800067146355104
 31
0.0
  0
ARC
  5
156F6
  8
0
 10
3499.7758992046269668
 20
167.391639824534991
 30
0.0
 40
1.3802431982561369
 50
89.9700239446570578
 51
96.5362479305017871
  0
ARC
  5
156F7
  8
0
 10
3499.7090325650619889
 20
167.975237959136507
 30
0.0
 40
0.7928268806438992
 50
96.5362479039876291
 51
104.2736189244612035
  0
ARC
  5
156F8
  8
0
 10
3499.5881049189861187
 20
168.4505703182248908
 30
0.0
 40
0.3023532858582498
 50
104.2736189244612035
 51
116.5914882473968959
  0
ARC
  5
156F9
  8
0
 10
3499.4880257459240056
 20
168.6504979875880963
 30
0.0
 40
0.0787757515267583
 50
116.5914882473968959
 51
139.4508474069284887
  0
ARC
  5
156FA
  8
0
 10
3499.4466802521651516
 20
168.6858717626595876
 30
0.0
 40
0.0243629422162967
 50
139.450847406927295
 51
167.0080874483801949
  0
ARC
  5
156FB
  8
0
 10
3499.4504705824238044
 20
168.6849972594816904
 30
0.0
 40
0.0282528470077515
 50
167.0080874483786033
 51
175.3495618692352025
  0
LINE
  5
156FC
  8
0
 10
3499.7963066719639755
 20
168.699256051684813
 30
0.0
 11
3499.786464152264216
 21
168.7101634808888946
 31
0.0
  0
LINE
  5
156FD
  8
0
 10
3499.786464152264216
 20
168.6884342902889102
 30
0.0
 11
3499.7963066719530616
 21
168.6992560516981996
 31
0.0
  0
LINE
  5
156FE
  8
0
 10
3499.786464152264216
 20
168.7101634808888946
 30
0.0
 11
3499.786464152264216
 21
168.6884342902889102
 31
0.0
  0
LINE
  5
156FF
  8
0
 10
3499.7963066719689778
 20
168.6668633205212018
 30
0.0
 11
3499.7864641520709483
 21
168.6758901495699092
 31
0.0
  0
LINE
  5
15700
  8
0
 10
3499.7864641520709483
 20
168.6578824812889081
 30
0.0
 11
3499.7963066719589733
 21
168.6668633205345884
 31
0.0
  0
LINE
  5
15701
  8
0
 10
3499.7864641520709483
 20
168.6758901495699092
 30
0.0
 11
3499.7864641520709483
 21
168.6578824812889081
 31
0.0
  0
LINE
  5
15702
  8
0
 10
3499.7963066719780727
 20
168.6402668628572883
 30
0.0
 11
3499.7864641519049655
 21
168.6475779875891874
 31
0.0
  0
LINE
  5
15703
  8
0
 10
3499.7864641519049655
 20
168.63297797578889
 30
0.0
 11
3499.7963066719689778
 21
168.6402668628707033
 31
0.0
  0
LINE
  5
15704
  8
0
 10
3499.7864641519049655
 20
168.6475779875891874
 30
0.0
 11
3499.7864641519049655
 21
168.63297797578889
 31
0.0
  0
LINE
  5
15705
  8
0
 10
3499.7881765309862203
 20
168.727386767741109
 30
0.0
 11
3499.7864641524361105
 21
168.725200154902808
 31
0.0
  0
LINE
  5
15706
  8
0
 10
3499.7864641524361105
 20
168.725200154902808
 30
0.0
 11
3499.7766216290278862
 21
168.7252001548459077
 31
0.0
  0
LINE
  5
15707
  8
0
 10
3499.786464152264216
 20
168.7252001546829945
 30
0.0
 11
3499.786464152264216
 21
168.7274005923135007
 31
0.0
  0
LINE
  5
15708
  8
0
 10
3499.4843489624718131
 20
169.7396245449889136
 30
0.0
 11
3500.0688936803699107
 21
169.7396245449889136
 31
0.0
  0
LINE
  5
15709
  8
0
 10
3499.4806213987499177
 20
169.6678074603889002
 30
0.0
 11
3500.0726212440918061
 21
169.6678074603889002
 31
0.0
  0
LINE
  5
1570A
  8
0
 10
3499.4806213989209027
 20
169.5103530092889059
 30
0.0
 11
3500.0726212439208211
 21
169.5103530092889059
 31
0.0
  0
LINE
  5
1570B
  8
0
 10
3499.4655976994440607
 20
169.3584336375328121
 30
0.0
 11
3499.4655976993208242
 21
169.4758008658396022
 31
0.0
  0
ARC
  5
1570C
  8
0
 10
3499.5128417936862206
 20
169.4758008658889139
 30
0.0
 40
0.0472440943642507
 50
132.9999998096236027
 51
180.0000000597981114
  0
ARC
  5
1570D
  8
0
 10
3499.4233763343108876
 20
169.5890802347666977
 30
0.0
 40
0.0973394753102176
 50
306.0220896756699744
 51
53.9779103764939023
  0
ARC
  5
1570E
  8
0
 10
3499.5128417933610763
 20
169.7023596034887873
 30
0.0
 40
0.0472440940398353
 50
179.9999997573438861
 51
227.0000002425624928
  0
LINE
  5
1570F
  8
0
 10
3499.4655976993208242
 20
169.7023596036889046
 30
0.0
 11
3499.4655976993958575
 21
169.7199616652889063
 31
0.0
  0
ARC
  5
15710
  8
0
 10
3499.4852827388867809
 20
169.7199616652054885
 30
0.0
 40
0.0196850394911339
 50
92.7188975026417381
 51
179.9999997573422945
  0
ARC
  5
15711
  8
0
 10
3499.7766213214222262
 20
163.5851440723405119
 30
0.0
 40
6.1614164783770526
 50
87.281102594653305
 51
92.718897405346695
  0
LINE
  5
15712
  8
0
 10
3500.0876449433990274
 20
169.3584336375328121
 30
0.0
 11
3500.0876449435208997
 21
169.4758008658396022
 31
0.0
  0
ARC
  5
15713
  8
0
 10
3500.0404008491568675
 20
169.4758008658889139
 30
0.0
 40
0.0472440943642507
 50
359.9999999402019171
 51
47.0000001903763902
  0
ARC
  5
15714
  8
0
 10
3500.1298663085322005
 20
169.5890802347666977
 30
0.0
 40
0.0973394753102176
 50
126.0220896235061048
 51
233.9779103243299119
  0
ARC
  5
15715
  8
0
 10
3500.0404008494811023
 20
169.7023596034887873
 30
0.0
 40
0.0472440940398353
 50
312.999999757437422
 51
0.0000002426560684
  0
LINE
  5
15716
  8
0
 10
3500.0876449435208997
 20
169.7023596036889046
 30
0.0
 11
3500.0876449434467759
 21
169.7199616652889063
 31
0.0
  0
ARC
  5
15717
  8
0
 10
3500.0679599039558525
 20
169.7199616652054885
 30
0.0
 40
0.0196850394911339
 50
0.0000002426576969
 51
87.2811024973582477
  0
LINE
  5
15718
  8
0
 10
3492.8868246553738572
 20
163.4723240982889081
 30
0.0
 11
3494.8553943654678733
 21
163.4723240982889081
 31
0.0
  0
LINE
  5
15719
  8
0
 10
3498.7839501691528312
 20
163.4723240982889081
 30
0.0
 11
3500.7692924736898021
 21
163.4723240982889081
 31
0.0
  0
LINE
  5
1571A
  8
0
 10
3504.6782048060208581
 20
163.4723240982889081
 30
0.0
 11
3506.6860614588208591
 21
163.4723240982889081
 31
0.0
  0
CIRCLE
  5
1571B
  8
0
 10
3493.8711095104208653
 20
165.9368910273888957
 30
0.0
 40
0.1259842519999998
  0
ARC
  5
1571C
  8
0
 10
3494.7726210408568477
 20
102.0501608703806937
 30
0.0
 40
64.6454475412267442
 50
90.0738815808201849
 51
90.7989981201674397
  0
ARC
  5
1571D
  8
0
 10
3493.9035852498459462
 20
169.4189905054606982
 30
0.0
 40
2.8904809554660171
 50
269.3587791821316273
 51
282.8213310431469267
  0
ARC
  5
1571E
  8
0
 10
3500.0391165303699381
 20
169.3760559243353043
 30
0.0
 40
0.7119885958805258
 50
287.8167161963363014
 51
340.3137797784286249
  0
ARC
  5
1571F
  8
0
 10
3499.7807756932729717
 20
169.7863856171335897
 30
0.0
 40
1.2161116089640081
 50
269.8042708951768986
 51
278.6399091300266946
  0
ARC
  5
15720
  8
0
 10
3499.9040410221191451
 20
169.0183675120748035
 30
0.0
 40
0.4383396465649373
 50
277.7913362951359773
 51
293.3307868139601169
  0
ARC
  5
15721
  8
0
 10
3500.0339730900959694
 20
168.7081625177586091
 30
0.0
 40
0.1021023721506713
 50
295.3206437061551242
 51
316.9576766813564745
  0
ARC
  5
15722
  8
0
 10
3500.0561907438691378
 20
168.6951970598084927
 30
0.0
 40
0.0772249868120958
 50
312.7332887880544945
 51
330.552203537239393
  0
ARC
  5
15723
  8
0
 10
3500.0708641524411178
 20
168.6863345212130127
 30
0.0
 40
0.0600923416172781
 50
331.0324117918685829
 51
357.931125539315417
  0
ARC
  5
15724
  8
0
 10
3496.8666445731118984
 20
168.7009599280657142
 30
0.0
 40
3.2643159545040179
 50
359.705213943297224
 51
0.1330466148648468
  0
ARC
  5
15725
  8
0
 10
3500.1017695498030662
 20
168.7066635971796984
 30
0.0
 40
0.0292424403623068
 50
3.6790206825142691
 51
48.367819728429879
  0
ARC
  5
15726
  8
0
 10
3499.7815780318751422
 20
167.5056172284836009
 30
0.0
 40
1.2886525439541421
 50
81.8495484415266787
 51
90.2203846886001486
  0
ARC
  5
15727
  8
0
 10
3499.8787645487132068
 20
168.1789977040432973
 30
0.0
 40
0.608295776541333
 50
71.1770236893585917
 51
81.9190354483294243
  0
ARC
  5
15728
  8
0
 10
3500.0317778099770294
 20
168.6249348834849116
 30
0.0
 40
0.1368416330860793
 50
49.1979537214269982
 51
71.5750340572081711
  0
ARC
  5
15729
  8
0
 10
3499.7684115873307746
 20
166.6387210814471018
 30
0.0
 40
2.189240546997564
 50
85.0449420003508152
 51
89.7851381761429224
  0
ARC
  5
1572A
  8
0
 10
3499.8557197898030608
 20
167.6677710090089874
 30
0.0
 40
1.1564968079170981
 50
75.6242898154396244
 51
84.9507332575096825
  0
ARC
  5
1572B
  8
0
 10
3500.0604569777019606
 20
168.4339482589587078
 30
0.0
 40
0.3635679763257313
 50
61.7249617460136619
 51
76.9010014353697642
  0
ARC
  5
1572C
  8
0
 10
3500.1940087548800875
 20
168.6859696341603012
 30
0.0
 40
0.0783726604874245
 50
33.8708502589737606
 51
60.4332085751899228
  0
ARC
  5
1572D
  8
0
 10
3500.2415225140907751
 20
168.7178624790126946
 30
0.0
 40
0.021147570996574
 50
351.3456129791293847
 51
33.8708502589724105
  0
ARC
  5
1572E
  8
0
 10
3500.2115389047589815
 20
168.722426190170097
 30
0.0
 40
0.0514765058305286
 50
312.0856679745763245
 51
351.3456129791293847
  0
ARC
  5
1572F
  8
0
 10
3500.0485770445297931
 20
168.9403128242759919
 30
0.0
 40
0.3233786038426683
 50
280.5080770106138175
 51
307.6348122944892793
  0
ARC
  5
15730
  8
0
 10
3499.9343165459417833
 20
169.3488198566928986
 30
0.0
 40
0.7468322107537987
 50
281.0642283806081991
 51
283.4125866380176149
  0
ARC
  5
15731
  8
0
 10
3500.1489121881982101
 20
168.69064416385811
 30
0.0
 40
0.0920866883317074
 50
33.2262448548283089
 51
69.3611914919429893
  0
ARC
  5
15732
  8
0
 10
3500.2051163967548746
 20
168.7274599475734078
 30
0.0
 40
0.0248980360908634
 50
323.2677597796514988
 51
33.2262448548283089
  0
ARC
  5
15733
  8
0
 10
3500.0854974291301005
 20
168.8479083880291967
 30
0.0
 40
0.194415611569423
 50
281.2537672724711797
 51
315.8823296752443071
  0
ARC
  5
15734
  8
0
 10
3499.7771522292928239
 20
169.8357353210626002
 30
0.0
 40
1.260692089358934
 50
269.9758713634225273
 51
274.1670894501011162
  0
ARC
  5
15735
  8
0
 10
3499.8050025378061036
 20
169.4534803774361933
 30
0.0
 40
0.8774239304791356
 50
274.1670893715455009
 51
284.0666356284684753
  0
ARC
  5
15736
  8
0
 10
3499.9735806316821254
 20
168.7806849424260065
 30
0.0
 40
0.18383019412808
 50
284.0666356284684753
 51
305.4289153203188221
  0
ARC
  5
15737
  8
0
 10
3500.0682179115487997
 20
168.6507060976109926
 30
0.0
 40
0.0231258507108578
 50
301.0491648499302073
 51
37.3847950279423529
  0
ARC
  5
15738
  8
0
 10
3500.0420473110179955
 20
168.6291259419334949
 30
0.0
 40
0.0570369482497579
 50
38.6477987118271571
 51
58.9038059255280899
  0
ARC
  5
15739
  8
0
 10
3499.9339854670988643
 20
168.4252829448188891
 30
0.0
 40
0.2876819149527858
 50
61.4432966186546494
 51
80.0283970430796785
  0
ARC
  5
1573A
  8
0
 10
3499.8012023621881781
 20
167.7924798058602107
 30
0.0
 40
0.9341590807371504
 50
78.727941079289991
 51
87.3866573703845404
  0
ARC
  5
1573B
  8
0
 10
3499.7771777621169349
 20
167.4711606061682119
 30
0.0
 40
1.2562743046086291
 50
86.960273181089363
 51
90.025377980205306
  0
ARC
  5
1573C
  8
0
 10
3499.7766213214222262
 20
167.522317697278595
 30
0.0
 40
1.209876862227981
 50
79.1632916949951237
 51
100.8367083050045068
  0
ARC
  5
1573D
  8
0
 10
3499.9442316736040084
 20
168.4085746070026062
 30
0.0
 40
0.3079185733781986
 50
62.0867925082353196
 51
78.7903317284997229
  0
ARC
  5
1573E
  8
0
 10
3500.0644173577929905
 20
168.6354393907730866
 30
0.0
 40
0.0511848031035646
 50
28.9990216972255084
 51
62.0867925082353196
  0
ARC
  5
1573F
  8
0
 10
3500.0909675370489822
 20
168.6501558028330976
 30
0.0
 40
0.0208288349521736
 50
318.8427916825353918
 51
28.9990216972255084
  0
ARC
  5
15740
  8
0
 10
3499.7852951419617966
 20
167.5324791574165033
 30
0.0
 40
1.285672956155109
 50
79.9830752846619077
 51
90.3865501540740439
  0
ARC
  5
15741
  8
0
 10
3499.967230712026776
 20
168.4875174978060954
 30
0.0
 40
0.3138183145326711
 50
56.9008096216476318
 51
82.3652380887815951
  0
ARC
  5
15742
  8
0
 10
3500.1216399458739943
 20
168.7272949185633877
 30
0.0
 40
0.0286730472413608
 50
346.9553162525896255
 51
53.727203424760738
  0
ARC
  5
15743
  8
0
 10
3500.0963159004459158
 20
168.7446163339423038
 30
0.0
 40
0.0583304694855221
 50
306.4261495124256953
 51
335.9267624718390834
  0
ARC
  5
15744
  8
0
 10
3500.0040809473262016
 20
168.7630861012445109
 30
0.0
 40
0.1196783346568372
 50
294.2246778777616214
 51
309.7787522012857266
  0
ARC
  5
15745
  8
0
 10
3499.7740790496468435
 20
169.1830680942007916
 30
0.0
 40
0.5982233072538916
 50
293.9926357749645831
 51
297.8113105531521114
  0
ARC
  5
15746
  8
0
 10
3499.7926893332592044
 20
169.122255443730694
 30
0.0
 40
0.535153471477344
 50
279.0141694714812957
 51
294.8197654210846963
  0
ARC
  5
15747
  8
0
 10
3499.7818460562380096
 20
169.1134854547372868
 30
0.0
 40
0.5283289042506463
 50
269.4333830097834266
 51
280.3246975471050177
  0
ARC
  5
15748
  8
0
 10
3499.7774128010460117
 20
169.219317000612989
 30
0.0
 40
0.6019739762488153
 50
281.6494592803794035
 51
290.1749686631131908
  0
ARC
  5
15749
  8
0
 10
3499.7793068428268271
 20
169.2141621975009116
 30
0.0
 40
0.5964822197544738
 50
290.1749686631131908
 51
292.6342632734405811
  0
ARC
  5
1574A
  8
0
 10
3499.9779044924521259
 20
168.6349076363181041
 30
0.0
 40
0.042223023496074
 50
42.8466087165953127
 51
53.4636038727823077
  0
LINE
  5
1574B
  8
0
 10
3500.0030412644709941
 20
168.6688329425888924
 30
0.0
 11
3500.0091743350549223
 21
168.6713654614889037
 31
0.0
  0
LINE
  5
1574C
  8
0
 10
3500.0091743349721582
 20
168.6713654614534903
 30
0.0
 11
3500.0190168546691893
 21
168.6694878396747015
 31
0.0
  0
LINE
  5
1574D
  8
0
 10
3500.0190168546691893
 20
168.6694878396747015
 30
0.0
 11
3500.0091743350549223
 21
168.6597040655595094
 31
0.0
  0
LINE
  5
1574E
  8
0
 10
3500.0091743350549223
 20
168.6597040655595094
 30
0.0
 11
3499.9897819460979917
 21
168.6520157611253126
 31
0.0
  0
LINE
  5
1574F
  8
0
 10
3499.9897819460979917
 20
168.6520157611253126
 30
0.0
 11
3499.9894892955858268
 21
168.6521588714811912
 31
0.0
  0
LINE
  5
15750
  8
0
 10
3499.9894892955858268
 20
168.6521588714811912
 30
0.0
 11
3499.9865296988209593
 21
168.6548324857589876
 31
0.0
  0
LINE
  5
15751
  8
0
 10
3499.8241449070928866
 20
168.6839332350187135
 30
0.0
 11
3499.814302387429052
 21
168.6934087466634082
 31
0.0
  0
LINE
  5
15752
  8
0
 10
3499.814302387429052
 20
168.6934087466634082
 30
0.0
 11
3499.7946173478721903
 21
168.6924427116398135
 31
0.0
  0
LINE
  5
15753
  8
0
 10
3499.7946173478721903
 20
168.6924427116398135
 30
0.0
 11
3499.7847748283470537
 21
168.6820220062319038
 31
0.0
  0
LINE
  5
15754
  8
0
 10
3499.7847748283470537
 20
168.6820220062319038
 30
0.0
 11
3499.7946173480368088
 21
168.6726176514324038
 31
0.0
  0
LINE
  5
15755
  8
0
 10
3499.7946173480368088
 20
168.6726176514324038
 30
0.0
 11
3499.8142685943671495
 21
168.673560975384504
 31
0.0
  0
LINE
  5
15756
  8
0
 10
3499.8142685943671495
 20
168.673560975384504
 30
0.0
 11
3499.8241449070828821
 21
168.6839332350321001
 31
0.0
  0
LINE
  5
15757
  8
0
 10
3499.814302387429052
 20
168.6934087466634082
 30
0.0
 11
3499.8142685943671495
 21
168.673560975384504
 31
0.0
  0
LINE
  5
15758
  8
0
 10
3499.7946173481059304
 20
168.6726176513573989
 30
0.0
 11
3499.7946173478721903
 21
168.6924427116398135
 31
0.0
  0
LINE
  5
15759
  8
0
 10
3499.8519837567168906
 20
168.7039741825076931
 30
0.0
 11
3499.8421412370707912
 21
168.7139497560746122
 31
0.0
  0
LINE
  5
1575A
  8
0
 10
3499.8421412370707912
 20
168.7139497560746122
 30
0.0
 11
3499.8224561976708173
 21
168.7119683489889042
 31
0.0
  0
LINE
  5
1575B
  8
0
 10
3499.8224561976708173
 20
168.7119683489889042
 30
0.0
 11
3499.8126136780238085
 21
168.7000625674243111
 31
0.0
  0
LINE
  5
1575C
  8
0
 10
3499.8126136780238085
 20
168.7000625674243111
 30
0.0
 11
3499.8224934321629007
 21
168.6901967060169056
 31
0.0
  0
LINE
  5
1575D
  8
0
 10
3499.8224934321629007
 20
168.6901967060169056
 30
0.0
 11
3499.8421082295958513
 21
168.6921210425429933
 31
0.0
  0
LINE
  5
1575E
  8
0
 10
3499.8421082295958513
 20
168.6921210425429933
 30
0.0
 11
3499.8519837567068862
 21
168.7039741825211081
 31
0.0
  0
LINE
  5
1575F
  8
0
 10
3499.8421412370707912
 20
168.7139497560746122
 30
0.0
 11
3499.8421082295958513
 21
168.6921210425429933
 31
0.0
  0
LINE
  5
15760
  8
0
 10
3499.8224934322311128
 20
168.6901967059419007
 30
0.0
 11
3499.8224561976708173
 21
168.7119683489889042
 31
0.0
  0
LINE
  5
15761
  8
0
 10
3499.8519837567578179
 20
168.6714175246835907
 30
0.0
 11
3499.842389238207943
 21
168.6793174851038088
 31
0.0
  0
LINE
  5
15762
  8
0
 10
3499.842389238207943
 20
168.6793174851038088
 30
0.0
 11
3499.8224561975212055
 21
168.6776258183199957
 31
0.0
  0
LINE
  5
15763
  8
0
 10
3499.8224561975212055
 20
168.6776258183199957
 30
0.0
 11
3499.8126136779869739
 21
168.6676420110547099
 31
0.0
  0
LINE
  5
15764
  8
0
 10
3499.8126136779869739
 20
168.6676420110547099
 30
0.0
 11
3499.822456197775864
 21
168.6595848623279892
 31
0.0
  0
LINE
  5
15765
  8
0
 10
3499.822456197775864
 20
168.6595848623279892
 30
0.0
 11
3499.8418572271889389
 21
168.6614241472809965
 31
0.0
  0
LINE
  5
15766
  8
0
 10
3499.8418572271889389
 20
168.6614241472809965
 30
0.0
 11
3499.8519837567478135
 21
168.671417524697091
 31
0.0
  0
LINE
  5
15767
  8
0
 10
3499.842389238207943
 20
168.6793174851038088
 30
0.0
 11
3499.8418572271889389
 21
168.6614241472809965
 31
0.0
  0
LINE
  5
15768
  8
0
 10
3499.8224561978449856
 20
168.6595848622530127
 30
0.0
 11
3499.8224561975212055
 21
168.6776258183199957
 31
0.0
  0
LINE
  5
15769
  8
0
 10
3499.8798226064518531
 20
168.6913137451807927
 30
0.0
 11
3499.869980086799842
 21
168.6998846190147106
 31
0.0
  0
LINE
  5
1576A
  8
0
 10
3499.869980086799842
 20
168.6998846190147106
 30
0.0
 11
3499.8502950473330202
 21
168.696956387191392
 31
0.0
  0
LINE
  5
1576B
  8
0
 10
3499.8502950473330202
 20
168.696956387191392
 30
0.0
 11
3499.8404525276569075
 21
168.6855216971013078
 31
0.0
  0
LINE
  5
1576C
  8
0
 10
3499.8404525276569075
 20
168.6855216971013078
 30
0.0
 11
3499.8502950473721285
 21
168.6770348602888987
 31
0.0
  0
LINE
  5
1576D
  8
0
 10
3499.8502950473721285
 20
168.6770348602888987
 30
0.0
 11
3499.8699800867229897
 21
168.6798996546523028
 31
0.0
  0
LINE
  5
1576E
  8
0
 10
3499.8699800867229897
 20
168.6798996546523028
 30
0.0
 11
3499.8798226064418486
 21
168.691313745194293
 31
0.0
  0
LINE
  5
1576F
  8
0
 10
3499.869980086799842
 20
168.6998846190147106
 30
0.0
 11
3499.8699800867229897
 21
168.6798996546523028
 31
0.0
  0
LINE
  5
15770
  8
0
 10
3499.8502950474398858
 20
168.6770348602138938
 30
0.0
 11
3499.8502950473330202
 21
168.696956387191392
 31
0.0
  0
LINE
  5
15771
  8
0
 10
3499.8798226064131995
 20
168.6616200418129097
 30
0.0
 11
3499.8699800867329941
 21
168.6684163479054916
 31
0.0
  0
LINE
  5
15772
  8
0
 10
3499.8699800867329941
 20
168.6684163479054916
 30
0.0
 11
3499.8502950471729491
 21
168.6655842922282886
 31
0.0
  0
LINE
  5
15773
  8
0
 10
3499.8502950471729491
 20
168.6655842922282886
 30
0.0
 11
3499.8404525276341701
 21
168.6559977704845039
 31
0.0
  0
LINE
  5
15774
  8
0
 10
3499.8404525276341701
 20
168.6559977704845039
 30
0.0
 11
3499.8502950473721285
 21
168.6492413218888942
 31
0.0
  0
LINE
  5
15775
  8
0
 10
3499.8502950473721285
 20
168.6492413218888942
 30
0.0
 11
3499.8699539401682159
 21
168.6520277873881071
 31
0.0
  0
LINE
  5
15776
  8
0
 10
3499.8699539401682159
 20
168.6520277873881071
 30
0.0
 11
3499.8798226064031951
 21
168.6616200418262963
 31
0.0
  0
LINE
  5
15777
  8
0
 10
3499.8699800867329941
 20
168.6684163479054916
 30
0.0
 11
3499.8699539401682159
 21
168.6520277873881071
 31
0.0
  0
LINE
  5
15778
  8
0
 10
3499.8502950474398858
 20
168.6492413218138893
 30
0.0
 11
3499.8502950471729491
 21
168.6655842922282886
 31
0.0
  0
LINE
  5
15779
  8
0
 10
3499.8241449070910676
 20
168.6545102045363933
 30
0.0
 11
3499.814299264679903
 21
168.662151625138506
 31
0.0
  0
LINE
  5
1577A
  8
0
 10
3499.814299264679903
 20
168.662151625138506
 30
0.0
 11
3499.7946727695198206
 21
168.661218604013186
 31
0.0
  0
LINE
  5
1577B
  8
0
 10
3499.7946727695198206
 20
168.661218604013186
 30
0.0
 11
3499.7847748283438705
 21
168.652598975749612
 31
0.0
  0
LINE
  5
1577C
  8
0
 10
3499.7847748283438705
 20
168.652598975749612
 30
0.0
 11
3499.7946173479781464
 21
168.6449370168184032
 31
0.0
  0
LINE
  5
1577D
  8
0
 10
3499.7946173479781464
 20
168.6449370168184032
 30
0.0
 11
3499.8142715205040076
 21
168.6458565624811001
 31
0.0
  0
LINE
  5
1577E
  8
0
 10
3499.8142715205040076
 20
168.6458565624811001
 30
0.0
 11
3499.8241449070810631
 21
168.6545102045498936
 31
0.0
  0
LINE
  5
1577F
  8
0
 10
3499.814299264679903
 20
168.662151625138506
 30
0.0
 11
3499.8142715205040076
 21
168.6458565624811001
 31
0.0
  0
LINE
  5
15780
  8
0
 10
3499.7946173480459038
 20
168.6449370167433983
 30
0.0
 11
3499.7946727695198206
 21
168.661218604013186
 31
0.0
  0
LINE
  5
15781
  8
0
 10
3499.8519837567200739
 20
168.6447139123660861
 30
0.0
 11
3499.8421412370707912
 21
168.6511213227888959
 31
0.0
  0
LINE
  5
15782
  8
0
 10
3499.8421412370707912
 20
168.6511213227888959
 30
0.0
 11
3499.8224561976708173
 21
168.6492674476889135
 31
0.0
  0
LINE
  5
15783
  8
0
 10
3499.8224561976708173
 20
168.6492674476889135
 30
0.0
 11
3499.8126136780037996
 21
168.6410273535732074
 31
0.0
  0
LINE
  5
15784
  8
0
 10
3499.8126136780037996
 20
168.6410273535732074
 30
0.0
 11
3499.8224561976021505
 21
168.6346441135210057
 31
0.0
  0
LINE
  5
15785
  8
0
 10
3499.8224561976021505
 20
168.6346441135210057
 30
0.0
 11
3499.8421140972568537
 21
168.6364739841824871
 31
0.0
  0
LINE
  5
15786
  8
0
 10
3499.8421140972568537
 20
168.6364739841824871
 30
0.0
 11
3499.8519837567100694
 21
168.6447139123795012
 31
0.0
  0
LINE
  5
15787
  8
0
 10
3499.8421412370707912
 20
168.6511213227888959
 30
0.0
 11
3499.8421140972568537
 21
168.6364739841824871
 31
0.0
  0
LINE
  5
15788
  8
0
 10
3499.8224561976699079
 20
168.6346441134460008
 30
0.0
 11
3499.8224561976708173
 21
168.6492674476889135
 31
0.0
  0
LINE
  5
15789
  8
0
 10
3499.963339155374797
 20
168.697250203176992
 30
0.0
 11
3499.9534966357050507
 21
168.7035626798707995
 31
0.0
  0
LINE
  5
1578A
  8
0
 10
3499.9534966357050507
 20
168.7035626798707995
 30
0.0
 11
3499.9338115962509619
 21
168.6976059347774139
 31
0.0
  0
LINE
  5
1578B
  8
0
 10
3499.9338115962509619
 20
168.6976059347774139
 30
0.0
 11
3499.923969076647154
 21
168.6854526863249077
 31
0.0
  0
LINE
  5
1578C
  8
0
 10
3499.923969076647154
 20
168.6854526863249077
 30
0.0
 11
3499.9338115963419114
 21
168.6791976450587924
 31
0.0
  0
LINE
  5
1578D
  8
0
 10
3499.9338115963419114
 20
168.6791976450587924
 30
0.0
 11
3499.9534966356709447
 21
168.6850395349889027
 31
0.0
  0
LINE
  5
1578E
  8
0
 10
3499.9534966356709447
 20
168.6850395349889027
 30
0.0
 11
3499.9633391553647925
 21
168.6972502031904924
 31
0.0
  0
LINE
  5
1578F
  8
0
 10
3499.9534966357050507
 20
168.7035626798707995
 30
0.0
 11
3499.9534966356709447
 21
168.6850395349889027
 31
0.0
  0
LINE
  5
15790
  8
0
 10
3499.9338115964101235
 20
168.6791976449837875
 30
0.0
 11
3499.9338115962509619
 21
168.6976059347774139
 31
0.0
  0
LINE
  5
15791
  8
0
 10
3500.0190168546578207
 20
168.6914504642165014
 30
0.0
 11
3500.0091743349789795
 21
168.6950341331373977
 31
0.0
  0
LINE
  5
15792
  8
0
 10
3500.0091743349789795
 20
168.6950341331373977
 30
0.0
 11
3499.989715084413092
 21
168.6871185814962075
 31
0.0
  0
LINE
  5
15793
  8
0
 10
3499.989715084413092
 20
168.6871185814962075
 30
0.0
 11
3499.9796467759952066
 21
168.6755502096216901
 31
0.0
  0
LINE
  5
15794
  8
0
 10
3499.9796467759952066
 20
168.6755502096216901
 30
0.0
 11
3499.9894892957358934
 21
168.6719507737396953
 31
0.0
  0
LINE
  5
15795
  8
0
 10
3499.9894892957358934
 20
168.6719507737396953
 30
0.0
 11
3500.0091743349721582
 21
168.6798480158888935
 31
0.0
  0
LINE
  5
15796
  8
0
 10
3500.0091743349721582
 20
168.6798480158888935
 30
0.0
 11
3500.0190168546478162
 21
168.6914504642300017
 31
0.0
  0
LINE
  5
15797
  8
0
 10
3500.0091743349789795
 20
168.6950341331373977
 30
0.0
 11
3500.0091743349721582
 21
168.6798480158888935
 31
0.0
  0
LINE
  5
15798
  8
0
 10
3499.989489295803196
 20
168.6719507736646904
 30
0.0
 11
3499.989715084413092
 21
168.6871185814962075
 31
0.0
  0
LINE
  5
15799
  8
0
 10
3499.9911780050410925
 20
168.6929214128657009
 30
0.0
 11
3499.981335485343152
 21
168.6978755447975971
 31
0.0
  0
LINE
  5
1579A
  8
0
 10
3499.981335485343152
 20
168.6978755447975971
 30
0.0
 11
3499.9616272371617924
 21
168.6908898983319034
 31
0.0
  0
LINE
  5
1579B
  8
0
 10
3499.9616272371617924
 20
168.6908898983319034
 30
0.0
 11
3499.9518079262570609
 21
168.6791207098071084
 31
0.0
  0
LINE
  5
1579C
  8
0
 10
3499.9518079262570609
 20
168.6791207098071084
 30
0.0
 11
3499.9616504459909265
 21
168.6741894398516877
 31
0.0
  0
LINE
  5
1579D
  8
0
 10
3499.9616504459909265
 20
168.6741894398516877
 30
0.0
 11
3499.9810309293079627
 21
168.6809218851512071
 31
0.0
  0
LINE
  5
1579E
  8
0
 10
3499.9810309293079627
 20
168.6809218851512071
 30
0.0
 11
3499.9911780050319976
 21
168.6929214128792012
 31
0.0
  0
LINE
  5
1579F
  8
0
 10
3499.981335485343152
 20
168.6978755447975971
 30
0.0
 11
3499.9810309293079627
 21
168.6809218851512071
 31
0.0
  0
LINE
  5
157A0
  8
0
 10
3499.9616504460591386
 20
168.6741894397767112
 30
0.0
 11
3499.9616272371617924
 21
168.6908898983319034
 31
0.0
  0
LINE
  5
157A1
  8
0
 10
3499.9633391553470574
 20
168.6699045207180063
 30
0.0
 11
3499.9534966356018231
 21
168.6744783717772975
 31
0.0
  0
LINE
  5
157A2
  8
0
 10
3499.9534966356018231
 20
168.6744783717772975
 30
0.0
 11
3499.9338115963341806
 21
168.6686944516393964
 31
0.0
  0
LINE
  5
157A3
  8
0
 10
3499.9338115963341806
 20
168.6686944516393964
 30
0.0
 11
3499.9239690766198692
 21
168.6584076981316969
 31
0.0
  0
LINE
  5
157A4
  8
0
 10
3499.9239690766198692
 20
168.6584076981316969
 30
0.0
 11
3499.9338115962709708
 21
168.6539101670688012
 31
0.0
  0
LINE
  5
157A5
  8
0
 10
3499.9338115962709708
 20
168.6539101670688012
 30
0.0
 11
3499.9534966356709447
 21
168.6595567744888911
 31
0.0
  0
LINE
  5
157A6
  8
0
 10
3499.9534966356709447
 20
168.6595567744888911
 30
0.0
 11
3499.9633391553379624
 21
168.6699045207315066
 31
0.0
  0
LINE
  5
157A7
  8
0
 10
3499.9534966356018231
 20
168.6744783717772975
 30
0.0
 11
3499.9534966356709447
 21
168.6595567744888911
 31
0.0
  0
LINE
  5
157A8
  8
0
 10
3499.9338115963391829
 20
168.6539101669937963
 30
0.0
 11
3499.9338115963341806
 21
168.6686944516393964
 31
0.0
  0
LINE
  5
157A9
  8
0
 10
3499.9355003057330578
 20
168.6743065168234068
 30
0.0
 11
3499.9256577859709978
 21
168.6801982376468914
 31
0.0
  0
LINE
  5
157AA
  8
0
 10
3499.9256577859709978
 20
168.6801982376468914
 30
0.0
 11
3499.9059727466710683
 21
168.6753830777545033
 31
0.0
  0
LINE
  5
157AB
  8
0
 10
3499.9059727466710683
 20
168.6753830777545033
 30
0.0
 11
3499.8961302269931366
 21
168.6647500133576045
 31
0.0
  0
LINE
  5
157AC
  8
0
 10
3499.8961302269931366
 20
168.6647500133576045
 30
0.0
 11
3499.9059727465441938
 21
168.6588949231093864
 31
0.0
  0
LINE
  5
157AD
  8
0
 10
3499.9059727465441938
 20
168.6588949231093864
 30
0.0
 11
3499.9256577861378901
 21
168.6636368282929084
 31
0.0
  0
LINE
  5
157AE
  8
0
 10
3499.9256577861378901
 20
168.6636368282929084
 30
0.0
 11
3499.9355003057230533
 21
168.6743065168369071
 31
0.0
  0
LINE
  5
157AF
  8
0
 10
3499.9256577859709978
 20
168.6801982376468914
 30
0.0
 11
3499.9256577861378901
 21
168.6636368282929084
 31
0.0
  0
LINE
  5
157B0
  8
0
 10
3499.9059727466119512
 20
168.6588949230344099
 30
0.0
 11
3499.9059727466710683
 21
168.6753830777545033
 31
0.0
  0
LINE
  5
157B1
  8
0
 10
3499.9076614560140115
 20
168.6814408713347007
 30
0.0
 11
3499.8978189363710953
 21
168.6886580207327029
 31
0.0
  0
LINE
  5
157B2
  8
0
 10
3499.8978189363710953
 20
168.6886580207327029
 30
0.0
 11
3499.8781338969711214
 21
168.6847900196173953
 31
0.0
  0
LINE
  5
157B3
  8
0
 10
3499.8781338969711214
 20
168.6847900196173953
 30
0.0
 11
3499.8682913773459404
 21
168.6737765655925045
 31
0.0
  0
LINE
  5
157B4
  8
0
 10
3499.8682913773459404
 20
168.6737765655925045
 30
0.0
 11
3499.8781338969711214
 21
168.6666204165888985
 31
0.0
  0
LINE
  5
157B5
  8
0
 10
3499.8781338969711214
 20
168.6666204165888985
 30
0.0
 11
3499.8978189363629099
 21
168.6704175581791105
 31
0.0
  0
LINE
  5
157B6
  8
0
 10
3499.8978189363629099
 20
168.6704175581791105
 30
0.0
 11
3499.9076614560040071
 21
168.6814408713480873
 31
0.0
  0
LINE
  5
157B7
  8
0
 10
3499.8978189363710953
 20
168.6886580207327029
 30
0.0
 11
3499.8978189363629099
 21
168.6704175581791105
 31
0.0
  0
LINE
  5
157B8
  8
0
 10
3499.8781338970397883
 20
168.6666204165138936
 30
0.0
 11
3499.8781338969711214
 21
168.6847900196173953
 31
0.0
  0
LINE
  5
157B9
  8
0
 10
3499.9076614560917733
 20
168.6544952246910043
 30
0.0
 11
3499.8978189363488127
 21
168.659999172481804
 31
0.0
  0
LINE
  5
157BA
  8
0
 10
3499.8978189363488127
 20
168.659999172481804
 30
0.0
 11
3499.8781338969711214
 21
168.6562378739893973
 31
0.0
  0
LINE
  5
157BB
  8
0
 10
3499.8781338969711214
 20
168.6562378739893973
 30
0.0
 11
3499.8682913773709515
 21
168.6470167656001991
 31
0.0
  0
LINE
  5
157BC
  8
0
 10
3499.8682913773709515
 20
168.6470167656001991
 30
0.0
 11
3499.8784486266290514
 21
168.6415888459528105
 31
0.0
  0
LINE
  5
157BD
  8
0
 10
3499.8784486266290514
 20
168.6415888459528105
 30
0.0
 11
3499.8978189363829188
 21
168.6452521772193052
 31
0.0
  0
LINE
  5
157BE
  8
0
 10
3499.8978189363829188
 20
168.6452521772193052
 30
0.0
 11
3499.9076614560808594
 21
168.6544952247043909
 31
0.0
  0
LINE
  5
157BF
  8
0
 10
3499.8978189363488127
 20
168.659999172481804
 30
0.0
 11
3499.8978189363829188
 21
168.6452521772193052
 31
0.0
  0
LINE
  5
157C0
  8
0
 10
3499.8784486266968088
 20
168.6415888458778056
 30
0.0
 11
3499.8781338969711214
 21
168.6562378739893973
 31
0.0
  0
LINE
  5
157C1
  8
0
 10
3499.9076614560199232
 20
168.714368706658405
 30
0.0
 11
3499.8976636194101957
 21
168.7215833248311867
 31
0.0
  0
LINE
  5
157C2
  8
0
 10
3499.8976636194101957
 20
168.7215833248311867
 30
0.0
 11
3499.8781338969788521
 21
168.7194232198762904
 31
0.0
  0
LINE
  5
157C3
  8
0
 10
3499.8781338969788521
 20
168.7194232198762904
 30
0.0
 11
3499.8682913772681786
 21
168.7064192784050078
 31
0.0
  0
LINE
  5
157C4
  8
0
 10
3499.8682913772681786
 20
168.7064192784050078
 30
0.0
 11
3499.8781338970270554
 21
168.6974575728860941
 31
0.0
  0
LINE
  5
157C5
  8
0
 10
3499.8781338970270554
 20
168.6974575728860941
 30
0.0
 11
3499.8978189363710953
 21
168.7013805264888902
 31
0.0
  0
LINE
  5
157C6
  8
0
 10
3499.8978189363710953
 20
168.7013805264888902
 30
0.0
 11
3499.9076614560099188
 21
168.7143687066719053
 31
0.0
  0
LINE
  5
157C7
  8
0
 10
3499.8976636194101957
 20
168.7215833248311867
 30
0.0
 11
3499.8978189363710953
 21
168.7013805264888902
 31
0.0
  0
LINE
  5
157C8
  8
0
 10
3499.878133897096177
 20
168.6974575728110892
 30
0.0
 11
3499.8781338969788521
 21
168.7194232198762904
 31
0.0
  0
LINE
  5
157C9
  8
0
 10
3499.9355003057548856
 20
168.7043970476235017
 30
0.0
 11
3499.9256577859828212
 21
168.7120781680008861
 31
0.0
  0
LINE
  5
157CA
  8
0
 10
3499.9256577859828212
 20
168.7120781680008861
 30
0.0
 11
3499.9059727466710683
 21
168.7070924725194061
 31
0.0
  0
LINE
  5
157CB
  8
0
 10
3499.9059727466710683
 20
168.7070924725194061
 30
0.0
 11
3499.8961302269999578
 21
168.6945398221824917
 31
0.0
  0
LINE
  5
157CC
  8
0
 10
3499.8961302269999578
 20
168.6945398221824917
 30
0.0
 11
3499.9059727466710683
 21
168.6869484127886096
 31
0.0
  0
LINE
  5
157CD
  8
0
 10
3499.9059727466710683
 20
168.6869484127886096
 30
0.0
 11
3499.9256577859709978
 21
168.6918215428154042
 31
0.0
  0
LINE
  5
157CE
  8
0
 10
3499.9256577859709978
 20
168.6918215428154042
 30
0.0
 11
3499.9355003057448812
 21
168.7043970476368884
 31
0.0
  0
LINE
  5
157CF
  8
0
 10
3499.9256577859828212
 20
168.7120781680008861
 30
0.0
 11
3499.9256577859709978
 21
168.6918215428154042
 31
0.0
  0
LINE
  5
157D0
  8
0
 10
3499.9059727467388257
 20
168.6869484127136047
 30
0.0
 11
3499.9059727466710683
 21
168.7070924725194061
 31
0.0
  0
LINE
  5
157D1
  8
0
 10
3499.792574370102102
 20
168.7273127201725913
 30
0.0
 11
3499.784774828378886
 21
168.7175253527236976
 31
0.0
  0
LINE
  5
157D2
  8
0
 10
3499.784774828378886
 20
168.7175253527236976
 30
0.0
 11
3499.7946173480709149
 21
168.7061974820888963
 31
0.0
  0
LINE
  5
157D3
  8
0
 10
3499.7946173480709149
 20
168.7061974820888963
 30
0.0
 11
3499.8143023873521997
 21
168.7071792177956979
 31
0.0
  0
LINE
  5
157D4
  8
0
 10
3499.8143023873521997
 20
168.7071792177956979
 30
0.0
 11
3499.8241449070751514
 21
168.7195180555843876
 31
0.0
  0
LINE
  5
157D5
  8
0
 10
3499.8241449070751514
 20
168.7195180555843876
 30
0.0
 11
3499.8178257650120031
 21
168.7267800602969032
 31
0.0
  0
LINE
  5
157D6
  8
0
 10
3499.8143020896050075
 20
168.7268862580239102
 30
0.0
 11
3499.8143023874340543
 21
168.707179217801297
 31
0.0
  0
LINE
  5
157D7
  8
0
 10
3499.7946173480631842
 20
168.7061974819999932
 30
0.0
 11
3499.7946173480631842
 21
168.7273138568752984
 31
0.0
  0
LINE
  5
157D8
  8
0
 10
3499.8437959246411992
 20
168.7256673414397881
 30
0.0
 11
3499.8404525277101129
 21
168.7211747021613917
 31
0.0
  0
LINE
  5
157D9
  8
0
 10
3499.8404525277101129
 20
168.7211747021613917
 30
0.0
 11
3499.8502950474171485
 21
168.7107850205501052
 31
0.0
  0
LINE
  5
157DA
  8
0
 10
3499.8502950474171485
 20
168.7107850205501052
 30
0.0
 11
3499.8699800867598242
 21
168.7137618642265977
 31
0.0
  0
LINE
  5
157DB
  8
0
 10
3499.8699800867598242
 20
168.7137618642265977
 30
0.0
 11
3499.8771942946200397
 21
168.7235428619034963
 31
0.0
  0
LINE
  5
157DC
  8
0
 10
3499.8699918560050719
 20
168.7241026875369982
 30
0.0
 11
3499.8699800866711485
 21
168.7137618642888981
 31
0.0
  0
LINE
  5
157DD
  8
0
 10
3499.8503026015059731
 20
168.7253476178370022
 30
0.0
 11
3499.8502950474171485
 21
168.7107850205501052
 31
0.0
  0
LINE
  5
157DE
  8
0
 10
3499.9239690766198692
 20
168.7185332395812054
 30
0.0
 11
3499.9338115962709708
 21
168.7104587486304865
 31
0.0
  0
LINE
  5
157DF
  8
0
 10
3499.9338115962709708
 20
168.7104587486304865
 30
0.0
 11
3499.9486199753168876
 21
168.7149337263693951
 31
0.0
  0
LINE
  5
157E0
  8
0
 10
3499.9338115963601012
 20
168.7104587485613081
 30
0.0
 11
3499.9338115963601012
 21
168.7171786644817075
 31
0.0
  0
LINE
  5
157E1
  8
0
 10
3499.955089933713225
 20
168.713876464988914
 30
0.0
 11
3499.9518079262861647
 21
168.7093670388169926
 31
0.0
  0
LINE
  5
157E2
  8
0
 10
3499.9518079262861647
 20
168.7093670388169926
 30
0.0
 11
3499.9616504459709176
 21
168.7026749559136078
 31
0.0
  0
LINE
  5
157E3
  8
0
 10
3499.9616504459709176
 20
168.7026749559136078
 30
0.0
 11
3499.9802642902859589
 21
168.7093167673909875
 31
0.0
  0
LINE
  5
157E4
  8
0
 10
3499.9616504459709176
 20
168.7026749558889094
 30
0.0
 11
3499.9616504459709176
 21
168.7127567209969925
 31
0.0
  0
LINE
  5
157E5
  8
0
 10
3499.9838004859238936
 20
168.7086190492786102
 30
0.0
 11
3499.9796467759520056
 21
168.7030485504583055
 31
0.0
  0
LINE
  5
157E6
  8
0
 10
3499.9796467759520056
 20
168.7030485504583055
 30
0.0
 11
3499.9894892956458534
 21
168.6977229565189873
 31
0.0
  0
LINE
  5
157E7
  8
0
 10
3499.9894892956458534
 20
168.6977229565189873
 30
0.0
 11
3500.0050675920811045
 21
168.7040448785527929
 31
0.0
  0
LINE
  5
157E8
  8
0
 10
3499.9894892955708201
 20
168.6977229564886898
 30
0.0
 11
3499.9894892955708201
 21
168.7075597756355876
 31
0.0
  0
LINE
  5
157E9
  8
0
 10
3500.0099534363139355
 20
168.7027532168199002
 30
0.0
 11
3500.0074856256269413
 21
168.6995847512463911
 31
0.0
  0
LINE
  5
157EA
  8
0
 10
3500.0074856256269413
 20
168.6995847512463911
 30
0.0
 11
3500.0173281452780429
 21
168.695632467414498
 31
0.0
  0
LINE
  5
157EB
  8
0
 10
3500.0173281452780429
 20
168.695632467414498
 30
0.0
 11
3500.0238376511902061
 21
168.6985730273412969
 31
0.0
  0
LINE
  5
157EC
  8
0
 10
3500.0173281452712217
 20
168.695632467411599
 30
0.0
 11
3500.0173281452712217
 21
168.7006279687182086
 31
0.0
  0
LINE
  5
157ED
  8
0
 10
3500.0356007455379768
 20
168.6944208636984115
 30
0.0
 11
3500.0173281452362062
 21
168.6859908412149878
 31
0.0
  0
LINE
  5
157EE
  8
0
 10
3500.0173281452362062
 20
168.6859908412149878
 30
0.0
 11
3500.0074856256228486
 21
168.6747914849948984
 31
0.0
  0
LINE
  5
157EF
  8
0
 10
3500.0074856256228486
 20
168.6747914849948984
 30
0.0
 11
3500.0173281452648553
 21
168.6725535839703127
 31
0.0
  0
LINE
  5
157F0
  8
0
 10
3500.0173281452648553
 20
168.6725535839703127
 30
0.0
 11
3500.0370131845329524
 21
168.6815743219335104
 31
0.0
  0
LINE
  5
157F1
  8
0
 10
3500.0370131845329524
 20
168.6815743219335104
 30
0.0
 11
3500.0449741201159668
 21
168.6906928223525881
 31
0.0
  0
LINE
  5
157F2
  8
0
 10
3500.048093186495862
 20
168.6893668567959992
 30
0.0
 11
3500.0451669949370626
 21
168.687892989995305
 31
0.0
  0
LINE
  5
157F3
  8
0
 10
3500.0451669949370626
 20
168.687892989995305
 30
0.0
 11
3500.0353244752900537
 21
168.6769429344120113
 31
0.0
  0
LINE
  5
157F4
  8
0
 10
3500.0353244752900537
 20
168.6769429344120113
 30
0.0
 11
3500.0451669949511597
 21
168.6761207524733095
 31
0.0
  0
LINE
  5
157F5
  8
0
 10
3500.0451669949511597
 20
168.6761207524733095
 30
0.0
 11
3500.0601442628958466
 21
168.6838266402247939
 31
0.0
  0
LINE
  5
157F6
  8
0
 10
3500.0673209102010333
 20
168.6801996837828028
 30
0.0
 11
3500.0648520342938355
 21
168.6800067146355104
 31
0.0
  0
LINE
  5
157F7
  8
0
 10
3500.0648520342938355
 20
168.6800067146355104
 30
0.0
 11
3500.0451669948711242
 21
168.6697802246889069
 31
0.0
  0
LINE
  5
157F8
  8
0
 10
3500.0451669948711242
 20
168.6697802246889069
 30
0.0
 11
3500.035324475057223
 21
168.6606324347577015
 31
0.0
  0
LINE
  5
157F9
  8
0
 10
3500.035324475057223
 20
168.6606324347577015
 30
0.0
 11
3500.045166994866122
 21
168.6615409012773057
 31
0.0
  0
LINE
  5
157FA
  8
0
 10
3500.045166994866122
 20
168.6615409012773057
 30
0.0
 11
3500.0648520340491814
 21
168.6717582691842949
 31
0.0
  0
LINE
  5
157FB
  8
0
 10
3500.0648520340491814
 20
168.6717582691842949
 30
0.0
 11
3500.0715055515352105
 21
168.6779667602245922
 31
0.0
  0
LINE
  5
157FC
  8
0
 10
3500.074694553919926
 20
168.670559567470093
 30
0.0
 11
3500.0648520342588199
 21
168.667670000952711
 31
0.0
  0
LINE
  5
157FD
  8
0
 10
3500.0648520342588199
 20
168.667670000952711
 30
0.0
 11
3500.0451669946260154
 21
168.6574298883313929
 31
0.0
  0
LINE
  5
157FE
  8
0
 10
3500.0451669946260154
 20
168.6574298883313929
 30
0.0
 11
3500.0353244751918282
 21
168.6500036253021904
 31
0.0
  0
LINE
  5
157FF
  8
0
 10
3500.0353244751918282
 20
168.6500036253021904
 30
0.0
 11
3500.0451669946241964
 21
168.6527052356300942
 31
0.0
  0
LINE
  5
15800
  8
0
 10
3500.0451669946241964
 20
168.6527052356300942
 30
0.0
 11
3500.0648520336699221
 21
168.6630182216144931
 31
0.0
  0
LINE
  5
15801
  8
0
 10
3500.0648520336699221
 20
168.6630182216144931
 30
0.0
 11
3500.074694554079997
 21
168.6705595675990139
 31
0.0
  0
LINE
  5
15802
  8
0
 10
3500.0468557042249813
 20
168.66021863477701
 30
0.0
 11
3500.0370131846721051
 21
168.6589301519161097
 31
0.0
  0
LINE
  5
15803
  8
0
 10
3500.046855704320933
 20
168.673688289386007
 30
0.0
 11
3500.0370131846329969
 21
168.6741406761080952
 31
0.0
  0
LINE
  5
15804
  8
0
 10
3500.0370131846329969
 20
168.6741406761080952
 30
0.0
 11
3500.0173281452921401
 21
168.6651582115167969
 31
0.0
  0
LINE
  5
15805
  8
0
 10
3500.0173281452921401
 20
168.6651582115167969
 30
0.0
 11
3500.0074856256251223
 21
168.6557513068611058
 31
0.0
  0
LINE
  5
15806
  8
0
 10
3500.0074856256251223
 20
168.6557513068611058
 30
0.0
 11
3500.0173281452712217
 21
168.6551987868417086
 31
0.0
  0
LINE
  5
15807
  8
0
 10
3500.0173281452712217
 20
168.6551987868417086
 30
0.0
 11
3500.0370131846721051
 21
168.6641513614081873
 31
0.0
  0
LINE
  5
15808
  8
0
 10
3500.0370131846721051
 20
168.6641513614081873
 30
0.0
 11
3500.046855704320933
 21
168.673688289386007
 31
0.0
  0
LINE
  5
15809
  8
0
 10
3500.0468557042249813
 20
168.66021863477701
 30
0.0
 11
3500.037013184602074
 21
168.6524225764048026
 31
0.0
  0
LINE
  5
1580A
  8
0
 10
3500.037013184602074
 20
168.6524225764048026
 30
0.0
 11
3500.0173281452712217
 21
168.6434401117847983
 31
0.0
  0
LINE
  5
1580B
  8
0
 10
3500.0173281452712217
 20
168.6434401117847983
 30
0.0
 11
3500.0074856255469058
 21
168.6422816522639891
 31
0.0
  0
LINE
  5
1580C
  8
0
 10
3500.0074856255469058
 20
168.6422816522639891
 30
0.0
 11
3500.0173281452712217
 21
168.6499775773889098
 31
0.0
  0
LINE
  5
1580D
  8
0
 10
3500.0173281452712217
 20
168.6499775773889098
 30
0.0
 11
3500.0370131846721051
 21
168.6589301519161097
 31
0.0
  0
LINE
  5
1580E
  8
0
 10
3500.046855703980782
 20
168.6525181050641891
 30
0.0
 11
3500.0370131846721051
 21
168.6494138035889137
 31
0.0
  0
LINE
  5
1580F
  8
0
 10
3500.0370131846721051
 20
168.6494138035889137
 30
0.0
 11
3500.0173281446559486
 21
168.6403930651609926
 31
0.0
  0
LINE
  5
15810
  8
0
 10
3500.0173281446559486
 20
168.6403930651609926
 30
0.0
 11
3500.0074856255641862
 21
168.634382521331105
 31
0.0
  0
LINE
  5
15811
  8
0
 10
3500.0074856255641862
 20
168.634382521331105
 30
0.0
 11
3500.0173281453039635
 21
168.6373334323853896
 31
0.0
  0
LINE
  5
15812
  8
0
 10
3500.0173281453039635
 20
168.6373334323853896
 30
0.0
 11
3500.0370131841841612
 21
168.6464468564689128
 31
0.0
  0
LINE
  5
15813
  8
0
 10
3500.0370131841841612
 20
168.6464468564689128
 30
0.0
 11
3500.0468557043359397
 21
168.6525181051912057
 31
0.0
  0
LINE
  5
15814
  8
0
 10
3500.0190168547401299
 20
168.6425485305097993
 30
0.0
 11
3500.0091743350080833
 21
168.6410132016073931
 31
0.0
  0
LINE
  5
15815
  8
0
 10
3500.0190168547401299
 20
168.6425485305097993
 30
0.0
 11
3500.0091743350049001
 21
168.6361777071143138
 31
0.0
  0
LINE
  5
15816
  8
0
 10
3500.0091743350049001
 20
168.6361777071143138
 30
0.0
 11
3500.0030412644709941
 21
168.6336451882889094
 31
0.0
  0
LINE
  5
15817
  8
0
 10
3500.0030412644709941
 20
168.6336451882889094
 30
0.0
 11
3500.0088614383771528
 21
168.6388572360710043
 31
0.0
  0
LINE
  5
15818
  8
0
 10
3500.0088614383771528
 20
168.6388572360710043
 30
0.0
 11
3500.0039282148718485
 21
168.63885723608891
 31
0.0
  0
LINE
  5
15819
  8
0
 10
3500.0091743349721582
 20
168.6410132015888905
 30
0.0
 11
3499.9897819460961728
 21
168.6333248972457
 31
0.0
  0
LINE
  5
1581A
  8
0
 10
3499.9897819460961728
 20
168.6333248972457
 30
0.0
 11
3499.9894892955021533
 21
168.6334680075225947
 31
0.0
  0
LINE
  5
1581B
  8
0
 10
3499.9894892955021533
 20
168.6334680075225947
 30
0.0
 11
3499.9822428873330864
 21
168.6338972507118115
 31
0.0
  0
LINE
  5
1581C
  8
0
 10
3499.9822428873330864
 20
168.6338972507118115
 30
0.0
 11
3499.960743043885941
 21
168.6433258091446135
 31
0.0
  0
LINE
  5
1581D
  8
0
 10
3499.960743043885941
 20
168.6433258091446135
 30
0.0
 11
3499.9584576740548982
 21
168.6452129838719998
 31
0.0
  0
LINE
  5
1581E
  8
0
 10
3500.01901685460507
 20
168.653217870754105
 30
0.0
 11
3500.0091743349839817
 21
168.6534072785028968
 31
0.0
  0
LINE
  5
1581F
  8
0
 10
3500.0091743349839817
 20
168.6534072785028968
 30
0.0
 11
3499.9910030242608627
 21
168.6461947624268021
 31
0.0
  0
LINE
  5
15820
  8
0
 10
3499.9910030242608627
 20
168.6461947624268021
 30
0.0
 11
3499.989489295632211
 21
168.6469376620134994
 31
0.0
  0
LINE
  5
15821
  8
0
 10
3499.989489295632211
 20
168.6469376620134994
 30
0.0
 11
3499.9796467759501866
 21
168.6474846493715916
 31
0.0
  0
LINE
  5
15822
  8
0
 10
3499.9796467759501866
 20
168.6474846493715916
 30
0.0
 11
3499.9894892955708201
 21
168.6386892169358873
 31
0.0
  0
LINE
  5
15823
  8
0
 10
3499.9894892955708201
 20
168.6386892169358873
 30
0.0
 11
3499.9910030241580898
 21
168.6379463172777946
 31
0.0
  0
LINE
  5
15824
  8
0
 10
3499.9910030241580898
 20
168.6379463172777946
 30
0.0
 11
3500.0091743349958051
 21
168.6451588334136886
 31
0.0
  0
LINE
  5
15825
  8
0
 10
3500.0091743349958051
 20
168.6451588334136886
 30
0.0
 11
3500.01901685460507
 21
168.653217870754105
 31
0.0
  0
LINE
  5
15826
  8
0
 10
3499.960743043885941
 20
168.6433258091446135
 30
0.0
 11
3499.9607430438709343
 21
168.63885723608891
 31
0.0
  0
LINE
  5
15827
  8
0
 10
3499.9607430438709343
 20
168.63885723608891
 30
0.0
 11
3499.9368988335309041
 21
168.63885723608891
 31
0.0
  0
ARC
  5
15828
  8
0
 10
3499.7765742766978292
 20
169.199504017151213
 30
0.0
 40
0.6070065626058183
 50
270.0044405847369831
 51
274.3708693450972191
  0
ARC
  5
15829
  8
0
 10
3499.7767139234060778
 20
169.1975009659774116
 30
0.0
 40
0.6049986944284387
 50
274.3721399081542245
 51
285.0110243845034006
  0
ARC
  5
1582A
  8
0
 10
3499.7778921150070346
 20
169.1931072768311139
 30
0.0
 40
0.600449778100362
 50
285.0110243845034006
 51
292.6226665105493225
  0
ARC
  5
1582B
  8
0
 10
3499.9688867131158077
 20
168.7685629726371133
 30
0.0
 40
0.1402558603474966
 50
286.6930161929323049
 51
290.9417864274457202
  0
LINE
  5
1582C
  8
0
 10
3500.0091743349721582
 20
168.6342178428888872
 30
0.0
 11
3499.9894892955471732
 21
168.6263206006061068
 31
0.0
  0
LINE
  5
1582D
  8
0
 10
3499.9894892955708201
 20
168.6263206005889117
 30
0.0
 11
3499.9796467753581055
 21
168.6216715911770052
 31
0.0
  0
LINE
  5
1582E
  8
0
 10
3499.9796467753581055
 20
168.6216715911770052
 30
0.0
 11
3499.9894892955708201
 21
168.624904406888902
 31
0.0
  0
LINE
  5
1582F
  8
0
 10
3499.9894892955708201
 20
168.624904406888902
 30
0.0
 11
3500.0091743349648823
 21
168.6329070696970973
 31
0.0
  0
LINE
  5
15830
  8
0
 10
3500.0091743349648823
 20
168.6329070696970973
 30
0.0
 11
3500.01901685467692
 21
168.6375718460201938
 31
0.0
  0
LINE
  5
15831
  8
0
 10
3499.9911780047928005
 20
168.6278621572544125
 30
0.0
 11
3499.9813354852840348
 21
168.6228567980265041
 31
0.0
  0
LINE
  5
15832
  8
0
 10
3499.9813354852840348
 20
168.6228567980265041
 30
0.0
 11
3499.9616504457130759
 21
168.6160674359992129
 31
0.0
  0
LINE
  5
15833
  8
0
 10
3499.9616504457130759
 20
168.6160674359992129
 30
0.0
 11
3499.951807926274796
 21
168.6143464967996124
 31
0.0
  0
LINE
  5
15834
  8
0
 10
3499.951807926274796
 20
168.6143464967996124
 30
0.0
 11
3499.9616504459709176
 21
168.6175202978884045
 31
0.0
  0
LINE
  5
15835
  8
0
 10
3499.9616504459709176
 20
168.6175202978884045
 30
0.0
 11
3499.9813354853708915
 21
168.6242759774889066
 31
0.0
  0
LINE
  5
15836
  8
0
 10
3499.9813354853708915
 20
168.6242759774889066
 30
0.0
 11
3499.9911780047928005
 21
168.6278621572544125
 31
0.0
  0
LINE
  5
15837
  8
0
 10
3499.9633391548982218
 20
168.616025902316693
 30
0.0
 11
3499.9534966357050507
 21
168.6139266014473037
 31
0.0
  0
LINE
  5
15838
  8
0
 10
3499.9534966357050507
 20
168.6139266014473037
 30
0.0
 11
3499.9338115962709708
 21
168.6082135351888951
 31
0.0
  0
LINE
  5
15839
  8
0
 10
3499.9338115962709708
 20
168.6082135351888951
 30
0.0
 11
3499.9239690765871273
 21
168.6045290798332132
 31
0.0
  0
LINE
  5
1583A
  8
0
 10
3499.9239690765871273
 20
168.6045290798332132
 30
0.0
 11
3499.9338115963328164
 21
168.6065673881751081
 31
0.0
  0
LINE
  5
1583B
  8
0
 10
3499.9338115963328164
 20
168.6065673881751081
 30
0.0
 11
3499.9534966356709447
 21
168.6123513082889076
 31
0.0
  0
LINE
  5
1583C
  8
0
 10
3499.9534966356709447
 20
168.6123513082889076
 30
0.0
 11
3499.9633391553588808
 21
168.6160259024329093
 31
0.0
  0
LINE
  5
1583D
  8
0
 10
3499.9355003057089561
 20
168.6096283815130903
 30
0.0
 11
3499.9256577852329428
 21
168.6055968592883971
 31
0.0
  0
LINE
  5
1583E
  8
0
 10
3499.9256577852329428
 20
168.6055968592883971
 30
0.0
 11
3499.9059727466838012
 21
168.6008907974238014
 31
0.0
  0
LINE
  5
1583F
  8
0
 10
3499.9059727466838012
 20
168.6008907974238014
 30
0.0
 11
3499.8961302269631233
 21
168.6002577120655985
 31
0.0
  0
LINE
  5
15840
  8
0
 10
3499.8961302269631233
 20
168.6002577120655985
 30
0.0
 11
3499.9059727466710683
 21
168.6024225048938945
 31
0.0
  0
LINE
  5
15841
  8
0
 10
3499.9059727466710683
 20
168.6024225048938945
 30
0.0
 11
3499.9256577859709978
 21
168.6071047032083925
 31
0.0
  0
LINE
  5
15842
  8
0
 10
3499.9256577859709978
 20
168.6071047032083925
 30
0.0
 11
3499.9355003056821261
 21
168.6096283815539039
 31
0.0
  0
LINE
  5
15843
  8
0
 10
3499.9076614558521214
 20
168.6006166064113074
 30
0.0
 11
3499.897818936350177
 21
168.5996220041610911
 31
0.0
  0
LINE
  5
15844
  8
0
 10
3499.897818936350177
 20
168.5996220041610911
 30
0.0
 11
3499.878133896952022
 21
168.5959045861677055
 31
0.0
  0
LINE
  5
15845
  8
0
 10
3499.878133896952022
 20
168.5959045861677055
 30
0.0
 11
3499.8682913773491236
 21
168.5931381474470925
 31
0.0
  0
LINE
  5
15846
  8
0
 10
3499.8682913773491236
 20
168.5931381474470925
 30
0.0
 11
3499.8781338969711214
 21
168.5941108106293882
 31
0.0
  0
LINE
  5
15847
  8
0
 10
3499.8781338969711214
 20
168.5941108106293882
 30
0.0
 11
3499.897818936387921
 21
168.5978721090014858
 31
0.0
  0
LINE
  5
15848
  8
0
 10
3499.897818936387921
 20
168.5978721090014858
 30
0.0
 11
3499.9076614558521214
 21
168.6006166064113074
 31
0.0
  0
LINE
  5
15849
  8
0
 10
3499.8798226064050141
 20
168.5971872359963868
 30
0.0
 11
3499.8698781206271633
 21
168.5956284158739891
 31
0.0
  0
LINE
  5
1584A
  8
0
 10
3499.8698781206271633
 20
168.5956284158739891
 30
0.0
 11
3499.8502950473721285
 21
168.5928876170825959
 31
0.0
  0
LINE
  5
1584B
  8
0
 10
3499.8502950473721285
 20
168.5928876170825959
 30
0.0
 11
3499.8404525276710046
 21
168.5916701911889106
 31
0.0
  0
LINE
  5
1584C
  8
0
 10
3499.8404525276710046
 20
168.5916701911889106
 30
0.0
 11
3499.8502950478577986
 21
168.5913082973457904
 31
0.0
  0
LINE
  5
1584D
  8
0
 10
3499.8502950478577986
 20
168.5913082973457904
 30
0.0
 11
3499.8699800866711485
 21
168.5940786146888968
 31
0.0
  0
LINE
  5
1584E
  8
0
 10
3499.8699800866711485
 20
168.5940786146888968
 30
0.0
 11
3499.8798226064050141
 21
168.5971872359963868
 31
0.0
  0
LINE
  5
1584F
  8
0
 10
3499.8519837567419017
 20
168.590835294108814
 30
0.0
 11
3499.8421412370707912
 21
168.5908467888930033
 31
0.0
  0
LINE
  5
15850
  8
0
 10
3499.8421412370707912
 20
168.5908467888930033
 30
0.0
 11
3499.8224561978331622
 21
168.5890139404015997
 31
0.0
  0
LINE
  5
15851
  8
0
 10
3499.8224561978331622
 20
168.5890139404015997
 30
0.0
 11
3499.8126136782880167
 21
168.5871487352976885
 31
0.0
  0
LINE
  5
15852
  8
0
 10
3499.8126136782880167
 20
168.5871487352976885
 30
0.0
 11
3499.8224561976708173
 21
168.5871487352976885
 31
0.0
  0
LINE
  5
15853
  8
0
 10
3499.8224561976708173
 20
168.5871487352976885
 30
0.0
 11
3499.8421412370380494
 21
168.5889942594104127
 31
0.0
  0
LINE
  5
15854
  8
0
 10
3499.8421412370380494
 20
168.5889942594104127
 30
0.0
 11
3499.8519837567941977
 21
168.5908352941198132
 31
0.0
  0
LINE
  5
15855
  8
0
 10
3499.8241452270708578
 20
168.5901562062888956
 30
0.0
 11
3499.8143023873708444
 21
168.5895454934675968
 31
0.0
  0
LINE
  5
15856
  8
0
 10
3499.8143023873708444
 20
168.5895454934675968
 30
0.0
 11
3499.7946173480709149
 21
168.5886349634205033
 31
0.0
  0
LINE
  5
15857
  8
0
 10
3499.7946173480709149
 20
168.5886349634205033
 30
0.0
 11
3499.7847748283261353
 21
168.58833400621441
 31
0.0
  0
LINE
  5
15858
  8
0
 10
3499.7847748283261353
 20
168.58833400621441
 30
0.0
 11
3499.7946173480518155
 21
168.5870349132453043
 31
0.0
  0
LINE
  5
15859
  8
0
 10
3499.7946173480518155
 20
168.5870349132453043
 30
0.0
 11
3499.8143023870447905
 21
168.5879498353318127
 31
0.0
  0
LINE
  5
1585A
  8
0
 10
3499.8143023870447905
 20
168.5879498353318127
 30
0.0
 11
3499.8241452270708578
 21
168.5901562062888956
 31
0.0
  0
LINE
  5
1585B
  8
0
 10
3499.7963060573620169
 20
168.586388244600812
 30
0.0
 11
3499.7864635377732156
 21
168.5873435225566936
 31
0.0
  0
LINE
  5
1585C
  8
0
 10
3499.7864635377732156
 20
168.5873435225566936
 30
0.0
 11
3499.7667784984269019
 21
168.5873435225641117
 31
0.0
  0
LINE
  5
1585D
  8
0
 10
3499.7667788007388481
 20
168.5854509240720915
 30
0.0
 11
3499.7864638421037853
 21
168.5854509240720915
 31
0.0
  0
LINE
  5
1585E
  8
0
 10
3499.7864635377709419
 20
168.5854509240720915
 30
0.0
 11
3499.7963060573620169
 21
168.586388244600812
 31
0.0
  0
LINE
  5
1585F
  8
0
 10
3499.8143023873599304
 20
168.6366072441983874
 30
0.0
 11
3499.7946173480981997
 21
168.6356923220891986
 31
0.0
  0
LINE
  5
15860
  8
0
 10
3499.7946173480981997
 20
168.6356923220891986
 30
0.0
 11
3499.7847748283711553
 21
168.62874296988889
 31
0.0
  0
LINE
  5
15861
  8
0
 10
3499.7847748283711553
 20
168.62874296988889
 30
0.0
 11
3499.8241449070469571
 21
168.6305651509244115
 31
0.0
  0
LINE
  5
15862
  8
0
 10
3499.8241449070469571
 20
168.6305651509244115
 30
0.0
 11
3499.8143023873822131
 21
168.636607244184404
 31
0.0
  0
LINE
  5
15863
  8
0
 10
3499.8798226064568553
 20
168.6375961997032107
 30
0.0
 11
3499.8404525276710046
 21
168.6320791548889133
 31
0.0
  0
LINE
  5
15864
  8
0
 10
3499.8404525276710046
 20
168.6320791548889133
 30
0.0
 11
3499.8502950473348392
 21
168.6399657061365929
 31
0.0
  0
LINE
  5
15865
  8
0
 10
3499.8502950473348392
 20
168.6399657061365929
 30
0.0
 11
3499.8699800867730119
 21
168.6427360236505137
 31
0.0
  0
LINE
  5
15866
  8
0
 10
3499.8699800867730119
 20
168.6427360236505137
 30
0.0
 11
3499.8798226065177914
 21
168.6375961997119077
 31
0.0
  0
LINE
  5
15867
  8
0
 10
3499.8961302269449334
 20
168.6406666757341952
 30
0.0
 11
3499.9059727466092227
 21
168.6495482062960036
 31
0.0
  0
LINE
  5
15868
  8
0
 10
3499.9059727466092227
 20
168.6495482062960036
 30
0.0
 11
3499.925657785977819
 21
168.6542542684055945
 31
0.0
  0
LINE
  5
15869
  8
0
 10
3499.925657785977819
 20
168.6542542684055945
 30
0.0
 11
3499.9355003056921305
 21
168.6500373452309134
 31
0.0
  0
LINE
  5
1586A
  8
0
 10
3499.9355003056921305
 20
168.6500373452309134
 30
0.0
 11
3499.8961302269449334
 21
168.6406666757341952
 31
0.0
  0
LINE
  5
1586B
  8
0
 10
3499.9518079262070387
 20
168.6547554604902075
 30
0.0
 11
3499.9911746827710886
 21
168.668267601788898
 31
0.0
  0
LINE
  5
1586C
  8
0
 10
3499.9911746827710886
 20
168.668267601788898
 30
0.0
 11
3499.981332212370944
 21
168.6715153619888952
 31
0.0
  0
LINE
  5
1586D
  8
0
 10
3499.981332212370944
 20
168.6715153619888952
 30
0.0
 11
3499.9616504457958399
 21
168.6647248448846881
 31
0.0
  0
LINE
  5
1586E
  8
0
 10
3499.9616504457958399
 20
168.6647248448846881
 30
0.0
 11
3499.9518079262070387
 21
168.6547554604902075
 31
0.0
  0
LINE
  5
1586F
  8
0
 10
3499.9850264968408737
 20
168.654277867986508
 30
0.0
 11
3499.9904376862891695
 21
168.6493938032959079
 31
0.0
  0
LINE
  5
15870
  8
0
 10
3499.9904376862891695
 20
168.6493938032959079
 30
0.0
 11
3499.9911723115242239
 21
168.6492997813685975
 31
0.0
  0
LINE
  5
15871
  8
0
 10
3499.9911723115242239
 20
168.6492997813685975
 30
0.0
 11
3499.9905731034650671
 21
168.6487635695170866
 31
0.0
  0
LINE
  5
15872
  8
0
 10
3499.9905731034650671
 20
168.6487635695170866
 30
0.0
 11
3499.9910030241558161
 21
168.6461947624783022
 31
0.0
  0
LINE
  5
15873
  8
0
 10
3499.9897819460979917
 20
168.6520157611253126
 30
0.0
 11
3499.9904376862891695
 21
168.6493938032959079
 31
0.0
  0
LINE
  5
15874
  8
0
 10
3499.9905731034650671
 20
168.6487635695170866
 30
0.0
 11
3499.9813354855018588
 21
168.6493132006960991
 31
0.0
  0
LINE
  5
15875
  8
0
 10
3499.9813354855018588
 20
168.6493132006960991
 30
0.0
 11
3499.9768911666528766
 21
168.6513543861483129
 31
0.0
  0
LINE
  5
15876
  8
0
 10
3499.9813354853008605
 20
168.6493132007055067
 30
0.0
 11
3499.9813354853708915
 21
168.6529353210906947
 31
0.0
  0
LINE
  5
15877
  8
0
 10
3499.9702711560271382
 20
168.6490729098983934
 30
0.0
 11
3499.9813354853708915
 21
168.6440919912888887
 31
0.0
  0
LINE
  5
15878
  8
0
 10
3499.9813354853708915
 20
168.6440919912888887
 30
0.0
 11
3499.9905702502042004
 21
168.6358034442374958
 31
0.0
  0
LINE
  5
15879
  8
0
 10
3499.9905702502042004
 20
168.6358034442374958
 30
0.0
 11
3499.9911780051029382
 21
168.6358294083730129
 31
0.0
  0
LINE
  5
1587A
  8
0
 10
3499.9911780051029382
 20
168.6358294083730129
 30
0.0
 11
3499.9904376863360085
 21
168.635303730527113
 31
0.0
  0
LINE
  5
1587B
  8
0
 10
3499.9904376863360085
 20
168.635303730527113
 30
0.0
 11
3499.9897819461211839
 21
168.6333248973132015
 31
0.0
  0
LINE
  5
1587C
  8
0
 10
3499.9910030241057939
 20
168.6379463172611963
 30
0.0
 11
3499.9905702494920661
 21
168.6358034448772969
 31
0.0
  0
LINE
  5
1587D
  8
0
 10
3499.9904376863878497
 20
168.6353037305204907
 30
0.0
 11
3499.9813354853708915
 21
168.6358435460448106
 31
0.0
  0
LINE
  5
1587E
  8
0
 10
3499.9813354853708915
 20
168.6358435460448106
 30
0.0
 11
3499.9813354853708915
 21
168.6440919913405025
 31
0.0
  0
LINE
  5
1587F
  8
0
 10
3499.9813354853708915
 20
168.6358435460448106
 30
0.0
 11
3499.9616504459709176
 21
168.6444757163889108
 31
0.0
  0
LINE
  5
15880
  8
0
 10
3499.9616504459709176
 20
168.6444757163889108
 30
0.0
 11
3499.9601241895461499
 21
168.6457411847061962
 31
0.0
  0
LINE
  5
15881
  8
0
 10
3499.961650445988198
 20
168.6444757163814074
 30
0.0
 11
3499.9616506525271689
 21
168.6462296755373984
 31
0.0
  0
LINE
  5
15882
  8
0
 10
3499.9534966356709447
 20
168.63885723608891
 30
0.0
 11
3499.9534966356709447
 21
168.6436734414471914
 31
0.0
  0
LINE
  5
15883
  8
0
 10
3499.9894892955940122
 20
168.6386892168748091
 30
0.0
 11
3499.9894892955708201
 21
168.6469376620169101
 31
0.0
  0
LINE
  5
15884
  8
0
 10
3499.9894892955858268
 20
168.6521588714811912
 30
0.0
 11
3499.9894892955858268
 21
168.6559382645988876
 31
0.0
  0
LINE
  5
15885
  8
0
 10
3500.0091743302677969
 20
168.63290706778821
 30
0.0
 11
3500.0091743302677969
 21
168.6342178414786019
 31
0.0
  0
LINE
  5
15886
  8
0
 10
3500.0091743302677969
 20
168.6361777051585022
 30
0.0
 11
3500.0091743302677969
 21
168.641013199724398
 31
0.0
  0
LINE
  5
15887
  8
0
 10
3500.0091743302677969
 20
168.6451588315372874
 30
0.0
 11
3500.0091743302677969
 21
168.6534072766312136
 31
0.0
  0
LINE
  5
15888
  8
0
 10
3500.0091743302677969
 20
168.6597040636619909
 30
0.0
 11
3500.0091743302677969
 21
168.6713654595120886
 31
0.0
  0
LINE
  5
15889
  8
0
 10
3500.0173281452362062
 20
168.6859908412149878
 30
0.0
 11
3500.0173281452648553
 21
168.6725535839703127
 31
0.0
  0
LINE
  5
1588A
  8
0
 10
3500.0173281452921401
 20
168.6651582115167969
 30
0.0
 11
3500.0173281452712217
 21
168.6551987868417086
 31
0.0
  0
LINE
  5
1588B
  8
0
 10
3500.0173281452712217
 20
168.6499775773889098
 30
0.0
 11
3500.0173281452712217
 21
168.6434401117847983
 31
0.0
  0
LINE
  5
1588C
  8
0
 10
3500.0173281446559486
 20
168.6403930651609926
 30
0.0
 11
3500.0173281453039635
 21
168.6373334323853896
 31
0.0
  0
LINE
  5
1588D
  8
0
 10
3500.0370131841841612
 20
168.6464468564689128
 30
0.0
 11
3500.0370131846721051
 21
168.6494138035889137
 31
0.0
  0
LINE
  5
1588E
  8
0
 10
3500.037013184602074
 20
168.6524225764048026
 30
0.0
 11
3500.0370131846721051
 21
168.6589301519161097
 31
0.0
  0
LINE
  5
1588F
  8
0
 10
3500.0370131846721051
 20
168.6641513614081873
 30
0.0
 11
3500.037471350558917
 21
168.6741196176608923
 31
0.0
  0
LINE
  5
15890
  8
0
 10
3500.0451669949511597
 20
168.6761207524733095
 30
0.0
 11
3500.0451669949370626
 21
168.687892989995305
 31
0.0
  0
LINE
  5
15891
  8
0
 10
3500.0451669948711242
 20
168.6697802246889069
 30
0.0
 11
3500.045166994866122
 21
168.6615409012773057
 31
0.0
  0
LINE
  5
15892
  8
0
 10
3500.0451669946260154
 20
168.6574298883313929
 30
0.0
 11
3500.0451669946241964
 21
168.6527052356300942
 31
0.0
  0
LINE
  5
15893
  8
0
 10
3500.0648520336699221
 20
168.6630182216144931
 30
0.0
 11
3500.0648520342588199
 21
168.667670000952711
 31
0.0
  0
LINE
  5
15894
  8
0
 10
3500.0648520340491814
 20
168.6717582691842949
 30
0.0
 11
3500.0648520342938355
 21
168.6800067146355104
 31
0.0
  0
ARC
  5
15895
  8
0
 10
3499.7773434382152118
 20
167.391639824534991
 30
0.0
 40
1.3802431982561369
 50
83.4637520694982129
 51
90.0299760553429564
  0
ARC
  5
15896
  8
0
 10
3499.8442100777801897
 20
167.975237959136507
 30
0.0
 40
0.7928268806438992
 50
75.7263810755387539
 51
83.4637520960123851
  0
ARC
  5
15897
  8
0
 10
3499.9651377238569694
 20
168.4505703182248908
 30
0.0
 40
0.3023532858582498
 50
63.408511752603097
 51
75.7263810755387539
  0
ARC
  5
15898
  8
0
 10
3500.0652168969168088
 20
168.6504979875880963
 30
0.0
 40
0.0787757515267583
 50
40.54915259307149
 51
63.408511752603097
  0
ARC
  5
15899
  8
0
 10
3500.1065623906779365
 20
168.6858717626595876
 30
0.0
 40
0.0243629422162967
 50
12.9919125516197802
 51
40.5491525930727121
  0
ARC
  5
1589A
  8
0
 10
3500.1027720604179194
 20
168.6849972594816904
 30
0.0
 40
0.0282528470077515
 50
4.650438130764738
 51
12.99191255162137
  0
LINE
  5
1589B
  8
0
 10
3498.815111057156173
 20
169.3584336375328121
 30
0.0
 11
3500.738122323294192
 21
169.3584336375328121
 31
0.0
  0
ARC
  5
1589C
  8
0
 10
3500.7376303318987993
 20
169.3264483005384875
 30
0.0
 40
0.0319891206220111
 50
8.1991139794720311
 51
89.1187584611602688
  0
LINE
  5
1589D
  8
0
 10
3500.7692924736898021
 20
169.3310103850809867
 30
0.0
 11
3500.7692924736898021
 21
163.4723240982889081
 31
0.0
  0
ARC
  5
1589E
  8
0
 10
3500.7187456058009047
 20
169.1179557602696093
 30
0.0
 40
0.0183041167290913
 50
33.2999602436040405
 51
85.733989406675974
  0
ARC
  5
1589F
  8
0
 10
3472.5548848661828742
 20
167.502252847415491
 30
0.0
 40
28.2260181121281803
 50
1.64343774846172
 51
3.3019295945839211
  0
LINE
  5
158A0
  8
0
 10
3505.2696331324209496
 20
164.082560318788893
 30
0.0
 11
3506.0946331324212224
 21
164.082560318788893
 31
0.0
  0
LINE
  5
158A1
  8
0
 10
3505.2893181705530878
 20
164.0628752806572095
 30
0.0
 11
3505.2696331324209496
 21
164.082560318788893
 31
0.0
  0
LINE
  5
158A2
  8
0
 10
3505.2696331324209496
 20
164.082560318788893
 30
0.0
 11
3505.2696331324209496
 21
164.4172059879888934
 31
0.0
  0
LINE
  5
158A3
  8
0
 10
3505.1755273966000459
 20
168.6049566429175002
 30
0.0
 11
3505.1755273966000459
 21
165.212172814318194
 31
0.0
  0
LINE
  5
158A4
  8
0
 10
3503.5171864219041709
 20
169.2403217677832004
 30
0.0
 11
3503.5171864219041709
 21
170.0812012162203928
 31
0.0
  0
ARC
  5
158A5
  8
0
 10
3504.0192853649250537
 20
169.9213598630348088
 30
0.0
 40
0.5269275156711211
 50
118.2320639103107993
 51
162.3413171657628027
  0
ARC
  5
158A6
  8
0
 10
3504.9052656557660157
 20
168.273042189267386
 30
0.0
 40
2.3982671610171611
 50
101.1194408370457012
 51
118.2525254224989055
  0
ARC
  5
158A7
  8
0
 10
3505.5754630815590644
 20
165.2381851378596025
 30
0.0
 40
5.5058776697247458
 50
93.590064722166133
 51
101.8721382795095991
  0
ARC
  5
158A8
  8
0
 10
3503.8439081810752214
 20
169.2326617888780049
 30
0.0
 40
0.3325602963817816
 50
130.8383808833009141
 51
169.2479346109753067
  0
ARC
  5
158A9
  8
0
 10
3504.4865855525981715
 20
168.4118883172224912
 30
0.0
 40
1.3747148184824041
 50
105.7690954864367967
 51
128.7329775636831073
  0
ARC
  5
158AA
  8
0
 10
3505.3606393641498471
 20
165.6790402030298139
 30
0.0
 40
4.2433881629722343
 50
96.3557457999369262
 51
107.0988801116528037
  0
LINE
  5
158AB
  8
0
 10
3504.4248608780139875
 20
169.6256153109289926
 30
0.0
 11
3504.4236877759149138
 21
169.5616970316507093
 31
0.0
  0
ARC
  5
158AC
  8
0
 10
3504.4065073275310169
 20
169.5604864828302993
 30
0.0
 40
0.0172230437242154
 50
317.4378223168980071
 51
55.7611453656687672
  0
ARC
  5
158AD
  8
0
 10
3504.3811877605749032
 20
169.5840569740176988
 30
0.0
 40
0.0518153868171871
 50
276.3287798882906259
 51
317.1781889459281274
  0
ARC
  5
158AE
  8
0
 10
3504.3613952968830745
 20
169.6752972566839901
 30
0.0
 40
0.1450004959739407
 50
237.8223425287997941
 51
280.1305034894024857
  0
ARC
  5
158AF
  8
0
 10
3504.2955970430029993
 20
169.5704070098003911
 30
0.0
 40
0.0211813427389998
 50
154.9049582127101132
 51
237.3700388581243033
  0
ARC
  5
158B0
  8
0
 10
3504.303183107159839
 20
169.5562635736492894
 30
0.0
 40
0.0353748371029153
 50
103.8326770878068004
 51
139.1738013247812944
  0
ARC
  5
158B1
  8
0
 10
3504.3360418877819029
 20
169.4341917285063914
 30
0.0
 40
0.161785347185065
 50
60.3008433601748592
 51
104.7959976755146982
  0
LINE
  5
158B2
  8
0
 10
3504.274415700263944
 20
169.5704070098003911
 30
0.0
 11
3504.2739997567118735
 21
169.640096948453305
 31
0.0
  0
ARC
  5
158B3
  8
0
 10
3504.2945093523080686
 20
169.6369000260829125
 30
0.0
 40
0.031093336712277
 50
194.2090784676483963
 51
229.1191931013885892
  0
ARC
  5
158B4
  8
0
 10
3504.2711696053570449
 20
169.6309902270562873
 30
0.0
 40
0.0070170099102727
 50
125.7828303013304065
 51
194.2090784676437067
  0
ARC
  5
158B5
  8
0
 10
3504.3225249316978989
 20
169.5328135098922928
 30
0.0
 40
0.1177473090860804
 50
77.391444522795112
 51
118.0988376951889052
  0
ARC
  5
158B6
  8
0
 10
3504.3543408448181253
 20
169.5250306875954891
 30
0.0
 40
0.1228427512436811
 50
54.8736947772760431
 51
92.8523651529768301
  0
ARC
  5
158B7
  8
0
 10
3504.4218562981991454
 20
169.6156331014138061
 30
0.0
 40
0.0103642814283806
 50
354.9375915008602078
 51
72.2139533511447951
  0
ARC
  5
158B8
  8
0
 10
3504.4076871979627867
 20
169.6191014336575051
 30
0.0
 40
0.0248820094525184
 50
312.2065545396428092
 51
349.8546025832847022
  0
ARC
  5
158B9
  8
0
 10
3504.3673080283379022
 20
169.5542846975569091
 30
0.0
 40
0.0050599824918908
 50
281.8496045000821937
 51
68.2759628341882916
  0
ARC
  5
158BA
  8
0
 10
3504.3525953775369999
 20
169.5937799044673113
 30
0.0
 40
0.0471559485753636
 50
238.07926942946591
 51
289.5138001088072883
  0
ARC
  5
158BB
  8
0
 10
3504.3302737655249075
 20
169.557811364873487
 30
0.0
 40
0.0048246427266007
 50
112.0297175493546007
 51
237.2235384610441997
  0
ARC
  5
158BC
  8
0
 10
3504.34531273581797
 20
169.5173091300347892
 30
0.0
 40
0.0480270088011901
 50
60.1999944484142304
 51
110.5372208045846065
  0
LINE
  5
158BD
  8
0
 10
3504.4042437297621291
 20
169.4251939584829074
 30
0.0
 11
3504.4031242528130861
 21
169.3641975282451995
 31
0.0
  0
ARC
  5
158BE
  8
0
 10
3504.3902583920021243
 20
169.3626521907324047
 30
0.0
 40
0.0130279726191424
 50
309.5644168814848172
 51
71.6456376012016563
  0
ARC
  5
158BF
  8
0
 10
3504.3712157485729222
 20
169.3820206816257041
 30
0.0
 40
0.0401568774534951
 50
280.3378864812322036
 51
312.909983789704313
  0
ARC
  5
158C0
  8
0
 10
3504.3560328899179694
 20
169.4567219132918012
 30
0.0
 40
0.1163801307499904
 50
244.7427744004997976
 51
281.0916666927478218
  0
ARC
  5
158C1
  8
0
 10
3504.3162479577581507
 20
169.3721864229219136
 30
0.0
 40
0.022950743361484
 50
186.4831371830985063
 51
244.5223521504086079
  0
ARC
  5
158C2
  8
0
 10
3504.3086211632680715
 20
169.3662973348085075
 30
0.0
 40
0.01553131302755
 50
99.2838557951219514
 51
167.7413032829003043
  0
ARC
  5
158C3
  8
0
 10
3504.34090221518818
 20
169.2536423650799122
 30
0.0
 40
0.1326262375602962
 50
66.2293172222915132
 51
105.2060384144764953
  0
LINE
  5
158C4
  8
0
 10
3504.2934439814248435
 20
169.3695950363791098
 30
0.0
 11
3504.2928905963131001
 21
169.4366431402158071
 31
0.0
  0
ARC
  5
158C5
  8
0
 10
3504.3049333285689499
 20
169.4382300109600976
 30
0.0
 40
0.0280783579601137
 50
207.6132235660645051
 51
245.0466207283828055
  0
ARC
  5
158C6
  8
0
 10
3504.2842540603960515
 20
169.4280108324464038
 30
0.0
 40
0.0050458108378621
 50
98.548376452357374
 51
213.6388198891748118
  0
ARC
  5
158C7
  8
0
 10
3504.3288232587037783
 20
169.3301320327778114
 30
0.0
 40
0.112408950863283
 50
79.9459499413459014
 51
113.7761181067010057
  0
ARC
  5
158C8
  8
0
 10
3504.343162326852962
 20
169.3144764173225951
 30
0.0
 40
0.1264488501408932
 50
60.8215338836069108
 51
87.6046101670008142
  0
ARC
  5
158C9
  8
0
 10
3504.4013652359840307
 20
169.4149646475447071
 30
0.0
 40
0.0104963486248524
 50
12.4025784098400909
 51
70.8404817406204756
  0
ARC
  5
158CA
  8
0
 10
3504.3871236748600495
 20
169.4216019302519953
 30
0.0
 40
0.0248820094525184
 50
312.2065545396416155
 51
349.8546025832847022
  0
ARC
  5
158CB
  8
0
 10
3504.366743584672804
 20
169.3553455175209876
 30
0.0
 40
0.0050599824918908
 50
281.8496045000821937
 51
68.2759628341882916
  0
ARC
  5
158CC
  8
0
 10
3504.3520309338719017
 20
169.3948407244315035
 30
0.0
 40
0.0471559485753636
 50
238.07926942946591
 51
289.5138001088072883
  0
ARC
  5
158CD
  8
0
 10
3504.3297093218611735
 20
169.358872184837594
 30
0.0
 40
0.0048246427266007
 50
112.0297175493546007
 51
237.2235384610441997
  0
ARC
  5
158CE
  8
0
 10
3504.3447482921537812
 20
169.3183699499988961
 30
0.0
 40
0.0480270088011901
 50
60.1999944484142304
 51
110.5372208045846065
  0
ARC
  5
158CF
  8
0
 10
3503.9954976362810157
 20
169.3947760054699074
 30
0.0
 40
0.502630808186118
 50
197.896086791243988
 51
244.7748321875426996
  0
ARC
  5
158D0
  8
0
 10
3504.8131867910601613
 20
170.858451652452203
 30
0.0
 40
2.1782974245504501
 50
241.7240881619345885
 51
257.0366888034249087
  0
ARC
  5
158D1
  8
0
 10
3505.5084798303810203
 20
173.6265519206210968
 30
0.0
 40
5.032141162852076
 50
256.3920828738487216
 51
265.4915498520512074
  0
LINE
  5
158D2
  8
0
 10
3505.6821331324208586
 20
169.1659906574629133
 30
0.0
 11
3505.6008579058898249
 21
169.1813991051946005
 31
0.0
  0
ARC
  5
158D3
  8
0
 10
3505.6025541942722157
 20
169.1903465491486998
 30
0.0
 40
0.0091068187413172
 50
179.9683332410166088
 51
259.2650629360849734
  0
LINE
  5
158D4
  8
0
 10
3505.5934473769211763
 20
169.1903515823888995
 30
0.0
 11
3505.5930204297578712
 21
169.2735227449601894
 31
0.0
  0
ARC
  5
158D5
  8
0
 10
3505.5900676359838144
 20
169.225789490875087
 30
0.0
 40
0.0090912616220673
 50
69.7001835657414404
 51
93.752131393503717
  0
ARC
  5
158D6
  8
0
 10
3505.5891051840071668
 20
169.240465305225797
 30
0.0
 40
0.0056160780647366
 50
227.7569445444966902
 51
273.7521313935037028
  0
ARC
  5
158D7
  8
0
 10
3505.5892491956251433
 20
169.2406238882684875
 30
0.0
 40
0.0058302927409981
 50
185.5656788668696038
 51
227.7569445444966902
  0
ARC
  5
158D8
  8
0
 10
3509.0699033017581314
 20
169.2625897889352871
 30
0.0
 40
3.486529717114947
 50
179.8698219881451905
 51
180.3702710203056938
  0
ARC
  5
158D9
  8
0
 10
3505.7172997482070969
 20
168.8588503356677109
 30
0.0
 40
0.4328955486287577
 50
95.9884154628040704
 51
108.0201918168474009
  0
ARC
  5
158DA
  8
0
 10
3505.6756463115111728
 20
169.2505047408741916
 30
0.0
 40
0.0390369052403609
 50
80.4347042404035903
 51
95.1578602479675482
  0
LINE
  5
158DB
  8
0
 10
3505.5932777562061347
 20
169.2233944348103023
 30
0.0
 11
3505.6821331324208586
 21
169.2405426902541024
 31
0.0
  0
ARC
  5
158DC
  8
0
 10
3505.7055414330370695
 20
169.195685923414004
 30
0.0
 40
0.0040326495698611
 50
292.8872855464716736
 51
41.6236823994271106
  0
ARC
  5
158DD
  8
0
 10
3505.6823707070761884
 20
169.247910238995388
 30
0.0
 40
0.0611657484124153
 50
244.9411237234828036
 51
293.8572959739233283
  0
ARC
  5
158DE
  8
0
 10
3505.6584769663340921
 20
169.1958412525399069
 30
0.0
 40
0.003899198966116
 50
115.2096605348627065
 51
238.9187753008739037
  0
ARC
  5
158DF
  8
0
 10
3505.6816550502690006
 20
169.145763078303986
 30
0.0
 40
0.0590810672295007
 50
62.9143743422681609
 51
114.8611223582169032
  0
LINE
  5
158E0
  8
0
 10
3505.6821331324208586
 20
168.845313301431986
 30
0.0
 11
3505.6821331324208586
 21
168.8316683190726906
 31
0.0
  0
LINE
  5
158E1
  8
0
 10
3505.6821331324208586
 20
168.7432187900757867
 30
0.0
 11
3505.6821331324208586
 21
168.7432187847009004
 31
0.0
  0
LINE
  5
158E2
  8
0
 10
3505.6821331324208586
 20
168.7359559293587949
 30
0.0
 11
3505.6821331324208586
 21
168.7278306491008948
 31
0.0
  0
LINE
  5
158E3
  8
0
 10
3505.6821331324208586
 20
169.2405426902541024
 30
0.0
 11
3505.6821331324208586
 21
169.3695182732828926
 31
0.0
  0
LINE
  5
158E4
  8
0
 10
3505.6821331324208586
 20
169.4652306635545926
 30
0.0
 11
3505.6821331324208586
 21
169.5789026678640994
 31
0.0
  0
LINE
  5
158E5
  8
0
 10
3505.6821331324208586
 20
169.6253470964705059
 30
0.0
 11
3505.6821331324208586
 21
169.6746150581357142
 31
0.0
  0
LINE
  5
158E6
  8
0
 10
3505.6821331324208586
 20
169.1659906574629133
 30
0.0
 11
3505.7634083589528018
 21
169.1813991051946005
 31
0.0
  0
ARC
  5
158E7
  8
0
 10
3505.7617120705708658
 20
169.1903465491486998
 30
0.0
 40
0.0091068187413172
 50
280.7349370639150266
 51
0.0316667589833437
  0
LINE
  5
158E8
  8
0
 10
3505.7708188879209956
 20
169.1903515823888995
 30
0.0
 11
3505.771245835083846
 21
169.2735227449601894
 31
0.0
  0
ARC
  5
158E9
  8
0
 10
3505.7741986288579028
 20
169.225789490875087
 30
0.0
 40
0.0090912616220673
 50
86.2478686064962972
 51
110.2998164342585028
  0
ARC
  5
158EA
  8
0
 10
3505.7751610808359146
 20
169.240465305225797
 30
0.0
 40
0.0056160780647366
 50
266.2478686064961835
 51
312.2430554555032813
  0
ARC
  5
158EB
  8
0
 10
3505.7750170692170286
 20
169.2406238882684875
 30
0.0
 40
0.0058302927409981
 50
312.2430554555032813
 51
354.4343211331304246
  0
ARC
  5
158EC
  8
0
 10
3502.2943629630840405
 20
169.2625897889352871
 30
0.0
 40
3.486529717114947
 50
359.6297289796942778
 51
0.1301780118547799
  0
ARC
  5
158ED
  8
0
 10
3505.6469665166359846
 20
168.8588503356677109
 30
0.0
 40
0.4328955486287577
 50
71.9798081831525707
 51
84.0115845371959438
  0
ARC
  5
158EE
  8
0
 10
3505.6886199533309991
 20
169.2505047408741916
 30
0.0
 40
0.0390369052403609
 50
84.842139752032466
 51
99.5652957595964239
  0
LINE
  5
158EF
  8
0
 10
3505.7709885086369468
 20
169.2233944348103023
 30
0.0
 11
3505.6821331324208586
 21
169.2405426902541024
 31
0.0
  0
ARC
  5
158F0
  8
0
 10
3505.3025710272559081
 20
166.1492974214172875
 30
0.0
 40
3.7184128062957669
 50
96.1747949237838924
 51
108.3119465687555021
  0
ARC
  5
158F1
  8
0
 10
3504.5911744539280335
 20
168.2988583829481968
 30
0.0
 40
1.4541916572289051
 50
108.3119465687555021
 51
124.3615319768678944
  0
ARC
  5
158F2
  8
0
 10
3504.0065675154428391
 20
169.1538861783708967
 30
0.0
 40
0.4184128181565626
 50
124.3615319768678944
 51
150.1988108732055025
  0
ARC
  5
158F3
  8
0
 10
3503.8292418439191351
 20
169.2554464353978005
 30
0.0
 40
0.2140629231509128
 50
150.1988108732055025
 51
205.5358180216126982
  0
ARC
  5
158F4
  8
0
 10
3504.0622528332901311
 20
169.389804645770198
 30
0.0
 40
0.4826788305159777
 50
208.0042289152526109
 51
238.977168688519896
  0
ARC
  5
158F5
  8
0
 10
3504.7051882569448935
 20
170.4349285572126007
 30
0.0
 40
1.709710610429835
 50
238.5637719853727106
 51
253.5181106622692937
  0
ARC
  5
158F6
  8
0
 10
3505.3088205523022225
 20
172.3926851136550056
 30
0.0
 40
3.758352555645923
 50
253.1615420742955962
 51
254.0142948664368987
  0
ARC
  5
158F7
  8
0
 10
3505.3088205523022225
 20
172.3926851136550056
 30
0.0
 40
3.758352555645923
 50
255.7335374617611023
 51
260.9634413699060929
  0
ARC
  5
158F8
  8
0
 10
3505.5207443468971178
 20
173.5220750636580931
 30
0.0
 40
4.9071143476994692
 50
260.5908995439776277
 51
265.3277953148556776
  0
ARC
  5
158F9
  8
0
 10
3503.905171208997217
 20
169.3023421540056859
 30
0.0
 40
0.3079485054810791
 50
197.1842981817353007
 51
226.2344847960283118
  0
ARC
  5
158FA
  8
0
 10
3503.7995739566440534
 20
169.2641450613132861
 30
0.0
 40
0.1958515474117228
 50
151.0686132005872082
 51
195.6354716201259976
  0
ARC
  5
158FB
  8
0
 10
3504.0951854101749632
 20
169.0605424050746137
 30
0.0
 40
0.5541840200066402
 50
116.9452923979073944
 51
147.4282201952748039
  0
ARC
  5
158FC
  8
0
 10
3504.6571954837340854
 20
168.0826048928572902
 30
0.0
 40
1.6816207846851641
 50
105.3123497946170062
 51
118.916933347028106
  0
LINE
  5
158FD
  8
0
 10
3503.6152039880048505
 20
169.2587223022570981
 30
0.0
 11
3503.6152039880048505
 21
169.3302173193899023
 31
0.0
  0
LINE
  5
158FE
  8
0
 10
3503.9798362016099418
 20
169.3894531470735103
 30
0.0
 11
3503.9786630995117775
 21
169.3255348677951986
 31
0.0
  0
ARC
  5
158FF
  8
0
 10
3503.9614826511278807
 20
169.3243243189747886
 30
0.0
 40
0.0172230437242154
 50
317.4378223168980071
 51
55.7611453656687672
  0
ARC
  5
15900
  8
0
 10
3503.9361630841708575
 20
169.3478948101621882
 30
0.0
 40
0.0518153868171871
 50
276.3287798882906259
 51
317.1781889459281274
  0
ARC
  5
15901
  8
0
 10
3503.9163706204799382
 20
169.4391350928285078
 30
0.0
 40
0.1450004959739407
 50
237.8223425287997941
 51
280.1305034894024857
  0
ARC
  5
15902
  8
0
 10
3503.850572366598044
 20
169.3342448459449088
 30
0.0
 40
0.0211813427389998
 50
154.9049582127101132
 51
237.3700388581243033
  0
ARC
  5
15903
  8
0
 10
3503.8581584307557932
 20
169.3201014097938071
 30
0.0
 40
0.0353748371029153
 50
103.8326770878068004
 51
139.1738013247812944
  0
ARC
  5
15904
  8
0
 10
3503.8910172113778572
 20
169.1980295646509092
 30
0.0
 40
0.161785347185065
 50
60.3008433601748592
 51
104.7959976755146982
  0
LINE
  5
15905
  8
0
 10
3503.8293910238598983
 20
169.3342448459449088
 30
0.0
 11
3503.8289750803069182
 21
169.4039347845977943
 31
0.0
  0
ARC
  5
15906
  8
0
 10
3503.8494846759040229
 20
169.4007378622274018
 30
0.0
 40
0.031093336712277
 50
194.2090784676483963
 51
229.1191931013885892
  0
ARC
  5
15907
  8
0
 10
3503.8261449289529992
 20
169.394828063200805
 30
0.0
 40
0.0070170099102727
 50
125.7828303013304065
 51
194.2090784676437067
  0
ARC
  5
15908
  8
0
 10
3503.8775002552952174
 20
169.2966513460368105
 30
0.0
 40
0.1177473090860804
 50
77.391444522795112
 51
118.0988376951889052
  0
ARC
  5
15909
  8
0
 10
3503.9093161684140796
 20
169.2888685237400068
 30
0.0
 40
0.1228427512436811
 50
54.8736947772760431
 51
92.8523651529768301
  0
ARC
  5
1590A
  8
0
 10
3503.9768316217950996
 20
169.3794709375582954
 30
0.0
 40
0.0103642814283806
 50
354.9375915008602078
 51
72.2139533511447951
  0
ARC
  5
1590B
  8
0
 10
3503.9626625215578315
 20
169.3829392698019944
 30
0.0
 40
0.0248820094525184
 50
312.2065545396428092
 51
349.8546025832847022
  0
ARC
  5
1590C
  8
0
 10
3503.9222833519338565
 20
169.3181225337013984
 30
0.0
 40
0.0050599824918908
 50
281.8496045000821937
 51
68.2759628341882916
  0
ARC
  5
1590D
  8
0
 10
3503.9075707011329541
 20
169.3576177406118006
 30
0.0
 40
0.0471559485753636
 50
238.07926942946591
 51
289.5138001088072883
  0
ARC
  5
1590E
  8
0
 10
3503.885249089122226
 20
169.3216492010180048
 30
0.0
 40
0.0048246427266007
 50
112.0297175493546007
 51
237.2235384610441997
  0
ARC
  5
1590F
  8
0
 10
3503.9002880594139242
 20
169.2811469661793069
 30
0.0
 40
0.0480270088011901
 50
60.1999944484142304
 51
110.5372208045846065
  0
LINE
  5
15910
  8
0
 10
3503.9802220331248463
 20
169.220961034776991
 30
0.0
 11
3503.9790489310271369
 21
169.1570427554987077
 31
0.0
  0
ARC
  5
15911
  8
0
 10
3503.9618684826427852
 20
169.1558322066782978
 30
0.0
 40
0.0172230437242154
 50
317.4378223168980071
 51
55.7611453656687672
  0
ARC
  5
15912
  8
0
 10
3503.9365489156871263
 20
169.1794026978656973
 30
0.0
 40
0.0518153868171871
 50
276.3287798882906259
 51
317.1781889459281274
  0
ARC
  5
15913
  8
0
 10
3503.9167564519948428
 20
169.2706429805319885
 30
0.0
 40
0.1450004959739407
 50
237.8223425287997941
 51
280.1305034894024857
  0
ARC
  5
15914
  8
0
 10
3503.8509581981138581
 20
169.1657527336483895
 30
0.0
 40
0.0211813427389998
 50
154.9049582127101132
 51
237.3700388581243033
  0
ARC
  5
15915
  8
0
 10
3503.858544262272062
 20
169.1516092974972878
 30
0.0
 40
0.0353748371029153
 50
103.8326770878068004
 51
139.1738013247812944
  0
ARC
  5
15916
  8
0
 10
3503.891403042894126
 20
169.0295374523543899
 30
0.0
 40
0.161785347185065
 50
60.3008433601748592
 51
104.7959976755146982
  0
LINE
  5
15917
  8
0
 10
3503.8297768553748028
 20
169.1657527336483895
 30
0.0
 11
3503.8293609118218228
 21
169.2354426723013034
 31
0.0
  0
ARC
  5
15918
  8
0
 10
3503.8498705074198369
 20
169.232245749930911
 30
0.0
 40
0.031093336712277
 50
194.2090784676483963
 51
229.1191931013885892
  0
ARC
  5
15919
  8
0
 10
3503.8265307604688132
 20
169.2263359509043141
 30
0.0
 40
0.0070170099102727
 50
125.7828303013304065
 51
194.2090784676437067
  0
ARC
  5
1591A
  8
0
 10
3503.8778860868101219
 20
169.1281592337402913
 30
0.0
 40
0.1177473090860804
 50
77.391444522795112
 51
118.0988376951889052
  0
ARC
  5
1591B
  8
0
 10
3503.9097019999298936
 20
169.1203764114434875
 30
0.0
 40
0.1228427512436811
 50
54.8736947772760431
 51
92.8523651529768301
  0
ARC
  5
1591C
  8
0
 10
3503.9772174533109137
 20
169.2109788252618046
 30
0.0
 40
0.0103642814283806
 50
354.9375915008602078
 51
72.2139533511447951
  0
ARC
  5
1591D
  8
0
 10
3503.9630483530741003
 20
169.2144471575055036
 30
0.0
 40
0.0248820094525184
 50
312.2065545396428092
 51
349.8546025832847022
  0
ARC
  5
1591E
  8
0
 10
3503.9226691834492158
 20
169.1496304214047939
 30
0.0
 40
0.0050599824918908
 50
281.8496045000821937
 51
68.2759628341882916
  0
ARC
  5
1591F
  8
0
 10
3503.9079565326478587
 20
169.1891256283153098
 30
0.0
 40
0.0471559485753636
 50
238.07926942946591
 51
289.5138001088072883
  0
ARC
  5
15920
  8
0
 10
3503.8856349206371306
 20
169.1531570887215139
 30
0.0
 40
0.0048246427266007
 50
112.0297175493546007
 51
237.2235384610441997
  0
ARC
  5
15921
  8
0
 10
3503.9006738909288288
 20
169.1126548538827876
 30
0.0
 40
0.0480270088011901
 50
60.1999944484142304
 51
110.5372208045846065
  0
LINE
  5
15922
  8
0
 10
3503.9773237907411385
 20
169.074805472417097
 30
0.0
 11
3503.9761506886420648
 21
169.0108871931388137
 31
0.0
  0
ARC
  5
15923
  8
0
 10
3503.9589702402581679
 20
169.0096766443184038
 30
0.0
 40
0.0172230437242154
 50
317.4378223168980071
 51
55.7611453656687672
  0
ARC
  5
15924
  8
0
 10
3503.9336506733020542
 20
169.0332471355056896
 30
0.0
 40
0.0518153868171871
 50
276.3287798882906259
 51
317.1781889459281274
  0
ARC
  5
15925
  8
0
 10
3503.9138582096102255
 20
169.1244874181720945
 30
0.0
 40
0.1450004959739407
 50
237.8223425287997941
 51
280.1305034894024857
  0
ARC
  5
15926
  8
0
 10
3503.8480599557301503
 20
169.0195971712884955
 30
0.0
 40
0.0211813427389998
 50
154.9049582127101132
 51
237.3700388581243033
  0
ARC
  5
15927
  8
0
 10
3503.85564601988699
 20
169.0054537351373938
 30
0.0
 40
0.0353748371029153
 50
103.8326770878068004
 51
139.1738013247812944
  0
ARC
  5
15928
  8
0
 10
3503.8885048005090539
 20
168.8833818899944959
 30
0.0
 40
0.161785347185065
 50
60.3008433601748592
 51
104.7959976755146982
  0
LINE
  5
15929
  8
0
 10
3503.8268786129901855
 20
169.0195971712884955
 30
0.0
 11
3503.826462669438115
 21
169.0892871099414094
 31
0.0
  0
ARC
  5
1592A
  8
0
 10
3503.8469722650352196
 20
169.0860901875709885
 30
0.0
 40
0.031093336712277
 50
194.2090784676483963
 51
229.1191931013885892
  0
ARC
  5
1592B
  8
0
 10
3503.8236325180841959
 20
169.0801803885443917
 30
0.0
 40
0.0070170099102727
 50
125.7828303013304065
 51
194.2090784676437067
  0
ARC
  5
1592C
  8
0
 10
3503.8749878444250498
 20
168.9820036713803972
 30
0.0
 40
0.1177473090860804
 50
77.391444522795112
 51
118.0988376951889052
  0
ARC
  5
1592D
  8
0
 10
3503.9068037575448216
 20
168.9742208490835935
 30
0.0
 40
0.1228427512436811
 50
54.8736947772760431
 51
92.8523651529768301
  0
ARC
  5
1592E
  8
0
 10
3503.9743192109258416
 20
169.0648232629019105
 30
0.0
 40
0.0103642814283806
 50
354.9375915008602078
 51
72.2139533511447951
  0
ARC
  5
1592F
  8
0
 10
3503.9601501106890282
 20
169.0682915951456096
 30
0.0
 40
0.0248820094525184
 50
312.2065545396428092
 51
349.8546025832847022
  0
ARC
  5
15930
  8
0
 10
3503.9197709410641437
 20
169.0034748590450135
 30
0.0
 40
0.0050599824918908
 50
281.8496045000821937
 51
68.2759628341882916
  0
ARC
  5
15931
  8
0
 10
3503.9050582902641509
 20
169.0429700659553873
 30
0.0
 40
0.0471559485753636
 50
238.07926942946591
 51
289.5138001088072883
  0
ARC
  5
15932
  8
0
 10
3503.8827366782520585
 20
169.0070015263615915
 30
0.0
 40
0.0048246427266007
 50
112.0297175493546007
 51
237.2235384610441997
  0
ARC
  5
15933
  8
0
 10
3503.8977756485451209
 20
168.9664992915228936
 30
0.0
 40
0.0480270088011901
 50
60.1999944484142304
 51
110.5372208045846065
  0
LINE
  5
15934
  8
0
 10
3504.4223452134729087
 20
168.843597666746092
 30
0.0
 11
3504.4211721113738349
 21
168.7796793874678087
 31
0.0
  0
ARC
  5
15935
  8
0
 10
3504.403991662989938
 20
168.7784688386473988
 30
0.0
 40
0.0172230437242154
 50
317.4378223168980071
 51
55.7611453656687672
  0
ARC
  5
15936
  8
0
 10
3504.3786720960338243
 20
168.8020393298347983
 30
0.0
 40
0.0518153868171871
 50
276.3287798882906259
 51
317.1781889459281274
  0
ARC
  5
15937
  8
0
 10
3504.3588796323419956
 20
168.8932796125010896
 30
0.0
 40
0.1450004959739407
 50
237.8223425287997941
 51
280.1305034894024857
  0
ARC
  5
15938
  8
0
 10
3504.2930813784619204
 20
168.7883893656174905
 30
0.0
 40
0.0211813427389998
 50
154.9049582127101132
 51
237.3700388581243033
  0
ARC
  5
15939
  8
0
 10
3504.3006674426192149
 20
168.7742459294663888
 30
0.0
 40
0.0353748371029153
 50
103.8326770878068004
 51
139.1738013247812944
  0
ARC
  5
1593A
  8
0
 10
3504.333526223240824
 20
168.6521740843234909
 30
0.0
 40
0.161785347185065
 50
60.3008433601748592
 51
104.7959976755146982
  0
LINE
  5
1593B
  8
0
 10
3504.2719000357219556
 20
168.7883893656174905
 30
0.0
 11
3504.2714840921698851
 21
168.8580793042704045
 31
0.0
  0
ARC
  5
1593C
  8
0
 10
3504.2919936877669898
 20
168.854882381900012
 30
0.0
 40
0.031093336712277
 50
194.2090784676483963
 51
229.1191931013885892
  0
ARC
  5
1593D
  8
0
 10
3504.2686539408159661
 20
168.8489725828733867
 30
0.0
 40
0.0070170099102727
 50
125.7828303013304065
 51
194.2090784676437067
  0
ARC
  5
1593E
  8
0
 10
3504.32000926715682
 20
168.7507958657093923
 30
0.0
 40
0.1177473090860804
 50
77.391444522795112
 51
118.0988376951889052
  0
ARC
  5
1593F
  8
0
 10
3504.3518251802770465
 20
168.7430130434127022
 30
0.0
 40
0.1228427512436811
 50
54.8736947772760431
 51
92.8523651529768301
  0
ARC
  5
15940
  8
0
 10
3504.4193406336580665
 20
168.8336154572309056
 30
0.0
 40
0.0103642814283806
 50
354.9375915008602078
 51
72.2139533511447951
  0
ARC
  5
15941
  8
0
 10
3504.4051715334207984
 20
168.8370837894746046
 30
0.0
 40
0.0248820094525184
 50
312.2065545396428092
 51
349.8546025832847022
  0
ARC
  5
15942
  8
0
 10
3504.3647923637968233
 20
168.7722670533740086
 30
0.0
 40
0.0050599824918908
 50
281.8496045000821937
 51
68.2759628341882916
  0
ARC
  5
15943
  8
0
 10
3504.350079712995921
 20
168.8117622602844108
 30
0.0
 40
0.0471559485753636
 50
238.07926942946591
 51
289.5138001088072883
  0
ARC
  5
15944
  8
0
 10
3504.3277581009838286
 20
168.7757937206905865
 30
0.0
 40
0.0048246427266007
 50
112.0297175493546007
 51
237.2235384610441997
  0
ARC
  5
15945
  8
0
 10
3504.3427970712768911
 20
168.7352914858518886
 30
0.0
 40
0.0480270088011901
 50
60.1999944484142304
 51
110.5372208045846065
  0
LINE
  5
15946
  8
0
 10
3504.8682115789829368
 20
168.7500744252425875
 30
0.0
 11
3504.8670384768852273
 21
168.6861561459643042
 31
0.0
  0
ARC
  5
15947
  8
0
 10
3504.8498580284999662
 20
168.6849455971438942
 30
0.0
 40
0.0172230437242154
 50
317.4378223168980071
 51
55.7611453656687672
  0
ARC
  5
15948
  8
0
 10
3504.8245384615438525
 20
168.7085160883312938
 30
0.0
 40
0.0518153868171871
 50
276.3287798882906259
 51
317.1781889459281274
  0
ARC
  5
15949
  8
0
 10
3504.8047459978520237
 20
168.7997563709976134
 30
0.0
 40
0.1450004959739407
 50
237.8223425287997941
 51
280.1305034894024857
  0
ARC
  5
1594A
  8
0
 10
3504.7389477439719485
 20
168.694866124113986
 30
0.0
 40
0.0211813427389998
 50
154.9049582127101132
 51
237.3700388581243033
  0
ARC
  5
1594B
  8
0
 10
3504.7465338081287882
 20
168.6807226879629127
 30
0.0
 40
0.0353748371029153
 50
103.8326770878068004
 51
139.1738013247812944
  0
ARC
  5
1594C
  8
0
 10
3504.7793925887508522
 20
168.5586508428199863
 30
0.0
 40
0.161785347185065
 50
60.3008433601748592
 51
104.7959976755146982
  0
LINE
  5
1594D
  8
0
 10
3504.7177664012328933
 20
168.694866124113986
 30
0.0
 11
3504.7173504576799132
 21
168.7645560627670136
 31
0.0
  0
ARC
  5
1594E
  8
0
 10
3504.7378600532770179
 20
168.7613591403965074
 30
0.0
 40
0.031093336712277
 50
194.2090784676483963
 51
229.1191931013885892
  0
ARC
  5
1594F
  8
0
 10
3504.7145203063259942
 20
168.7554493413699106
 30
0.0
 40
0.0070170099102727
 50
125.7828303013304065
 51
194.2090784676437067
  0
ARC
  5
15950
  8
0
 10
3504.7658756326682123
 20
168.6572726242060014
 30
0.0
 40
0.1177473090860804
 50
77.391444522795112
 51
118.0988376951889052
  0
ARC
  5
15951
  8
0
 10
3504.7976915457870746
 20
168.6494898019091124
 30
0.0
 40
0.1228427512436811
 50
54.8736947772760431
 51
92.8523651529768301
  0
ARC
  5
15952
  8
0
 10
3504.8652069991690041
 20
168.740092215727401
 30
0.0
 40
0.0103642814283806
 50
354.9375915008602078
 51
72.2139533511447951
  0
ARC
  5
15953
  8
0
 10
3504.8510378989308265
 20
168.7435605479711
 30
0.0
 40
0.0248820094525184
 50
312.2065545396428092
 51
349.8546025832847022
  0
ARC
  5
15954
  8
0
 10
3504.8106587293068515
 20
168.678743811870504
 30
0.0
 40
0.0050599824918908
 50
281.8496045000821937
 51
68.2759628341882916
  0
ARC
  5
15955
  8
0
 10
3504.7959460785059491
 20
168.7182390187809915
 30
0.0
 40
0.0471559485753636
 50
238.07926942946591
 51
289.5138001088072883
  0
ARC
  5
15956
  8
0
 10
3504.773624466495221
 20
168.6822704791871104
 30
0.0
 40
0.0048246427266007
 50
112.0297175493546007
 51
237.2235384610441997
  0
ARC
  5
15957
  8
0
 10
3504.7886634367869192
 20
168.6417682443484125
 30
0.0
 40
0.0480270088011901
 50
60.1999944484142304
 51
110.5372208045846065
  0
LINE
  5
15958
  8
0
 10
3505.3105423934480314
 20
168.6869071753145874
 30
0.0
 11
3505.3093692913489576
 21
168.6229888960363894
 31
0.0
  0
ARC
  5
15959
  8
0
 10
3505.2921888429650608
 20
168.6217783472160079
 30
0.0
 40
0.0172230437242154
 50
317.4378223168980071
 51
55.7611453656687672
  0
ARC
  5
1595A
  8
0
 10
3505.2668692760098565
 20
168.6453488384032937
 30
0.0
 40
0.0518153868171871
 50
276.3287798882906259
 51
317.1781889459281274
  0
ARC
  5
1595B
  8
0
 10
3505.2470768123171183
 20
168.7365891210696986
 30
0.0
 40
0.1450004959739407
 50
237.8223425287997941
 51
280.1305034894024857
  0
ARC
  5
1595C
  8
0
 10
3505.1812785584361336
 20
168.6316988741859859
 30
0.0
 40
0.0211813427389998
 50
154.9049582127101132
 51
237.3700388581243033
  0
ARC
  5
1595D
  8
0
 10
3505.1888646225929733
 20
168.6175554380349979
 30
0.0
 40
0.0353748371029153
 50
103.8326770878068004
 51
139.1738013247812944
  0
ARC
  5
1595E
  8
0
 10
3505.2217234032159467
 20
168.4954835928921
 30
0.0
 40
0.161785347185065
 50
60.3008433601748592
 51
104.7959976755146982
  0
LINE
  5
1595F
  8
0
 10
3505.1600972156970784
 20
168.6316988741859859
 30
0.0
 11
3505.1596812721450078
 21
168.7013888128390136
 31
0.0
  0
ARC
  5
15960
  8
0
 10
3505.1801908677421125
 20
168.6981918904685926
 30
0.0
 40
0.031093336712277
 50
194.2090784676483963
 51
229.1191931013885892
  0
ARC
  5
15961
  8
0
 10
3505.1568511207910888
 20
168.6922820914419958
 30
0.0
 40
0.0070170099102727
 50
125.7828303013304065
 51
194.2090784676437067
  0
ARC
  5
15962
  8
0
 10
3505.2082064471310332
 20
168.5941053742780014
 30
0.0
 40
0.1177473090860804
 50
77.391444522795112
 51
118.0988376951889052
  0
ARC
  5
15963
  8
0
 10
3505.2400223602508049
 20
168.5863225519811976
 30
0.0
 40
0.1228427512436811
 50
54.8736947772760431
 51
92.8523651529768301
  0
ARC
  5
15964
  8
0
 10
3505.3075378136331892
 20
168.676924965799401
 30
0.0
 40
0.0103642814283806
 50
354.9375915008602078
 51
72.2139533511447951
  0
ARC
  5
15965
  8
0
 10
3505.2933687133959211
 20
168.6803932980432137
 30
0.0
 40
0.0248820094525184
 50
312.2065545396428092
 51
349.8546025832847022
  0
ARC
  5
15966
  8
0
 10
3505.252989543771946
 20
168.615576561942504
 30
0.0
 40
0.0050599824918908
 50
281.8496045000821937
 51
68.2759628341882916
  0
ARC
  5
15967
  8
0
 10
3505.2382768929710437
 20
168.6550717688529915
 30
0.0
 40
0.0471559485753636
 50
238.07926942946591
 51
289.5138001088072883
  0
ARC
  5
15968
  8
0
 10
3505.2159552809589513
 20
168.6191032292591103
 30
0.0
 40
0.0048246427266007
 50
112.0297175493546007
 51
237.2235384610441997
  0
ARC
  5
15969
  8
0
 10
3505.2309942512520138
 20
168.5786009944204125
 30
0.0
 40
0.0480270088011901
 50
60.1999944484142304
 51
110.5372208045846065
  0
LINE
  5
1596A
  8
0
 10
3504.4066271431629502
 20
168.9534052869828997
 30
0.0
 11
3504.4055076662129977
 21
168.8924088567451918
 31
0.0
  0
ARC
  5
1596B
  8
0
 10
3504.392641805402036
 20
168.890863519232397
 30
0.0
 40
0.0130279726191424
 50
309.5644168814848172
 51
71.6456376012016563
  0
ARC
  5
1596C
  8
0
 10
3504.3735991619728338
 20
168.9102320101258101
 30
0.0
 40
0.0401568774534951
 50
280.3378864812322036
 51
312.909983789704313
  0
ARC
  5
1596D
  8
0
 10
3504.3584163033178811
 20
168.9849332417917935
 30
0.0
 40
0.1163801307499904
 50
244.7427744004997976
 51
281.0916666927478218
  0
ARC
  5
1596E
  8
0
 10
3504.3186313711580624
 20
168.9003977514217922
 30
0.0
 40
0.022950743361484
 50
186.4831371830985063
 51
244.5223521504086079
  0
ARC
  5
1596F
  8
0
 10
3504.3110045766670737
 20
168.8945086633084998
 30
0.0
 40
0.01553131302755
 50
99.2838557951219514
 51
167.7413032829003043
  0
ARC
  5
15970
  8
0
 10
3504.3432856285880916
 20
168.7818536935799045
 30
0.0
 40
0.1326262375602962
 50
66.2293172222915132
 51
105.2060384144764953
  0
LINE
  5
15971
  8
0
 10
3504.2958273948252099
 20
168.8978063648791021
 30
0.0
 11
3504.2952740097130118
 21
168.9648544687157994
 31
0.0
  0
ARC
  5
15972
  8
0
 10
3504.3073167419688616
 20
168.9664413394600899
 30
0.0
 40
0.0280783579601137
 50
207.6132235660645051
 51
245.0466207283828055
  0
ARC
  5
15973
  8
0
 10
3504.2866374737959632
 20
168.9562221609463961
 30
0.0
 40
0.0050458108378621
 50
98.548376452357374
 51
213.6388198891748118
  0
ARC
  5
15974
  8
0
 10
3504.3312066721041447
 20
168.8583433612778038
 30
0.0
 40
0.112408950863283
 50
79.9459499413459014
 51
113.7761181067010057
  0
ARC
  5
15975
  8
0
 10
3504.3455457402528737
 20
168.8426877458225874
 30
0.0
 40
0.1264488501408932
 50
60.8215338836069108
 51
87.6046101670008142
  0
ARC
  5
15976
  8
0
 10
3504.4037486493839424
 20
168.9431759760446141
 30
0.0
 40
0.0104963486248524
 50
12.4025784098400909
 51
70.8404817406204756
  0
ARC
  5
15977
  8
0
 10
3504.3895070882590517
 20
168.9498132587519876
 30
0.0
 40
0.0248820094525184
 50
312.2065545396416155
 51
349.8546025832847022
  0
ARC
  5
15978
  8
0
 10
3504.3691269980731704
 20
168.8835568460210084
 30
0.0
 40
0.0050599824918908
 50
281.8496045000821937
 51
68.2759628341882916
  0
ARC
  5
15979
  8
0
 10
3504.3544143472718133
 20
168.9230520529314958
 30
0.0
 40
0.0471559485753636
 50
238.07926942946591
 51
289.5138001088072883
  0
ARC
  5
1597A
  8
0
 10
3504.3320927352610852
 20
168.8870835133375863
 30
0.0
 40
0.0048246427266007
 50
112.0297175493546007
 51
237.2235384610441997
  0
ARC
  5
1597B
  8
0
 10
3504.3471317055541476
 20
168.8465812784988884
 30
0.0
 40
0.0480270088011901
 50
60.1999944484142304
 51
110.5372208045846065
  0
LINE
  5
1597C
  8
0
 10
3504.4095308641622069
 20
169.0901451096829078
 30
0.0
 11
3504.4084113872117996
 21
169.0291486794451998
 31
0.0
  0
ARC
  5
1597D
  8
0
 10
3504.3955455264031116
 20
169.0276033419324051
 30
0.0
 40
0.0130279726191424
 50
309.5644168814848172
 51
71.6456376012016563
  0
ARC
  5
1597E
  8
0
 10
3504.3765028829729999
 20
169.0469718328257045
 30
0.0
 40
0.0401568774534951
 50
280.3378864812322036
 51
312.909983789704313
  0
ARC
  5
1597F
  8
0
 10
3504.3613200243180472
 20
169.1216730644918016
 30
0.0
 40
0.1163801307499904
 50
244.7427744004997976
 51
281.0916666927478218
  0
ARC
  5
15980
  8
0
 10
3504.321535092159138
 20
169.0371375741218003
 30
0.0
 40
0.022950743361484
 50
186.4831371830985063
 51
244.5223521504086079
  0
ARC
  5
15981
  8
0
 10
3504.3139082976681493
 20
169.0312484860085078
 30
0.0
 40
0.01553131302755
 50
99.2838557951219514
 51
167.7413032829003043
  0
ARC
  5
15982
  8
0
 10
3504.346189349587803
 20
168.9185935162799126
 30
0.0
 40
0.1326262375602962
 50
66.2293172222915132
 51
105.2060384144764953
  0
LINE
  5
15983
  8
0
 10
3504.2987311158240118
 20
169.0345461875791102
 30
0.0
 11
3504.2981777307131779
 21
169.1015942914158074
 31
0.0
  0
ARC
  5
15984
  8
0
 10
3504.3102204629699372
 20
169.103181162160098
 30
0.0
 40
0.0280783579601137
 50
207.6132235660645051
 51
245.0466207283828055
  0
ARC
  5
15985
  8
0
 10
3504.2895411947961293
 20
169.0929619836464042
 30
0.0
 40
0.0050458108378621
 50
98.548376452357374
 51
213.6388198891748118
  0
ARC
  5
15986
  8
0
 10
3504.334110393103856
 20
168.9950831839778118
 30
0.0
 40
0.112408950863283
 50
79.9459499413459014
 51
113.7761181067010057
  0
ARC
  5
15987
  8
0
 10
3504.3484494612530398
 20
168.9794275685225955
 30
0.0
 40
0.1264488501408932
 50
60.8215338836069108
 51
87.6046101670008142
  0
ARC
  5
15988
  8
0
 10
3504.4066523703841085
 20
169.0799157987447074
 30
0.0
 40
0.0104963486248524
 50
12.4025784098400909
 51
70.8404817406204756
  0
ARC
  5
15989
  8
0
 10
3504.3924108092592178
 20
169.0865530814519957
 30
0.0
 40
0.0248820094525184
 50
312.2065545396416155
 51
349.8546025832847022
  0
ARC
  5
1598A
  8
0
 10
3504.3720307190728818
 20
169.020296668720988
 30
0.0
 40
0.0050599824918908
 50
281.8496045000821937
 51
68.2759628341882916
  0
ARC
  5
1598B
  8
0
 10
3504.3573180682719794
 20
169.0597918756315039
 30
0.0
 40
0.0471559485753636
 50
238.07926942946591
 51
289.5138001088072883
  0
ARC
  5
1598C
  8
0
 10
3504.3349964562598871
 20
169.0238233360375943
 30
0.0
 40
0.0048246427266007
 50
112.0297175493546007
 51
237.2235384610441997
  0
ARC
  5
1598D
  8
0
 10
3504.3500354265529495
 20
168.9833211011988965
 30
0.0
 40
0.0480270088011901
 50
60.1999944484142304
 51
110.5372208045846065
  0
LINE
  5
1598E
  8
0
 10
3504.4045120149630748
 20
169.247478743082894
 30
0.0
 11
3504.4033925380131222
 21
169.186482312845186
 31
0.0
  0
ARC
  5
1598F
  8
0
 10
3504.3905266772021605
 20
169.1849369753323913
 30
0.0
 40
0.0130279726191424
 50
309.5644168814848172
 51
71.6456376012016563
  0
ARC
  5
15990
  8
0
 10
3504.3714840337729584
 20
169.2043054662256907
 30
0.0
 40
0.0401568774534951
 50
280.3378864812322036
 51
312.909983789704313
  0
ARC
  5
15991
  8
0
 10
3504.3563011751180056
 20
169.2790066978917878
 30
0.0
 40
0.1163801307499904
 50
244.7427744004997976
 51
281.0916666927478218
  0
ARC
  5
15992
  8
0
 10
3504.3165162429581869
 20
169.1944712075217865
 30
0.0
 40
0.022950743361484
 50
186.4831371830985063
 51
244.5223521504086079
  0
ARC
  5
15993
  8
0
 10
3504.3088894484681077
 20
169.1885821194084087
 30
0.0
 40
0.01553131302755
 50
99.2838557951219514
 51
167.7413032829003043
  0
ARC
  5
15994
  8
0
 10
3504.3411705003882162
 20
169.0759271496798988
 30
0.0
 40
0.1326262375602962
 50
66.2293172222915132
 51
105.2060384144764953
  0
LINE
  5
15995
  8
0
 10
3504.2937122666248797
 20
169.1918798209790964
 30
0.0
 11
3504.2931588815131363
 21
169.2589279248157936
 31
0.0
  0
ARC
  5
15996
  8
0
 10
3504.3052016137698956
 20
169.2605147955601126
 30
0.0
 40
0.0280783579601137
 50
207.6132235660645051
 51
245.0466207283828055
  0
ARC
  5
15997
  8
0
 10
3504.2845223455960877
 20
169.2502956170463904
 30
0.0
 40
0.0050458108378621
 50
98.548376452357374
 51
213.6388198891748118
  0
ARC
  5
15998
  8
0
 10
3504.3290915439038145
 20
169.152416817377798
 30
0.0
 40
0.112408950863283
 50
79.9459499413459014
 51
113.7761181067010057
  0
ARC
  5
15999
  8
0
 10
3504.3434306120529982
 20
169.1367612019226101
 30
0.0
 40
0.1264488501408932
 50
60.8215338836069108
 51
87.6046101670008142
  0
ARC
  5
1599A
  8
0
 10
3504.4016335211840669
 20
169.2372494321446084
 30
0.0
 40
0.0104963486248524
 50
12.4025784098400909
 51
70.8404817406204756
  0
ARC
  5
1599B
  8
0
 10
3504.3873919600591762
 20
169.2438867148520103
 30
0.0
 40
0.0248820094525184
 50
312.2065545396416155
 51
349.8546025832847022
  0
ARC
  5
1599C
  8
0
 10
3504.3670118698728402
 20
169.1776303021210026
 30
0.0
 40
0.0050599824918908
 50
281.8496045000821937
 51
68.2759628341882916
  0
ARC
  5
1599D
  8
0
 10
3504.3522992190719378
 20
169.2171255090314901
 30
0.0
 40
0.0471559485753636
 50
238.07926942946591
 51
289.5138001088072883
  0
ARC
  5
1599E
  8
0
 10
3504.3299776070598455
 20
169.181156969437609
 30
0.0
 40
0.0048246427266007
 50
112.0297175493546007
 51
237.2235384610441997
  0
ARC
  5
1599F
  8
0
 10
3504.3450165773529079
 20
169.1406547345989111
 30
0.0
 40
0.0480270088011901
 50
60.1999944484142304
 51
110.5372208045846065
  0
LINE
  5
159A0
  8
0
 10
3504.8511519934218086
 20
168.86536155328929
 30
0.0
 11
3504.8500325164718561
 21
168.8043651230516105
 31
0.0
  0
ARC
  5
159A1
  8
0
 10
3504.8371666556618038
 20
168.8028197855387873
 30
0.0
 40
0.0130279726191424
 50
309.5644168814848172
 51
71.6456376012016563
  0
ARC
  5
159A2
  8
0
 10
3504.8181240122321469
 20
168.8221882764320867
 30
0.0
 40
0.0401568774534951
 50
280.3378864812322036
 51
312.909983789704313
  0
ARC
  5
159A3
  8
0
 10
3504.8029411535771942
 20
168.8968895080980985
 30
0.0
 40
0.1163801307499904
 50
244.7427744004997976
 51
281.0916666927478218
  0
ARC
  5
159A4
  8
0
 10
3504.7631562214169207
 20
168.8123540177282109
 30
0.0
 40
0.022950743361484
 50
186.4831371830985063
 51
244.5223521504086079
  0
ARC
  5
159A5
  8
0
 10
3504.7555294269268416
 20
168.8064649296148048
 30
0.0
 40
0.01553131302755
 50
99.2838557951219514
 51
167.7413032829003043
  0
ARC
  5
159A6
  8
0
 10
3504.78781047884695
 20
168.6938099598862095
 30
0.0
 40
0.1326262375602962
 50
66.2293172222915132
 51
105.2060384144764953
  0
LINE
  5
159A7
  8
0
 10
3504.7403522450840683
 20
168.8097626311854924
 30
0.0
 11
3504.7397988599727796
 21
168.8768107350221044
 31
0.0
  0
ARC
  5
159A8
  8
0
 10
3504.7518415922290842
 20
168.8783976057665086
 30
0.0
 40
0.0280783579601137
 50
207.6132235660645051
 51
245.0466207283828055
  0
ARC
  5
159A9
  8
0
 10
3504.7311623240561858
 20
168.8681784272527864
 30
0.0
 40
0.0050458108378621
 50
98.548376452357374
 51
213.6388198891748118
  0
ARC
  5
159AA
  8
0
 10
3504.775731522363003
 20
168.7702996275841087
 30
0.0
 40
0.112408950863283
 50
79.9459499413459014
 51
113.7761181067010057
  0
ARC
  5
159AB
  8
0
 10
3504.7900705905121868
 20
168.7546440121290061
 30
0.0
 40
0.1264488501408932
 50
60.8215338836069108
 51
87.6046101670008142
  0
ARC
  5
159AC
  8
0
 10
3504.8482734996428007
 20
168.8551322423510044
 30
0.0
 40
0.0104963486248524
 50
12.4025784098400909
 51
70.8404817406204756
  0
ARC
  5
159AD
  8
0
 10
3504.8340319385188195
 20
168.8617695250584063
 30
0.0
 40
0.0248820094525184
 50
312.2065545396416155
 51
349.8546025832847022
  0
ARC
  5
159AE
  8
0
 10
3504.8136518483329382
 20
168.7955131123273986
 30
0.0
 40
0.0050599824918908
 50
281.8496045000821937
 51
68.2759628341882916
  0
ARC
  5
159AF
  8
0
 10
3504.7989391975311264
 20
168.8350083192378008
 30
0.0
 40
0.0471559485753636
 50
238.07926942946591
 51
289.5138001088072883
  0
ARC
  5
159B0
  8
0
 10
3504.7766175855199435
 20
168.799039779644005
 30
0.0
 40
0.0048246427266007
 50
112.0297175493546007
 51
237.2235384610441997
  0
ARC
  5
159B1
  8
0
 10
3504.791656555813006
 20
168.7585375448051934
 30
0.0
 40
0.0480270088011901
 50
60.1999944484142304
 51
110.5372208045846065
  0
LINE
  5
159B2
  8
0
 10
3504.850730394013226
 20
168.9806778145828901
 30
0.0
 11
3504.8496109170619093
 21
168.9196813843452105
 31
0.0
  0
ARC
  5
159B3
  8
0
 10
3504.836745056251857
 20
168.9181360468323874
 30
0.0
 40
0.0130279726191424
 50
309.5644168814848172
 51
71.6456376012016563
  0
ARC
  5
159B4
  8
0
 10
3504.8177024128231096
 20
168.9375045377258004
 30
0.0
 40
0.0401568774534951
 50
280.3378864812322036
 51
312.909983789704313
  0
ARC
  5
159B5
  8
0
 10
3504.8025195541681569
 20
169.0122057693918123
 30
0.0
 40
0.1163801307499904
 50
244.7427744004997976
 51
281.0916666927478218
  0
ARC
  5
159B6
  8
0
 10
3504.7627346220078834
 20
168.927670279021811
 30
0.0
 40
0.022950743361484
 50
186.4831371830985063
 51
244.5223521504086079
  0
ARC
  5
159B7
  8
0
 10
3504.7551078275178043
 20
168.9217811909084048
 30
0.0
 40
0.01553131302755
 50
99.2838557951219514
 51
167.7413032829003043
  0
ARC
  5
159B8
  8
0
 10
3504.7873888794379127
 20
168.8091262211798949
 30
0.0
 40
0.1326262375602962
 50
66.2293172222915132
 51
105.2060384144764953
  0
LINE
  5
159B9
  8
0
 10
3504.7399306456741215
 20
168.9250788924792062
 30
0.0
 11
3504.7393772605628328
 21
168.9921269963157897
 31
0.0
  0
ARC
  5
159BA
  8
0
 10
3504.7514199928200469
 20
168.9937138670601087
 30
0.0
 40
0.0280783579601137
 50
207.6132235660645051
 51
245.0466207283828055
  0
ARC
  5
159BB
  8
0
 10
3504.7307407246457842
 20
168.9834946885463864
 30
0.0
 40
0.0050458108378621
 50
98.548376452357374
 51
213.6388198891748118
  0
ARC
  5
159BC
  8
0
 10
3504.7753099229539657
 20
168.8856158888777941
 30
0.0
 40
0.112408950863283
 50
79.9459499413459014
 51
113.7761181067010057
  0
ARC
  5
159BD
  8
0
 10
3504.7896489911031495
 20
168.8699602734226062
 30
0.0
 40
0.1264488501408932
 50
60.8215338836069108
 51
87.6046101670008142
  0
ARC
  5
159BE
  8
0
 10
3504.8478519002342182
 20
168.9704485036446044
 30
0.0
 40
0.0104963486248524
 50
12.4025784098400909
 51
70.8404817406204756
  0
ARC
  5
159BF
  8
0
 10
3504.8336103391097822
 20
168.9770857863520064
 30
0.0
 40
0.0248820094525184
 50
312.2065545396416155
 51
349.8546025832847022
  0
ARC
  5
159C0
  8
0
 10
3504.8132302489229914
 20
168.9108293736209987
 30
0.0
 40
0.0050599824918908
 50
281.8496045000821937
 51
68.2759628341882916
  0
ARC
  5
159C1
  8
0
 10
3504.7985175981229986
 20
168.9503245805314862
 30
0.0
 40
0.0471559485753636
 50
238.07926942946591
 51
289.5138001088072883
  0
ARC
  5
159C2
  8
0
 10
3504.7761959861109062
 20
168.9143560409376903
 30
0.0
 40
0.0048246427266007
 50
112.0297175493546007
 51
237.2235384610441997
  0
ARC
  5
159C3
  8
0
 10
3504.7912349564030592
 20
168.8738538060989072
 30
0.0
 40
0.0480270088011901
 50
60.1999944484142304
 51
110.5372208045846065
  0
LINE
  5
159C4
  8
0
 10
3504.8501975612589376
 20
169.1286537471166866
 30
0.0
 11
3504.8490780843089851
 21
169.0676573168790071
 31
0.0
  0
ARC
  5
159C5
  8
0
 10
3504.8362122234989329
 20
169.0661119793662124
 30
0.0
 40
0.0130279726191424
 50
309.5644168814848172
 51
71.6456376012016563
  0
ARC
  5
159C6
  8
0
 10
3504.8171695800701855
 20
169.085480470259597
 30
0.0
 40
0.0401568774534951
 50
280.3378864812322036
 51
312.909983789704313
  0
ARC
  5
159C7
  8
0
 10
3504.8019867214138685
 20
169.1601817019256089
 30
0.0
 40
0.1163801307499904
 50
244.7427744004997976
 51
281.0916666927478218
  0
ARC
  5
159C8
  8
0
 10
3504.7622017892549593
 20
169.0756462115556928
 30
0.0
 40
0.022950743361484
 50
186.4831371830985063
 51
244.5223521504086079
  0
ARC
  5
159C9
  8
0
 10
3504.7545749947648801
 20
169.0697571234422867
 30
0.0
 40
0.01553131302755
 50
99.2838557951219514
 51
167.7413032829003043
  0
ARC
  5
159CA
  8
0
 10
3504.7868560466849885
 20
168.9571021537136915
 30
0.0
 40
0.1326262375602962
 50
66.2293172222915132
 51
105.2060384144764953
  0
LINE
  5
159CB
  8
0
 10
3504.7393978129211973
 20
169.0730548250130028
 30
0.0
 11
3504.7388444278099087
 21
169.1401029288495863
 31
0.0
  0
ARC
  5
159CC
  8
0
 10
3504.7508871600662133
 20
169.1416897995939053
 30
0.0
 40
0.0280783579601137
 50
207.6132235660645051
 51
245.0466207283828055
  0
ARC
  5
159CD
  8
0
 10
3504.7302078918919506
 20
169.1314706210802115
 30
0.0
 40
0.0050458108378621
 50
98.548376452357374
 51
213.6388198891748118
  0
ARC
  5
159CE
  8
0
 10
3504.7747770902001321
 20
169.0335918214115907
 30
0.0
 40
0.112408950863283
 50
79.9459499413459014
 51
113.7761181067010057
  0
ARC
  5
159CF
  8
0
 10
3504.7891161583488611
 20
169.0179362059564028
 30
0.0
 40
0.1264488501408932
 50
60.8215338836069108
 51
87.6046101670008142
  0
ARC
  5
159D0
  8
0
 10
3504.8473190674808393
 20
169.1184244361784863
 30
0.0
 40
0.0104963486248524
 50
12.4025784098400909
 51
70.8404817406204756
  0
ARC
  5
159D1
  8
0
 10
3504.8330775063559486
 20
169.125061718885803
 30
0.0
 40
0.0248820094525184
 50
312.2065545396416155
 51
349.8546025832847022
  0
ARC
  5
159D2
  8
0
 10
3504.8126974161700673
 20
169.0588053061547953
 30
0.0
 40
0.0050599824918908
 50
281.8496045000821937
 51
68.2759628341882916
  0
ARC
  5
159D3
  8
0
 10
3504.797984765369165
 20
169.0983005130653112
 30
0.0
 40
0.0471559485753636
 50
238.07926942946591
 51
289.5138001088072883
  0
ARC
  5
159D4
  8
0
 10
3504.7756631533570726
 20
169.0623319734714869
 30
0.0
 40
0.0048246427266007
 50
112.0297175493546007
 51
237.2235384610441997
  0
ARC
  5
159D5
  8
0
 10
3504.790702123650135
 20
169.0218297386327038
 30
0.0
 40
0.0480270088011901
 50
60.1999944484142304
 51
110.5372208045846065
  0
LINE
  5
159D6
  8
0
 10
3504.8516196086120544
 20
169.2955442074828909
 30
0.0
 11
3504.8505001316630114
 21
169.2345477772452114
 31
0.0
  0
ARC
  5
159D7
  8
0
 10
3504.8376342708520497
 20
169.2330024397323882
 30
0.0
 40
0.0130279726191424
 50
309.5644168814848172
 51
71.6456376012016563
  0
ARC
  5
159D8
  8
0
 10
3504.8185916274228475
 20
169.2523709306256876
 30
0.0
 40
0.0401568774534951
 50
280.3378864812322036
 51
312.909983789704313
  0
ARC
  5
159D9
  8
0
 10
3504.8034087687678948
 20
169.3270721622918131
 30
0.0
 40
0.1163801307499904
 50
244.7427744004997976
 51
281.0916666927478218
  0
ARC
  5
159DA
  8
0
 10
3504.7636238366080761
 20
169.2425366719218118
 30
0.0
 40
0.022950743361484
 50
186.4831371830985063
 51
244.5223521504086079
  0
ARC
  5
159DB
  8
0
 10
3504.7559970421179969
 20
169.2366475838084909
 30
0.0
 40
0.01553131302755
 50
99.2838557951219514
 51
167.7413032829003043
  0
ARC
  5
159DC
  8
0
 10
3504.7882780940381053
 20
169.1239926140798957
 30
0.0
 40
0.1326262375602962
 50
66.2293172222915132
 51
105.2060384144764953
  0
LINE
  5
159DD
  8
0
 10
3504.7408198602752236
 20
169.2399452853790933
 30
0.0
 11
3504.7402664751630255
 21
169.3069933892157906
 31
0.0
  0
ARC
  5
159DE
  8
0
 10
3504.7523092074188753
 20
169.3085802599601095
 30
0.0
 40
0.0280783579601137
 50
207.6132235660645051
 51
245.0466207283828055
  0
ARC
  5
159DF
  8
0
 10
3504.7316299392468864
 20
169.2983610814463873
 30
0.0
 40
0.0050458108378621
 50
98.548376452357374
 51
213.6388198891748118
  0
ARC
  5
159E0
  8
0
 10
3504.7761991375541584
 20
169.2004822817777949
 30
0.0
 40
0.112408950863283
 50
79.9459499413459014
 51
113.7761181067010057
  0
ARC
  5
159E1
  8
0
 10
3504.7905382057028874
 20
169.184826666322607
 30
0.0
 40
0.1264488501408932
 50
60.8215338836069108
 51
87.6046101670008142
  0
ARC
  5
159E2
  8
0
 10
3504.8487411148339561
 20
169.2853148965446053
 30
0.0
 40
0.0104963486248524
 50
12.4025784098400909
 51
70.8404817406204756
  0
ARC
  5
159E3
  8
0
 10
3504.8344995537090654
 20
169.2919521792520072
 30
0.0
 40
0.0248820094525184
 50
312.2065545396416155
 51
349.8546025832847022
  0
ARC
  5
159E4
  8
0
 10
3504.8141194635240936
 20
169.2256957665209995
 30
0.0
 40
0.0050599824918908
 50
281.8496045000821937
 51
68.2759628341882916
  0
ARC
  5
159E5
  8
0
 10
3504.799406812721827
 20
169.265190973431487
 30
0.0
 40
0.0471559485753636
 50
238.07926942946591
 51
289.5138001088072883
  0
ARC
  5
159E6
  8
0
 10
3504.7770852007110989
 20
169.2292224338376059
 30
0.0
 40
0.0048246427266007
 50
112.0297175493546007
 51
237.2235384610441997
  0
ARC
  5
159E7
  8
0
 10
3504.7921241710041613
 20
169.188720198998908
 30
0.0
 40
0.0480270088011901
 50
60.1999944484142304
 51
110.5372208045846065
  0
LINE
  5
159E8
  8
0
 10
3504.8435266038618465
 20
169.4835206111829109
 30
0.0
 11
3504.8424071269128035
 21
169.4225241809452029
 31
0.0
  0
ARC
  5
159E9
  8
0
 10
3504.829541266103206
 20
169.4209788434324082
 30
0.0
 40
0.0130279726191424
 50
309.5644168814848172
 51
71.6456376012016563
  0
ARC
  5
159EA
  8
0
 10
3504.8104986226730944
 20
169.4403473343257076
 30
0.0
 40
0.0401568774534951
 50
280.3378864812322036
 51
312.909983789704313
  0
ARC
  5
159EB
  8
0
 10
3504.7953157640181416
 20
169.5150485659918047
 30
0.0
 40
0.1163801307499904
 50
244.7427744004997976
 51
281.0916666927478218
  0
ARC
  5
159EC
  8
0
 10
3504.7555308318578682
 20
169.4305130756218887
 30
0.0
 40
0.022950743361484
 50
186.4831371830985063
 51
244.5223521504086079
  0
ARC
  5
159ED
  8
0
 10
3504.747904037367789
 20
169.4246239875085109
 30
0.0
 40
0.01553131302755
 50
99.2838557951219514
 51
167.7413032829003043
  0
ARC
  5
159EE
  8
0
 10
3504.7801850892878974
 20
169.3119690177798873
 30
0.0
 40
0.1326262375602962
 50
66.2293172222915132
 51
105.2060384144764953
  0
LINE
  5
159EF
  8
0
 10
3504.7327268555241062
 20
169.4279216890791133
 30
0.0
 11
3504.7321734704128176
 21
169.4949697929158106
 31
0.0
  0
ARC
  5
159F0
  8
0
 10
3504.7442162026691221
 20
169.4965566636601011
 30
0.0
 40
0.0280783579601137
 50
207.6132235660645051
 51
245.0466207283828055
  0
ARC
  5
159F1
  8
0
 10
3504.7235369344962237
 20
169.4863374851464073
 30
0.0
 40
0.0050458108378621
 50
98.548376452357374
 51
213.6388198891748118
  0
ARC
  5
159F2
  8
0
 10
3504.7681061328039505
 20
169.3884586854777865
 30
0.0
 40
0.112408950863283
 50
79.9459499413459014
 51
113.7761181067010057
  0
ARC
  5
159F3
  8
0
 10
3504.7824452009531342
 20
169.3728030700225986
 30
0.0
 40
0.1264488501408932
 50
60.8215338836069108
 51
87.6046101670008142
  0
ARC
  5
159F4
  8
0
 10
3504.8406481100842029
 20
169.4732913002447106
 30
0.0
 40
0.0104963486248524
 50
12.4025784098400909
 51
70.8404817406204756
  0
ARC
  5
159F5
  8
0
 10
3504.8264065489602217
 20
169.4799285829519988
 30
0.0
 40
0.0248820094525184
 50
312.2065545396416155
 51
349.8546025832847022
  0
ARC
  5
159F6
  8
0
 10
3504.8060264587729762
 20
169.4136721702209911
 30
0.0
 40
0.0050599824918908
 50
281.8496045000821937
 51
68.2759628341882916
  0
ARC
  5
159F7
  8
0
 10
3504.7913138079720738
 20
169.453167377131507
 30
0.0
 40
0.0471559485753636
 50
238.07926942946591
 51
289.5138001088072883
  0
ARC
  5
159F8
  8
0
 10
3504.7689921959599815
 20
169.4171988375375975
 30
0.0
 40
0.0048246427266007
 50
112.0297175493546007
 51
237.2235384610441997
  0
ARC
  5
159F9
  8
0
 10
3504.7840311662530439
 20
169.3766966026988996
 30
0.0
 40
0.0480270088011901
 50
60.1999944484142304
 51
110.5372208045846065
  0
LINE
  5
159FA
  8
0
 10
3505.2957199799620867
 20
169.5614402457829044
 30
0.0
 11
3505.2946005030130436
 21
169.5004438155451965
 31
0.0
  0
ARC
  5
159FB
  8
0
 10
3505.2817346422029914
 20
169.4988984780324017
 30
0.0
 40
0.0130279726191424
 50
309.5644168814848172
 51
71.6456376012016563
  0
ARC
  5
159FC
  8
0
 10
3505.2626919987728797
 20
169.5182669689257011
 30
0.0
 40
0.0401568774534951
 50
280.3378864812322036
 51
312.909983789704313
  0
ARC
  5
159FD
  8
0
 10
3505.247509140117927
 20
169.5929682005917982
 30
0.0
 40
0.1163801307499904
 50
244.7427744004997976
 51
281.0916666927478218
  0
ARC
  5
159FE
  8
0
 10
3505.2077242079581083
 20
169.5084327102219106
 30
0.0
 40
0.022950743361484
 50
186.4831371830985063
 51
244.5223521504086079
  0
ARC
  5
159FF
  8
0
 10
3505.2000974134680291
 20
169.5025436221085045
 30
0.0
 40
0.01553131302755
 50
99.2838557951219514
 51
167.7413032829003043
  0
ARC
  5
15A00
  8
0
 10
3505.2323784653881376
 20
169.3898886523799092
 30
0.0
 40
0.1326262375602962
 50
66.2293172222915132
 51
105.2060384144764953
  0
LINE
  5
15A01
  8
0
 10
3505.1849202316238916
 20
169.5058413236791068
 30
0.0
 11
3505.1843668465130577
 21
169.5728894275158041
 31
0.0
  0
ARC
  5
15A02
  8
0
 10
3505.196409578769817
 20
169.5744762982600946
 30
0.0
 40
0.0280783579601137
 50
207.6132235660645051
 51
245.0466207283828055
  0
ARC
  5
15A03
  8
0
 10
3505.1757303105960091
 20
169.5642571197464008
 30
0.0
 40
0.0050458108378621
 50
98.548376452357374
 51
213.6388198891748118
  0
ARC
  5
15A04
  8
0
 10
3505.2202995089041906
 20
169.4663783200778084
 30
0.0
 40
0.112408950863283
 50
79.9459499413459014
 51
113.7761181067010057
  0
ARC
  5
15A05
  8
0
 10
3505.2346385770529196
 20
169.4507227046225921
 30
0.0
 40
0.1264488501408932
 50
60.8215338836069108
 51
87.6046101670008142
  0
ARC
  5
15A06
  8
0
 10
3505.2928414861839883
 20
169.5512109348447041
 30
0.0
 40
0.0104963486248524
 50
12.4025784098400909
 51
70.8404817406204756
  0
ARC
  5
15A07
  8
0
 10
3505.2785999250590976
 20
169.5578482175519923
 30
0.0
 40
0.0248820094525184
 50
312.2065545396416155
 51
349.8546025832847022
  0
ARC
  5
15A08
  8
0
 10
3505.2582198348732163
 20
169.4915918048210131
 30
0.0
 40
0.0050599824918908
 50
281.8496045000821937
 51
68.2759628341882916
  0
ARC
  5
15A09
  8
0
 10
3505.2435071840732235
 20
169.5310870117315005
 30
0.0
 40
0.0471559485753636
 50
238.07926942946591
 51
289.5138001088072883
  0
ARC
  5
15A0A
  8
0
 10
3505.2211855720602216
 20
169.495118472137591
 30
0.0
 40
0.0048246427266007
 50
112.0297175493546007
 51
237.2235384610441997
  0
ARC
  5
15A0B
  8
0
 10
3505.2362245423528293
 20
169.4546162372988931
 30
0.0
 40
0.0480270088011901
 50
60.1999944484142304
 51
110.5372208045846065
  0
LINE
  5
15A0C
  8
0
 10
3505.2934179571120694
 20
169.3640662715829137
 30
0.0
 11
3505.2922984801630264
 21
169.3030698413452058
 31
0.0
  0
ARC
  5
15A0D
  8
0
 10
3505.2794326193520646
 20
169.301524503832411
 30
0.0
 40
0.0130279726191424
 50
309.5644168814848172
 51
71.6456376012016563
  0
ARC
  5
15A0E
  8
0
 10
3505.2603899759228625
 20
169.3208929947257104
 30
0.0
 40
0.0401568774534951
 50
280.3378864812322036
 51
312.909983789704313
  0
ARC
  5
15A0F
  8
0
 10
3505.2452071172679098
 20
169.3955942263918075
 30
0.0
 40
0.1163801307499904
 50
244.7427744004997976
 51
281.0916666927478218
  0
ARC
  5
15A10
  8
0
 10
3505.2054221851080911
 20
169.3110587360218062
 30
0.0
 40
0.022950743361484
 50
186.4831371830985063
 51
244.5223521504086079
  0
ARC
  5
15A11
  8
0
 10
3505.1977953906180119
 20
169.3051696479085138
 30
0.0
 40
0.01553131302755
 50
99.2838557951219514
 51
167.7413032829003043
  0
ARC
  5
15A12
  8
0
 10
3505.2300764425381203
 20
169.1925146781798901
 30
0.0
 40
0.1326262375602962
 50
66.2293172222915132
 51
105.2060384144764953
  0
LINE
  5
15A13
  8
0
 10
3505.1826182087738744
 20
169.3084673494792014
 30
0.0
 11
3505.1820648236630404
 21
169.3755154533158134
 31
0.0
  0
ARC
  5
15A14
  8
0
 10
3505.1941075559188903
 20
169.3771023240601039
 30
0.0
 40
0.0280783579601137
 50
207.6132235660645051
 51
245.0466207283828055
  0
ARC
  5
15A15
  8
0
 10
3505.1734282877459918
 20
169.3668831455464101
 30
0.0
 40
0.0050458108378621
 50
98.548376452357374
 51
213.6388198891748118
  0
ARC
  5
15A16
  8
0
 10
3505.2179974860541734
 20
169.2690043458777893
 30
0.0
 40
0.112408950863283
 50
79.9459499413459014
 51
113.7761181067010057
  0
ARC
  5
15A17
  8
0
 10
3505.2323365542029023
 20
169.2533487304226014
 30
0.0
 40
0.1264488501408932
 50
60.8215338836069108
 51
87.6046101670008142
  0
ARC
  5
15A18
  8
0
 10
3505.2905394633339711
 20
169.3538369606447134
 30
0.0
 40
0.0104963486248524
 50
12.4025784098400909
 51
70.8404817406204756
  0
ARC
  5
15A19
  8
0
 10
3505.2762979022090803
 20
169.3604742433520016
 30
0.0
 40
0.0248820094525184
 50
312.2065545396416155
 51
349.8546025832847022
  0
ARC
  5
15A1A
  8
0
 10
3505.2559178120241086
 20
169.2942178306209939
 30
0.0
 40
0.0050599824918908
 50
281.8496045000821937
 51
68.2759628341882916
  0
ARC
  5
15A1B
  8
0
 10
3505.241205161221842
 20
169.3337130375315098
 30
0.0
 40
0.0471559485753636
 50
238.07926942946591
 51
289.5138001088072883
  0
ARC
  5
15A1C
  8
0
 10
3505.2188835492111139
 20
169.2977444979376003
 30
0.0
 40
0.0048246427266007
 50
112.0297175493546007
 51
237.2235384610441997
  0
ARC
  5
15A1D
  8
0
 10
3505.2339225195028121
 20
169.2572422630989024
 30
0.0
 40
0.0480270088011901
 50
60.1999944484142304
 51
110.5372208045846065
  0
LINE
  5
15A1E
  8
0
 10
3505.2926900882221162
 20
168.7970277732148929
 30
0.0
 11
3505.2915706112730732
 21
168.7360313429772134
 31
0.0
  0
ARC
  5
15A1F
  8
0
 10
3505.2787047504621114
 20
168.7344860054643902
 30
0.0
 40
0.0130279726191424
 50
309.5644168814848172
 51
71.6456376012016563
  0
ARC
  5
15A20
  8
0
 10
3505.2596621070329093
 20
168.7538544963578033
 30
0.0
 40
0.0401568774534951
 50
280.3378864812322036
 51
312.909983789704313
  0
ARC
  5
15A21
  8
0
 10
3505.244479248378866
 20
168.8285557280237867
 30
0.0
 40
0.1163801307499904
 50
244.7427744004997976
 51
281.0916666927478218
  0
ARC
  5
15A22
  8
0
 10
3505.2046943162181378
 20
168.7440202376538139
 30
0.0
 40
0.022950743361484
 50
186.4831371830985063
 51
244.5223521504086079
  0
ARC
  5
15A23
  8
0
 10
3505.1970675217280586
 20
168.7381311495404077
 30
0.0
 40
0.01553131302755
 50
99.2838557951219514
 51
167.7413032829003043
  0
ARC
  5
15A24
  8
0
 10
3505.2293485736481671
 20
168.6254761798118977
 30
0.0
 40
0.1326262375602962
 50
66.2293172222915132
 51
105.2060384144764953
  0
LINE
  5
15A25
  8
0
 10
3505.1818903398848306
 20
168.7414288511110954
 30
0.0
 11
3505.1813369547730872
 21
168.8084769549477926
 31
0.0
  0
ARC
  5
15A26
  8
0
 10
3505.1933796870298465
 20
168.8100638256921115
 30
0.0
 40
0.0280783579601137
 50
207.6132235660645051
 51
245.0466207283828055
  0
ARC
  5
15A27
  8
0
 10
3505.1727004188569481
 20
168.7998446471783893
 30
0.0
 40
0.0050458108378621
 50
98.548376452357374
 51
213.6388198891748118
  0
ARC
  5
15A28
  8
0
 10
3505.2172696171642201
 20
168.701965847509797
 30
0.0
 40
0.112408950863283
 50
79.9459499413459014
 51
113.7761181067010057
  0
ARC
  5
15A29
  8
0
 10
3505.2316086853129491
 20
168.6863102320546091
 30
0.0
 40
0.1264488501408932
 50
60.8215338836069108
 51
87.6046101670008142
  0
ARC
  5
15A2A
  8
0
 10
3505.2898115944440178
 20
168.7867984622766073
 30
0.0
 40
0.0104963486248524
 50
12.4025784098400909
 51
70.8404817406204756
  0
ARC
  5
15A2B
  8
0
 10
3505.2755700333191271
 20
168.7934357449840093
 30
0.0
 40
0.0248820094525184
 50
312.2065545396416155
 51
349.8546025832847022
  0
ARC
  5
15A2C
  8
0
 10
3505.2551899431341553
 20
168.7271793322530016
 30
0.0
 40
0.0050599824918908
 50
281.8496045000821937
 51
68.2759628341882916
  0
ARC
  5
15A2D
  8
0
 10
3505.2404772923318887
 20
168.766674539163489
 30
0.0
 40
0.0471559485753636
 50
238.07926942946591
 51
289.5138001088072883
  0
ARC
  5
15A2E
  8
0
 10
3505.2181556803211606
 20
168.7307059995696079
 30
0.0
 40
0.0048246427266007
 50
112.0297175493546007
 51
237.2235384610441997
  0
ARC
  5
15A2F
  8
0
 10
3505.2331946506142231
 20
168.6902037647309101
 30
0.0
 40
0.0480270088011901
 50
60.1999944484142304
 51
110.5372208045846065
  0
LINE
  5
15A30
  8
0
 10
3505.2895535806392218
 20
168.902960300940606
 30
0.0
 11
3505.2884341036901787
 21
168.8419638707030117
 31
0.0
  0
ARC
  5
15A31
  8
0
 10
3505.2755682428801265
 20
168.8404185331901886
 30
0.0
 40
0.0130279726191424
 50
309.5644168814848172
 51
71.6456376012016563
  0
ARC
  5
15A32
  8
0
 10
3505.2565255994491054
 20
168.8597870240834879
 30
0.0
 40
0.0401568774534951
 50
280.3378864812322036
 51
312.909983789704313
  0
ARC
  5
15A33
  8
0
 10
3505.2413427407950621
 20
168.9344882557494998
 30
0.0
 40
0.1163801307499904
 50
244.7427744004997976
 51
281.0916666927478218
  0
ARC
  5
15A34
  8
0
 10
3505.2015578086361529
 20
168.8499527653796122
 30
0.0
 40
0.022950743361484
 50
186.4831371830985063
 51
244.5223521504086079
  0
ARC
  5
15A35
  8
0
 10
3505.1939310141451642
 20
168.844063677266206
 30
0.0
 40
0.01553131302755
 50
99.2838557951219514
 51
167.7413032829003043
  0
ARC
  5
15A36
  8
0
 10
3505.2262120660648179
 20
168.7314087075376108
 30
0.0
 40
0.1326262375602962
 50
66.2293172222915132
 51
105.2060384144764953
  0
LINE
  5
15A37
  8
0
 10
3505.1787538323019362
 20
168.8473613788368937
 30
0.0
 11
3505.1782004471901928
 21
168.9144094826735909
 31
0.0
  0
ARC
  5
15A38
  8
0
 10
3505.1902431794469521
 20
168.9159963534177962
 30
0.0
 40
0.0280783579601137
 50
207.6132235660645051
 51
245.0466207283828055
  0
ARC
  5
15A39
  8
0
 10
3505.1695639112731442
 20
168.9057771749041876
 30
0.0
 40
0.0050458108378621
 50
98.548376452357374
 51
213.6388198891748118
  0
ARC
  5
15A3A
  8
0
 10
3505.214133109580871
 20
168.80789837523551
 30
0.0
 40
0.112408950863283
 50
79.9459499413459014
 51
113.7761181067010057
  0
ARC
  5
15A3B
  8
0
 10
3505.2284721777300547
 20
168.7922427597802937
 30
0.0
 40
0.1264488501408932
 50
60.8215338836069108
 51
87.6046101670008142
  0
ARC
  5
15A3C
  8
0
 10
3505.2866750868611234
 20
168.8927309900024056
 30
0.0
 40
0.0104963486248524
 50
12.4025784098400909
 51
70.8404817406204756
  0
ARC
  5
15A3D
  8
0
 10
3505.2724335257371422
 20
168.8993682727098076
 30
0.0
 40
0.0248820094525184
 50
312.2065545396416155
 51
349.8546025832847022
  0
ARC
  5
15A3E
  8
0
 10
3505.2520534355498967
 20
168.8331118599787999
 30
0.0
 40
0.0050599824918908
 50
281.8496045000821937
 51
68.2759628341882916
  0
ARC
  5
15A3F
  8
0
 10
3505.2373407847489943
 20
168.8726070668892021
 30
0.0
 40
0.0471559485753636
 50
238.07926942946591
 51
289.5138001088072883
  0
ARC
  5
15A40
  8
0
 10
3505.215019172736902
 20
168.8366385272954062
 30
0.0
 40
0.0048246427266007
 50
112.0297175493546007
 51
237.2235384610441997
  0
ARC
  5
15A41
  8
0
 10
3505.2300581430299644
 20
168.7961362924567084
 30
0.0
 40
0.0480270088011901
 50
60.1999944484142304
 51
110.5372208045846065
  0
LINE
  5
15A42
  8
0
 10
3505.7393895586128565
 20
168.7176277104829012
 30
0.0
 11
3505.738270081662904
 21
168.6566312802451932
 31
0.0
  0
ARC
  5
15A43
  8
0
 10
3505.7254042208528517
 20
168.6550859427323985
 30
0.0
 40
0.0130279726191424
 50
309.5644168814848172
 51
71.6456376012016563
  0
ARC
  5
15A44
  8
0
 10
3505.7063615774231948
 20
168.6744544336258116
 30
0.0
 40
0.0401568774534951
 50
280.3378864812322036
 51
312.909983789704313
  0
ARC
  5
15A45
  8
0
 10
3505.6781633445161788
 20
168.8521207474655057
 30
0.0
 40
0.2200383044929954
 50
271.0337492547241141
 51
279.2592269741043083
  0
ARC
  5
15A46
  8
0
 10
3505.6760480440379979
 20
168.546076117079906
 30
0.0
 40
0.1326262375602962
 50
66.2293172222915132
 51
87.3702615019623465
  0
ARC
  5
15A47
  8
0
 10
3505.6843331319100798
 20
168.5744203891158008
 30
0.0
 40
0.1534260310845778
 50
68.9706144899780185
 51
90.8215836349219643
  0
ARC
  5
15A48
  8
0
 10
3505.736095145210129
 20
168.7071863676781902
 30
0.0
 40
0.0109487350517815
 50
13.0188013457396803
 51
72.4886673698969446
  0
ARC
  5
15A49
  8
0
 10
3505.7222695037098674
 20
168.7140356822519891
 30
0.0
 40
0.0248820094525184
 50
312.2065545396416155
 51
349.8546025832847022
  0
ARC
  5
15A4A
  8
0
 10
3505.7018894135230767
 20
168.6477792695210098
 30
0.0
 40
0.0050599824918908
 50
281.8496045000821937
 51
68.2759628341882916
  0
ARC
  5
15A4B
  8
0
 10
3505.6791993341321358
 20
168.7215544132426999
 30
0.0
 40
0.0822256545284546
 50
272.0447383090631206
 51
286.7732777976885927
  0
ARC
  5
15A4C
  8
0
 10
3505.6816088995001337
 20
168.5988806180496056
 30
0.0
 40
0.0579970154920756
 50
67.5439399830326721
 51
89.4820984730421856
  0
LINE
  5
15A4D
  8
0
 10
3504.871187188382919
 20
169.6978499056291128
 30
0.0
 11
3504.8700140862838452
 21
169.633931626350801
 31
0.0
  0
ARC
  5
15A4E
  8
0
 10
3504.8528336378999484
 20
169.6327210775303911
 30
0.0
 40
0.0172230437242154
 50
317.4378223168980071
 51
55.7611453656687672
  0
ARC
  5
15A4F
  8
0
 10
3504.8275140709451989
 20
169.6562915687177053
 30
0.0
 40
0.0518153868171871
 50
276.3287798882906259
 51
317.1781889459281274
  0
ARC
  5
15A50
  8
0
 10
3504.8077216072520059
 20
169.7475318513841103
 30
0.0
 40
0.1450004959739407
 50
237.8223425287997941
 51
280.1305034894024857
  0
ARC
  5
15A51
  8
0
 10
3504.7419233533719307
 20
169.6426416045005112
 30
0.0
 40
0.0211813427389998
 50
154.9049582127101132
 51
237.3700388581243033
  0
ARC
  5
15A52
  8
0
 10
3504.7495094175292252
 20
169.6284981683494095
 30
0.0
 40
0.0353748371029153
 50
103.8326770878068004
 51
139.1738013247812944
  0
ARC
  5
15A53
  8
0
 10
3504.7823681981521986
 20
169.5064263232065116
 30
0.0
 40
0.161785347185065
 50
60.3008433601748592
 51
104.7959976755146982
  0
LINE
  5
15A54
  8
0
 10
3504.7207420106328755
 20
169.6426416045005112
 30
0.0
 11
3504.7203260670798954
 21
169.7123315431533968
 31
0.0
  0
ARC
  5
15A55
  8
0
 10
3504.7408356626770001
 20
169.7091346207830043
 30
0.0
 40
0.031093336712277
 50
194.2090784676483963
 51
229.1191931013885892
  0
ARC
  5
15A56
  8
0
 10
3504.7174959157259764
 20
169.7032248217564074
 30
0.0
 40
0.0070170099102727
 50
125.7828303013304065
 51
194.2090784676437067
  0
ARC
  5
15A57
  8
0
 10
3504.7688512420668303
 20
169.605048104592413
 30
0.0
 40
0.1177473090860804
 50
77.391444522795112
 51
118.0988376951889052
  0
ARC
  5
15A58
  8
0
 10
3504.8006671551870568
 20
169.5972652822956093
 30
0.0
 40
0.1228427512436811
 50
54.8736947772760431
 51
92.8523651529768301
  0
ARC
  5
15A59
  8
0
 10
3504.8681826085680768
 20
169.6878676961138979
 30
0.0
 40
0.0103642814283806
 50
354.9375915008602078
 51
72.2139533511447951
  0
ARC
  5
15A5A
  8
0
 10
3504.8540135083308087
 20
169.6913360283575969
 30
0.0
 40
0.0248820094525184
 50
312.2065545396428092
 51
349.8546025832847022
  0
ARC
  5
15A5B
  8
0
 10
3504.8136343387068337
 20
169.6265192922570009
 30
0.0
 40
0.0050599824918908
 50
281.8496045000821937
 51
68.2759628341882916
  0
ARC
  5
15A5C
  8
0
 10
3504.7989216879059313
 20
169.6660144991674031
 30
0.0
 40
0.0471559485753636
 50
238.07926942946591
 51
289.5138001088072883
  0
ARC
  5
15A5D
  8
0
 10
3504.7766000758938389
 20
169.6300459595736072
 30
0.0
 40
0.0048246427266007
 50
112.0297175493546007
 51
237.2235384610441997
  0
ARC
  5
15A5E
  8
0
 10
3504.7916390461869014
 20
169.5895437247349093
 30
0.0
 40
0.0480270088011901
 50
60.1999944484142304
 51
110.5372208045846065
  0
LINE
  5
15A5F
  8
0
 10
3505.3155295631149784
 20
169.7883107665290083
 30
0.0
 11
3505.3143564610159046
 21
169.7243924872506966
 31
0.0
  0
ARC
  5
15A60
  8
0
 10
3505.2971760126320078
 20
169.7231819384302867
 30
0.0
 40
0.0172230437242154
 50
317.4378223168980071
 51
55.7611453656687672
  0
ARC
  5
15A61
  8
0
 10
3505.2718564456758941
 20
169.7467524296176862
 30
0.0
 40
0.0518153868171871
 50
276.3287798882906259
 51
317.1781889459281274
  0
ARC
  5
15A62
  8
0
 10
3505.2520639819840653
 20
169.8379927122840058
 30
0.0
 40
0.1450004959739407
 50
237.8223425287997941
 51
280.1305034894024857
  0
ARC
  5
15A63
  8
0
 10
3505.1862657281030806
 20
169.7331024654004068
 30
0.0
 40
0.0211813427389998
 50
154.9049582127101132
 51
237.3700388581243033
  0
ARC
  5
15A64
  8
0
 10
3505.1938517922608298
 20
169.7189590292493051
 30
0.0
 40
0.0353748371029153
 50
103.8326770878068004
 51
139.1738013247812944
  0
ARC
  5
15A65
  8
0
 10
3505.2267105728828938
 20
169.5968871841064072
 30
0.0
 40
0.161785347185065
 50
60.3008433601748592
 51
104.7959976755146982
  0
LINE
  5
15A66
  8
0
 10
3505.1650843853640254
 20
169.7331024654004068
 30
0.0
 11
3505.1646684418110453
 21
169.8027924040532923
 31
0.0
  0
ARC
  5
15A67
  8
0
 10
3505.18517803740815
 20
169.7995954816828998
 30
0.0
 40
0.031093336712277
 50
194.2090784676483963
 51
229.1191931013885892
  0
ARC
  5
15A68
  8
0
 10
3505.1618382904571263
 20
169.793685682656303
 30
0.0
 40
0.0070170099102727
 50
125.7828303013304065
 51
194.2090784676437067
  0
ARC
  5
15A69
  8
0
 10
3505.2131936167988897
 20
169.6955089654923086
 30
0.0
 40
0.1177473090860804
 50
77.391444522795112
 51
118.0988376951889052
  0
ARC
  5
15A6A
  8
0
 10
3505.2450095299191162
 20
169.6877261431955048
 30
0.0
 40
0.1228427512436811
 50
54.8736947772760431
 51
92.8523651529768301
  0
ARC
  5
15A6B
  8
0
 10
3505.3125249832992267
 20
169.7783285570137934
 30
0.0
 40
0.0103642814283806
 50
354.9375915008602078
 51
72.2139533511447951
  0
ARC
  5
15A6C
  8
0
 10
3505.2983558830628681
 20
169.7817968892574925
 30
0.0
 40
0.0248820094525184
 50
312.2065545396428092
 51
349.8546025832847022
  0
ARC
  5
15A6D
  8
0
 10
3505.2579767134379836
 20
169.7169801531568964
 30
0.0
 40
0.0050599824918908
 50
281.8496045000821937
 51
68.2759628341882916
  0
ARC
  5
15A6E
  8
0
 10
3505.2432640626370812
 20
169.7564753600672987
 30
0.0
 40
0.0471559485753636
 50
238.07926942946591
 51
289.5138001088072883
  0
ARC
  5
15A6F
  8
0
 10
3505.2209424506249889
 20
169.7205068204735028
 30
0.0
 40
0.0048246427266007
 50
112.0297175493546007
 51
237.2235384610441997
  0
ARC
  5
15A70
  8
0
 10
3505.2359814209189608
 20
169.6800045856348049
 30
0.0
 40
0.0480270088011901
 50
60.1999944484142304
 51
110.5372208045846065
  0
LINE
  5
15A71
  8
0
 10
3505.624876706230225
 20
168.7176277104829012
 30
0.0
 11
3505.6259961831801775
 21
168.6566312802451932
 31
0.0
  0
ARC
  5
15A72
  8
0
 10
3505.638862043989775
 20
168.6550859427323985
 30
0.0
 40
0.0130279726191424
 50
108.3543623987983011
 51
230.4355831185152113
  0
ARC
  5
15A73
  8
0
 10
3505.6579046874198866
 20
168.6744544336258116
 30
0.0
 40
0.0401568774534951
 50
227.0900162102946069
 51
259.6621135187677964
  0
ARC
  5
15A74
  8
0
 10
3505.6861029203269027
 20
168.8521207474655057
 30
0.0
 40
0.2200383044929722
 50
260.740773025895578
 51
268.9662507452758859
  0
ARC
  5
15A75
  8
0
 10
3505.6882182208041741
 20
168.546076117079906
 30
0.0
 40
0.1326262375602962
 50
92.629738498037625
 51
113.770682777708501
  0
ARC
  5
15A76
  8
0
 10
3505.6761955442370891
 20
168.5953948755191902
 30
0.0
 40
0.1325688088414873
 50
87.4329159140562382
 51
112.774853515346706
  0
ARC
  5
15A77
  8
0
 10
3505.6281711196329525
 20
168.7071863676781902
 30
0.0
 40
0.0109487350517785
 50
107.5113326301021033
 51
166.9811986542619024
  0
ARC
  5
15A78
  8
0
 10
3505.641996761133214
 20
168.7140356822519891
 30
0.0
 40
0.0248820094525184
 50
190.1453974167152978
 51
227.7934454603582992
  0
ARC
  5
15A79
  8
0
 10
3505.6623768513190953
 20
168.6477792695210098
 30
0.0
 40
0.0050599824918908
 50
111.7240371658116942
 51
258.1503954999178063
  0
ARC
  5
15A7A
  8
0
 10
3505.6850669307100361
 20
168.7215544132426999
 30
0.0
 40
0.0822256545284396
 50
253.2267222023108104
 51
267.9552616909368794
  0
ARC
  5
15A7B
  8
0
 10
3505.6793798105300084
 20
168.6150090726607971
 30
0.0
 40
0.0419566297278632
 50
86.2373725036482455
 51
116.7365890402523974
  0
LINE
  5
15A7C
  8
0
 10
3505.7393894080701102
 20
168.8214653810730965
 30
0.0
 11
3505.7382699311210672
 21
168.7604689508353886
 31
0.0
  0
ARC
  5
15A7D
  8
0
 10
3505.7254040703110149
 20
168.7589236133225938
 30
0.0
 40
0.0130279726191424
 50
309.5644168814848172
 51
71.6456376012016563
  0
ARC
  5
15A7E
  8
0
 10
3505.7063614268809033
 20
168.7782921042160069
 30
0.0
 40
0.0401568774534951
 50
280.3378864812322036
 51
312.909983789704313
  0
ARC
  5
15A7F
  8
0
 10
3505.6781631939738872
 20
168.9559584180557863
 30
0.0
 40
0.2200383044929954
 50
271.0337492547241141
 51
279.2592269741043083
  0
ARC
  5
15A80
  8
0
 10
3505.6760478934961611
 20
168.6499137876701013
 30
0.0
 40
0.1326262375602962
 50
66.2293172222915132
 51
87.3702615019623465
  0
ARC
  5
15A81
  8
0
 10
3505.6843329813691525
 20
168.6782580597059962
 30
0.0
 40
0.1534260310845778
 50
68.9706144899780185
 51
90.8215836349219643
  0
ARC
  5
15A82
  8
0
 10
3505.7360949946678375
 20
168.811024038268414
 30
0.0
 40
0.0109487350517815
 50
13.0188013457396803
 51
72.4886673698969446
  0
ARC
  5
15A83
  8
0
 10
3505.7222693531680306
 20
168.8178733528422129
 30
0.0
 40
0.0248820094525184
 50
312.2065545396416155
 51
349.8546025832847022
  0
ARC
  5
15A84
  8
0
 10
3505.7018892629821494
 20
168.7516169401112052
 30
0.0
 40
0.0050599824918908
 50
281.8496045000821937
 51
68.2759628341882916
  0
ARC
  5
15A85
  8
0
 10
3505.6791991835898443
 20
168.8253920838328952
 30
0.0
 40
0.0822256545284546
 50
272.0447383090631206
 51
286.7732777976885927
  0
ARC
  5
15A86
  8
0
 10
3505.6816087489592064
 20
168.7027182886398009
 30
0.0
 40
0.0579970154920756
 50
67.5439399830326721
 51
89.4820984730421856
  0
LINE
  5
15A87
  8
0
 10
3505.6248765556888429
 20
168.8214653810730965
 30
0.0
 11
3505.6259960326387954
 21
168.7604689508353886
 31
0.0
  0
ARC
  5
15A88
  8
0
 10
3505.6388618934479382
 20
168.7589236133225938
 30
0.0
 40
0.0130279726191424
 50
108.3543623987983011
 51
230.4355831185152113
  0
ARC
  5
15A89
  8
0
 10
3505.6579045368780498
 20
168.7782921042160069
 30
0.0
 40
0.0401568774534951
 50
227.0900162102946069
 51
259.6621135187677964
  0
ARC
  5
15A8A
  8
0
 10
3505.6861027697859754
 20
168.9559584180557863
 30
0.0
 40
0.2200383044929722
 50
260.740773025895578
 51
268.9662507452758859
  0
ARC
  5
15A8B
  8
0
 10
3505.688218070262792
 20
168.6499137876701013
 30
0.0
 40
0.1326262375602962
 50
92.629738498037625
 51
113.770682777708501
  0
ARC
  5
15A8C
  8
0
 10
3505.6761953936961618
 20
168.699232546109414
 30
0.0
 40
0.1325688088414873
 50
87.4329159140562382
 51
112.774853515346706
  0
ARC
  5
15A8D
  8
0
 10
3505.6281709690911157
 20
168.811024038268414
 30
0.0
 40
0.0109487350517785
 50
107.5113326301021033
 51
166.9811986542619024
  0
ARC
  5
15A8E
  8
0
 10
3505.641996610591832
 20
168.8178733528422129
 30
0.0
 40
0.0248820094525184
 50
190.1453974167152978
 51
227.7934454603582992
  0
ARC
  5
15A8F
  8
0
 10
3505.662376700778168
 20
168.7516169401112052
 30
0.0
 40
0.0050599824918908
 50
111.7240371658116942
 51
258.1503954999178063
  0
ARC
  5
15A90
  8
0
 10
3505.6850667801691088
 20
168.8253920838328952
 30
0.0
 40
0.0822256545284396
 50
253.2267222023108104
 51
267.9552616909368794
  0
ARC
  5
15A91
  8
0
 10
3505.6793796599881716
 20
168.7188467432509924
 30
0.0
 40
0.0419566297278632
 50
86.2373725036482455
 51
116.7365890402523974
  0
LINE
  5
15A92
  8
0
 10
3505.7393895586128565
 20
169.455027727713798
 30
0.0
 11
3505.738270081662904
 21
169.39403129747609
 31
0.0
  0
ARC
  5
15A93
  8
0
 10
3505.7254042208528517
 20
169.3924859599632953
 30
0.0
 40
0.0130279726191424
 50
309.5644168814848172
 51
71.6456376012016563
  0
ARC
  5
15A94
  8
0
 10
3505.7063615774231948
 20
169.4118544508565947
 30
0.0
 40
0.0401568774534951
 50
280.3378864812322036
 51
312.909983789704313
  0
ARC
  5
15A95
  8
0
 10
3505.6781633445161788
 20
169.5895207646964025
 30
0.0
 40
0.2200383044929954
 50
271.0337492547241141
 51
279.2592269741043083
  0
ARC
  5
15A96
  8
0
 10
3505.6760480440379979
 20
169.2834761343108028
 30
0.0
 40
0.1326262375602962
 50
66.2293172222915132
 51
87.3702615019623465
  0
ARC
  5
15A97
  8
0
 10
3505.6843331319100798
 20
169.3118204063466123
 30
0.0
 40
0.1534260310845778
 50
68.9706144899780185
 51
90.8215836349219643
  0
ARC
  5
15A98
  8
0
 10
3505.736095145210129
 20
169.4445863849090017
 30
0.0
 40
0.0109487350517815
 50
13.0188013457396803
 51
72.4886673698969446
  0
ARC
  5
15A99
  8
0
 10
3505.7222695037098674
 20
169.4514356994828859
 30
0.0
 40
0.0248820094525184
 50
312.2065545396416155
 51
349.8546025832847022
  0
ARC
  5
15A9A
  8
0
 10
3505.7018894135230767
 20
169.3851792867519066
 30
0.0
 40
0.0050599824918908
 50
281.8496045000821937
 51
68.2759628341882916
  0
ARC
  5
15A9B
  8
0
 10
3505.6791993341321358
 20
169.4589544304735114
 30
0.0
 40
0.0822256545284546
 50
272.0447383090631206
 51
286.7732777976885927
  0
ARC
  5
15A9C
  8
0
 10
3505.6816088995001337
 20
169.3362806352803887
 30
0.0
 40
0.0579970154920756
 50
67.5439399830326721
 51
89.4820984730421856
  0
LINE
  5
15A9D
  8
0
 10
3505.624876706230225
 20
169.455027727713798
 30
0.0
 11
3505.6259961831801775
 21
169.39403129747609
 31
0.0
  0
ARC
  5
15A9E
  8
0
 10
3505.638862043989775
 20
169.3924859599632953
 30
0.0
 40
0.0130279726191424
 50
108.3543623987983011
 51
230.4355831185152113
  0
ARC
  5
15A9F
  8
0
 10
3505.6579046874198866
 20
169.4118544508565947
 30
0.0
 40
0.0401568774534951
 50
227.0900162102946069
 51
259.6621135187677964
  0
ARC
  5
15AA0
  8
0
 10
3505.6861029203269027
 20
169.5895207646964025
 30
0.0
 40
0.2200383044929722
 50
260.740773025895578
 51
268.9662507452758859
  0
ARC
  5
15AA1
  8
0
 10
3505.6882182208041741
 20
169.2834761343108028
 30
0.0
 40
0.1326262375602962
 50
92.629738498037625
 51
113.770682777708501
  0
ARC
  5
15AA2
  8
0
 10
3505.6761955442370891
 20
169.3327948927500017
 30
0.0
 40
0.1325688088414873
 50
87.4329159140562382
 51
112.774853515346706
  0
ARC
  5
15AA3
  8
0
 10
3505.6281711196329525
 20
169.4445863849090017
 30
0.0
 40
0.0109487350517785
 50
107.5113326301021033
 51
166.9811986542619024
  0
ARC
  5
15AA4
  8
0
 10
3505.641996761133214
 20
169.4514356994828859
 30
0.0
 40
0.0248820094525184
 50
190.1453974167152978
 51
227.7934454603582992
  0
ARC
  5
15AA5
  8
0
 10
3505.6623768513190953
 20
169.3851792867519066
 30
0.0
 40
0.0050599824918908
 50
111.7240371658116942
 51
258.1503954999178063
  0
ARC
  5
15AA6
  8
0
 10
3505.6850669307100361
 20
169.4589544304735114
 30
0.0
 40
0.0822256545284396
 50
253.2267222023108104
 51
267.9552616909368794
  0
ARC
  5
15AA7
  8
0
 10
3505.6793798105300084
 20
169.3524090898916086
 30
0.0
 40
0.0419566297278632
 50
86.2373725036482455
 51
116.7365890402523974
  0
LINE
  5
15AA8
  8
0
 10
3505.7393895586128565
 20
169.6644121222948911
 30
0.0
 11
3505.738270081662904
 21
169.6034156920572116
 31
0.0
  0
ARC
  5
15AA9
  8
0
 10
3505.7254042208528517
 20
169.6018703545443884
 30
0.0
 40
0.0130279726191424
 50
309.5644168814848172
 51
71.6456376012016563
  0
ARC
  5
15AAA
  8
0
 10
3505.7063615774231948
 20
169.6212388454376878
 30
0.0
 40
0.0401568774534951
 50
280.3378864812322036
 51
312.909983789704313
  0
ARC
  5
15AAB
  8
0
 10
3505.6781633445161788
 20
169.7989051592774956
 30
0.0
 40
0.2200383044929954
 50
271.0337492547241141
 51
279.2592269741043083
  0
ARC
  5
15AAC
  8
0
 10
3505.6760480440379979
 20
169.4928605288918106
 30
0.0
 40
0.1326262375602962
 50
66.2293172222915132
 51
87.3702615019623465
  0
ARC
  5
15AAD
  8
0
 10
3505.6843331319100798
 20
169.5212048009277055
 30
0.0
 40
0.1534260310845778
 50
68.9706144899780185
 51
90.8215836349219643
  0
ARC
  5
15AAE
  8
0
 10
3505.736095145210129
 20
169.6539707794902085
 30
0.0
 40
0.0109487350517815
 50
13.0188013457396803
 51
72.4886673698969446
  0
ARC
  5
15AAF
  8
0
 10
3505.7222695037098674
 20
169.6608200940640074
 30
0.0
 40
0.0248820094525184
 50
312.2065545396416155
 51
349.8546025832847022
  0
ARC
  5
15AB0
  8
0
 10
3505.7018894135230767
 20
169.5945636813329997
 30
0.0
 40
0.0050599824918908
 50
281.8496045000821937
 51
68.2759628341882916
  0
ARC
  5
15AB1
  8
0
 10
3505.6791993341321358
 20
169.6683388250546045
 30
0.0
 40
0.0822256545284546
 50
272.0447383090631206
 51
286.7732777976885927
  0
ARC
  5
15AB2
  8
0
 10
3505.6816088995001337
 20
169.5456650298615102
 30
0.0
 40
0.0579970154920756
 50
67.5439399830326721
 51
89.4820984730421856
  0
LINE
  5
15AB3
  8
0
 10
3505.624876706230225
 20
169.6644121222948911
 30
0.0
 11
3505.6259961831801775
 21
169.6034156920572116
 31
0.0
  0
ARC
  5
15AB4
  8
0
 10
3505.638862043989775
 20
169.6018703545443884
 30
0.0
 40
0.0130279726191424
 50
108.3543623987983011
 51
230.4355831185152113
  0
ARC
  5
15AB5
  8
0
 10
3505.6579046874198866
 20
169.6212388454376878
 30
0.0
 40
0.0401568774534951
 50
227.0900162102946069
 51
259.6621135187677964
  0
ARC
  5
15AB6
  8
0
 10
3505.6861029203269027
 20
169.7989051592774956
 30
0.0
 40
0.2200383044929722
 50
260.740773025895578
 51
268.9662507452758859
  0
ARC
  5
15AB7
  8
0
 10
3505.6882182208041741
 20
169.4928605288918106
 30
0.0
 40
0.1326262375602962
 50
92.629738498037625
 51
113.770682777708501
  0
ARC
  5
15AB8
  8
0
 10
3505.6761955442370891
 20
169.5421792873310949
 30
0.0
 40
0.1325688088414873
 50
87.4329159140562382
 51
112.774853515346706
  0
ARC
  5
15AB9
  8
0
 10
3505.6281711196329525
 20
169.6539707794902085
 30
0.0
 40
0.0109487350517785
 50
107.5113326301021033
 51
166.9811986542619024
  0
ARC
  5
15ABA
  8
0
 10
3505.641996761133214
 20
169.6608200940640074
 30
0.0
 40
0.0248820094525184
 50
190.1453974167152978
 51
227.7934454603582992
  0
ARC
  5
15ABB
  8
0
 10
3505.6623768513190953
 20
169.5945636813329997
 30
0.0
 40
0.0050599824918908
 50
111.7240371658116942
 51
258.1503954999178063
  0
ARC
  5
15ABC
  8
0
 10
3505.6850669307100361
 20
169.6683388250546045
 30
0.0
 40
0.0822256545284396
 50
253.2267222023108104
 51
267.9552616909368794
  0
ARC
  5
15ABD
  8
0
 10
3505.6793798105300084
 20
169.5617934844727017
 30
0.0
 40
0.0419566297278632
 50
86.2373725036482455
 51
116.7365890402523974
  0
LINE
  5
15ABE
  8
0
 10
3505.4596921859479153
 20
169.1234304365111996
 30
0.0
 11
3505.3784169594168816
 21
169.1388388842428867
 31
0.0
  0
ARC
  5
15ABF
  8
0
 10
3505.3801132477979081
 20
169.1477863281970997
 30
0.0
 40
0.0091068187413172
 50
179.9683332410166088
 51
259.2650629360849734
  0
LINE
  5
15AC0
  8
0
 10
3505.3710064304468688
 20
169.1477913614372994
 30
0.0
 11
3505.3705794832849278
 21
169.2309625240085893
 31
0.0
  0
ARC
  5
15AC1
  8
0
 10
3505.3676266895108711
 20
169.183229269923487
 30
0.0
 40
0.0090912616220673
 50
69.7001835657414404
 51
93.752131393503717
  0
ARC
  5
15AC2
  8
0
 10
3505.3666642375342235
 20
169.197905084274197
 30
0.0
 40
0.0056160780647366
 50
227.7569445444966902
 51
273.7521313935037028
  0
ARC
  5
15AC3
  8
0
 10
3505.3668082491522
 20
169.1980636673168021
 30
0.0
 40
0.0058302927409981
 50
185.5656788668696038
 51
227.7569445444966902
  0
ARC
  5
15AC4
  8
0
 10
3508.8474623552851881
 20
169.220029567983687
 30
0.0
 40
3.486529717114947
 50
179.8698219881451905
 51
180.3702710203056938
  0
ARC
  5
15AC5
  8
0
 10
3505.4948588017341535
 20
168.8162901147161108
 30
0.0
 40
0.4328955486287577
 50
95.9884154628040704
 51
108.0201918168474009
  0
ARC
  5
15AC6
  8
0
 10
3505.4532053650377748
 20
169.2079445199225063
 30
0.0
 40
0.0390369052403609
 50
80.4347042404035903
 51
95.1578602479675482
  0
LINE
  5
15AC7
  8
0
 10
3505.3708368097331913
 20
169.1808342138587022
 30
0.0
 11
3505.4596921859479153
 21
169.1979824693025023
 31
0.0
  0
ARC
  5
15AC8
  8
0
 10
3505.4831004865641262
 20
169.153125702462404
 30
0.0
 40
0.0040326495698611
 50
292.8872855464716736
 51
41.6236823994271106
  0
ARC
  5
15AC9
  8
0
 10
3505.4599297606018808
 20
169.2053500180437027
 30
0.0
 40
0.0611657484124153
 50
244.9411237234828036
 51
293.8572959739233283
  0
ARC
  5
15ACA
  8
0
 10
3505.4360360198597846
 20
169.1532810315881932
 30
0.0
 40
0.003899198966116
 50
115.2096605348627065
 51
238.9187753008739037
  0
ARC
  5
15ACB
  8
0
 10
3505.4592141037960573
 20
169.103202857352386
 30
0.0
 40
0.0590810672295007
 50
62.9143743422681609
 51
114.8611223582169032
  0
LINE
  5
15ACC
  8
0
 10
3505.4596921859479153
 20
169.1979824693025023
 30
0.0
 11
3505.4596921859479153
 21
169.2464386899387137
 31
0.0
  0
LINE
  5
15ACD
  8
0
 10
3505.4596921859479153
 20
169.1234304365111996
 30
0.0
 11
3505.540967412478949
 21
169.1388388842428867
 31
0.0
  0
ARC
  5
15ACE
  8
0
 10
3505.5392711240979224
 20
169.1477863281970997
 30
0.0
 40
0.0091068187413172
 50
280.7349370639150266
 51
0.0316667589833437
  0
LINE
  5
15ACF
  8
0
 10
3505.5483779414480523
 20
169.1477913614372994
 30
0.0
 11
3505.5488048886109027
 21
169.2309625240085893
 31
0.0
  0
ARC
  5
15AD0
  8
0
 10
3505.5517576823849595
 20
169.183229269923487
 30
0.0
 40
0.0090912616220673
 50
86.2478686064962972
 51
110.2998164342585028
  0
ARC
  5
15AD1
  8
0
 10
3505.5527201343620618
 20
169.197905084274197
 30
0.0
 40
0.0056160780647366
 50
266.2478686064961835
 51
312.2430554555032813
  0
ARC
  5
15AD2
  8
0
 10
3505.5525761227440853
 20
169.1980636673168021
 30
0.0
 40
0.0058302927409981
 50
312.2430554555032813
 51
354.4343211331304246
  0
ARC
  5
15AD3
  8
0
 10
3502.0719220166110972
 20
169.220029567983687
 30
0.0
 40
3.486529717114947
 50
359.6297289796942778
 51
0.1301780118547799
  0
ARC
  5
15AD4
  8
0
 10
3505.4245255701621318
 20
168.8162901147161108
 30
0.0
 40
0.4328955486287577
 50
71.9798081831525707
 51
84.0115845371959438
  0
ARC
  5
15AD5
  8
0
 10
3505.4661790068580558
 20
169.2079445199225063
 30
0.0
 40
0.0390369052403609
 50
84.842139752032466
 51
99.5652957595964239
  0
LINE
  5
15AD6
  8
0
 10
3505.548547562163094
 20
169.1808342138587022
 30
0.0
 11
3505.4596921859479153
 21
169.1979824693025023
 31
0.0
  0
LINE
  5
15AD7
  8
0
 10
3505.2371772250821778
 20
169.0857768442849931
 30
0.0
 11
3505.1559019985497798
 21
169.1011852920167939
 31
0.0
  0
ARC
  5
15AD8
  8
0
 10
3505.1575982869321706
 20
169.1101327359708932
 30
0.0
 40
0.0091068187413172
 50
179.9683332410166088
 51
259.2650629360849734
  0
LINE
  5
15AD9
  8
0
 10
3505.1484914695820407
 20
169.110137769211093
 30
0.0
 11
3505.1480645224178261
 21
169.1933089317824113
 31
0.0
  0
ARC
  5
15ADA
  8
0
 10
3505.1451117286442241
 20
169.1455756776973089
 30
0.0
 40
0.0090912616220673
 50
69.7001835657414404
 51
93.752131393503717
  0
ARC
  5
15ADB
  8
0
 10
3505.1441492766680312
 20
169.1602514920479905
 30
0.0
 40
0.0056160780647366
 50
227.7569445444966902
 51
273.7521313935037028
  0
ARC
  5
15ADC
  8
0
 10
3505.1442932882860077
 20
169.1604100750907094
 30
0.0
 40
0.0058302927409981
 50
185.5656788668696038
 51
227.7569445444966902
  0
ARC
  5
15ADD
  8
0
 10
3508.6249473944180863
 20
169.182375975757509
 30
0.0
 40
3.486529717114947
 50
179.8698219881451905
 51
180.3702710203056938
  0
ARC
  5
15ADE
  8
0
 10
3505.2723438408679613
 20
168.7786365224899896
 30
0.0
 40
0.4328955486287577
 50
95.9884154628040704
 51
108.0201918168474009
  0
ARC
  5
15ADF
  8
0
 10
3505.2306904041720372
 20
169.1702909276964135
 30
0.0
 40
0.0390369052403609
 50
80.4347042404035903
 51
95.1578602479675482
  0
LINE
  5
15AE0
  8
0
 10
3505.1483218488660896
 20
169.1431806216324958
 30
0.0
 11
3505.2371772250821778
 21
169.1603288770762958
 31
0.0
  0
ARC
  5
15AE1
  8
0
 10
3505.2605855256979339
 20
169.1154721102361975
 30
0.0
 40
0.0040326495698611
 50
292.8872855464716736
 51
41.6236823994271106
  0
ARC
  5
15AE2
  8
0
 10
3505.2374147997361433
 20
169.1676964258176099
 30
0.0
 40
0.0611657484124153
 50
244.9411237234828036
 51
293.8572959739233283
  0
ARC
  5
15AE3
  8
0
 10
3505.2135210589940471
 20
169.1156274393621004
 30
0.0
 40
0.003899198966116
 50
115.2096605348627065
 51
238.9187753008739037
  0
ARC
  5
15AE4
  8
0
 10
3505.236699142929865
 20
169.065549265126208
 30
0.0
 40
0.0590810672295007
 50
62.9143743422681609
 51
114.8611223582169032
  0
LINE
  5
15AE5
  8
0
 10
3505.2371772250821778
 20
169.1603288770762958
 30
0.0
 11
3505.2371772250821778
 21
169.2794914457840036
 31
0.0
  0
LINE
  5
15AE6
  8
0
 10
3505.2371772250821778
 20
169.0857768442849931
 30
0.0
 11
3505.3184524516132115
 21
169.1011852920167939
 31
0.0
  0
ARC
  5
15AE7
  8
0
 10
3505.3167561632308207
 20
169.1101327359708932
 30
0.0
 40
0.0091068187413172
 50
280.7349370639150266
 51
0.0316667589833437
  0
LINE
  5
15AE8
  8
0
 10
3505.32586298058186
 20
169.110137769211093
 30
0.0
 11
3505.3262899277451652
 21
169.1933089317824113
 31
0.0
  0
ARC
  5
15AE9
  8
0
 10
3505.329242721519222
 20
169.1455756776973089
 30
0.0
 40
0.0090912616220673
 50
86.2478686064962972
 51
110.2998164342585028
  0
ARC
  5
15AEA
  8
0
 10
3505.33020517349496
 20
169.1602514920479905
 30
0.0
 40
0.0056160780647366
 50
266.2478686064961835
 51
312.2430554555032813
  0
ARC
  5
15AEB
  8
0
 10
3505.330061161877893
 20
169.1604100750907094
 30
0.0
 40
0.0058302927409981
 50
312.2430554555032813
 51
354.4343211331304246
  0
ARC
  5
15AEC
  8
0
 10
3501.8494070557449049
 20
169.182375975757509
 30
0.0
 40
3.486529717114947
 50
359.6297289796942778
 51
0.1301780118547799
  0
ARC
  5
15AED
  8
0
 10
3505.20201060929503
 20
168.7786365224899896
 30
0.0
 40
0.4328955486287577
 50
71.9798081831525707
 51
84.0115845371959438
  0
ARC
  5
15AEE
  8
0
 10
3505.243664045990954
 20
169.1702909276964135
 30
0.0
 40
0.0390369052403609
 50
84.842139752032466
 51
99.5652957595964239
  0
LINE
  5
15AEF
  8
0
 10
3505.3260326012969017
 20
169.1431806216324958
 30
0.0
 11
3505.2371772250821778
 21
169.1603288770762958
 31
0.0
  0
LINE
  5
15AF0
  8
0
 10
3505.2372512498482138
 20
169.0030018556111884
 30
0.0
 11
3505.1559760233158158
 21
169.0184103033429039
 31
0.0
  0
ARC
  5
15AF1
  8
0
 10
3505.1576723116982066
 20
169.0273577472970885
 30
0.0
 40
0.0091068187413172
 50
179.9683332410166088
 51
259.2650629360849734
  0
LINE
  5
15AF2
  8
0
 10
3505.1485654943480768
 20
169.0273627805372882
 30
0.0
 11
3505.1481385471838621
 21
169.1105339431086065
 31
0.0
  0
ARC
  5
15AF3
  8
0
 10
3505.1451857534111696
 20
169.0628006890235042
 30
0.0
 40
0.0090912616220673
 50
69.7001835657414404
 51
93.752131393503717
  0
ARC
  5
15AF4
  8
0
 10
3505.1442233014340673
 20
169.0774765033742142
 30
0.0
 40
0.0056160780647366
 50
227.7569445444966902
 51
273.7521313935037028
  0
ARC
  5
15AF5
  8
0
 10
3505.1443673130520438
 20
169.077635086416791
 30
0.0
 40
0.0058302927409981
 50
185.5656788668696038
 51
227.7569445444966902
  0
ARC
  5
15AF6
  8
0
 10
3508.6250214191850318
 20
169.0996009870837042
 30
0.0
 40
3.486529717114947
 50
179.8698219881451905
 51
180.3702710203056938
  0
ARC
  5
15AF7
  8
0
 10
3505.2724178656330878
 20
168.6958615338160996
 30
0.0
 40
0.4328955486287577
 50
106.6353244616657037
 51
108.0201918168474009
  0
LINE
  5
15AF8
  8
0
 10
3505.1483958736321256
 20
169.0604056329586911
 30
0.0
 11
3505.2372512498482138
 21
169.0775538884024911
 31
0.0
  0
ARC
  5
15AF9
  8
0
 10
3505.2606595504639699
 20
169.0326971215623928
 30
0.0
 40
0.0040326495698611
 50
292.8872855464716736
 51
41.6236823994271106
  0
ARC
  5
15AFA
  8
0
 10
3505.2374888245021793
 20
169.0849214371436915
 30
0.0
 40
0.0611657484124153
 50
244.9411237234828036
 51
293.8572959739233283
  0
ARC
  5
15AFB
  8
0
 10
3505.2135950837600831
 20
169.0328524506882104
 30
0.0
 40
0.003899198966116
 50
115.2096605348627065
 51
238.9187753008739037
  0
ARC
  5
15AFC
  8
0
 10
3505.2367731676949916
 20
168.9827742764524032
 30
0.0
 40
0.0590810672295007
 50
62.9143743422681609
 51
114.8611223582169032
  0
LINE
  5
15AFD
  8
0
 10
3505.2372512498482138
 20
169.0775538884024911
 30
0.0
 11
3505.2372512498482138
 21
169.0857908781646017
 31
0.0
  0
LINE
  5
15AFE
  8
0
 10
3505.2372512498482138
 20
169.0030018556111884
 30
0.0
 11
3505.3185264763787927
 21
169.0184103033429039
 31
0.0
  0
ARC
  5
15AFF
  8
0
 10
3505.3168301879968567
 20
169.0273577472970885
 30
0.0
 40
0.0091068187413172
 50
280.7349370639150266
 51
0.0316667589833437
  0
LINE
  5
15B00
  8
0
 10
3505.325937005347896
 20
169.0273627805372882
 30
0.0
 11
3505.3263639525112012
 21
169.1105339431086065
 31
0.0
  0
ARC
  5
15B01
  8
0
 10
3505.3293167462848032
 20
169.0628006890235042
 30
0.0
 40
0.0090912616220673
 50
86.2478686064962972
 51
110.2998164342585028
  0
ARC
  5
15B02
  8
0
 10
3505.3302791982619055
 20
169.0774765033742142
 30
0.0
 40
0.0056160780647366
 50
266.2478686064961835
 51
312.2430554555032813
  0
ARC
  5
15B03
  8
0
 10
3505.330135186643929
 20
169.077635086416791
 30
0.0
 40
0.0058302927409981
 50
312.2430554555032813
 51
354.4343211331304246
  0
ARC
  5
15B04
  8
0
 10
3501.849481080510941
 20
169.0996009870837042
 30
0.0
 40
3.486529717114947
 50
359.6297289796942778
 51
0.1301780118547799
  0
ARC
  5
15B05
  8
0
 10
3505.2020846340619755
 20
168.6958615338160996
 30
0.0
 40
0.4328955486287577
 50
71.9798081831525707
 51
73.3850941622203266
  0
LINE
  5
15B06
  8
0
 10
3505.3261066260629377
 20
169.0604056329586911
 30
0.0
 11
3505.2372512498482138
 21
169.0775538884024911
 31
0.0
  0
LINE
  5
15B07
  8
0
 10
3505.2371867875481257
 20
168.9254681559112896
 30
0.0
 11
3505.1559115610161825
 21
168.9408766036430052
 31
0.0
  0
ARC
  5
15B08
  8
0
 10
3505.1576078493981186
 20
168.9498240475971045
 30
0.0
 40
0.0091068187413172
 50
179.9683332410166088
 51
259.2650629360849734
  0
LINE
  5
15B09
  8
0
 10
3505.1485010320479887
 20
168.9498290808373042
 30
0.0
 11
3505.1480740848851383
 21
169.0330002434085088
 31
0.0
  0
ARC
  5
15B0A
  8
0
 10
3505.1451212911110815
 20
168.9852669893234918
 30
0.0
 40
0.0090912616220673
 50
69.7001835657414404
 51
93.752131393503717
  0
ARC
  5
15B0B
  8
0
 10
3505.1441588391339792
 20
168.9999428036742017
 30
0.0
 40
0.0056160780647366
 50
227.7569445444966902
 51
273.7521313935037028
  0
ARC
  5
15B0C
  8
0
 10
3505.1443028507519557
 20
169.0001013867168069
 30
0.0
 40
0.0058302927409981
 50
185.5656788668696038
 51
227.7569445444966902
  0
ARC
  5
15B0D
  8
0
 10
3508.6249569568849438
 20
169.0220672873836918
 30
0.0
 40
3.486529717114947
 50
179.8698219881451905
 51
180.3702710203056938
  0
ARC
  5
15B0E
  8
0
 10
3505.2723534033339092
 20
168.6183278341160872
 30
0.0
 40
0.4328955486287577
 50
106.6199351975596983
 51
108.0201918168474009
  0
LINE
  5
15B0F
  8
0
 10
3505.1483314113320375
 20
168.982871933258707
 30
0.0
 11
3505.2371867875481257
 21
169.0000201887023934
 31
0.0
  0
ARC
  5
15B10
  8
0
 10
3505.2605950881638819
 20
168.9551634218624088
 30
0.0
 40
0.0040326495698611
 50
292.8872855464716736
 51
41.6236823994271106
  0
ARC
  5
15B11
  8
0
 10
3505.2374243622020913
 20
169.0073877374437075
 30
0.0
 40
0.0611657484124153
 50
244.9411237234828036
 51
293.8572959739233283
  0
ARC
  5
15B12
  8
0
 10
3505.213530621459995
 20
168.955318750988198
 30
0.0
 40
0.003899198966116
 50
115.2096605348627065
 51
238.9187753008739037
  0
ARC
  5
15B13
  8
0
 10
3505.236708705395813
 20
168.9052405767523055
 30
0.0
 40
0.0590810672295007
 50
62.9143743422681609
 51
114.8611223582169032
  0
LINE
  5
15B14
  8
0
 10
3505.2371867875481257
 20
169.0000201887023934
 30
0.0
 11
3505.2371867875481257
 21
169.0030140766043019
 31
0.0
  0
LINE
  5
15B15
  8
0
 10
3505.2371867875481257
 20
168.9254681559112896
 30
0.0
 11
3505.3184620140791594
 21
168.9408766036430052
 31
0.0
  0
ARC
  5
15B16
  8
0
 10
3505.3167657256972234
 20
168.9498240475971045
 30
0.0
 40
0.0091068187413172
 50
280.7349370639150266
 51
0.0316667589833437
  0
LINE
  5
15B17
  8
0
 10
3505.325872543047808
 20
168.9498290808373042
 30
0.0
 11
3505.3262994902111132
 21
169.0330002434085088
 31
0.0
  0
ARC
  5
15B18
  8
0
 10
3505.3292522839851699
 20
168.9852669893234918
 30
0.0
 40
0.0090912616220673
 50
86.2478686064962972
 51
110.2998164342585028
  0
ARC
  5
15B19
  8
0
 10
3505.3302147359618175
 20
168.9999428036742017
 30
0.0
 40
0.0056160780647366
 50
266.2478686064961835
 51
312.2430554555032813
  0
ARC
  5
15B1A
  8
0
 10
3505.330070724343841
 20
169.0001013867168069
 30
0.0
 40
0.0058302927409981
 50
312.2430554555032813
 51
354.4343211331304246
  0
ARC
  5
15B1B
  8
0
 10
3501.8494166182108529
 20
169.0220672873836918
 30
0.0
 40
3.486529717114947
 50
359.6297289796942778
 51
0.1301780118547799
  0
ARC
  5
15B1C
  8
0
 10
3505.2020201717618875
 20
168.6183278341160872
 30
0.0
 40
0.4328955486287577
 50
71.9798081831525707
 51
73.362283504308806
  0
LINE
  5
15B1D
  8
0
 10
3505.3260421637628497
 20
168.982871933258707
 30
0.0
 11
3505.2371867875481257
 21
169.0000201887023934
 31
0.0
  0
LINE
  5
15B1E
  8
0
 10
3505.4596921415900397
 20
168.8825734078571088
 30
0.0
 11
3505.378416915059006
 21
168.897981855588796
 31
0.0
  0
ARC
  5
15B1F
  8
0
 10
3505.380113203440942
 20
168.9069292995428953
 30
0.0
 40
0.0091068187413172
 50
179.9683332410166088
 51
259.2650629360849734
  0
LINE
  5
15B20
  8
0
 10
3505.3710063860908122
 20
168.906934332783095
 30
0.0
 11
3505.3705794389279617
 21
168.9901054953544133
 31
0.0
  0
ARC
  5
15B21
  8
0
 10
3505.3676266451529955
 20
168.942372241269311
 30
0.0
 40
0.0090912616220673
 50
69.7001835657414404
 51
93.752131393503717
  0
ARC
  5
15B22
  8
0
 10
3505.3666641931758932
 20
168.9570480556199925
 30
0.0
 40
0.0056160780647366
 50
227.7569445444966902
 51
273.7521313935037028
  0
ARC
  5
15B23
  8
0
 10
3505.3668082047938697
 20
168.9572066386627114
 30
0.0
 40
0.0058302927409981
 50
185.5656788668696038
 51
227.7569445444966902
  0
ARC
  5
15B24
  8
0
 10
3508.8474623109268578
 20
168.979172539329511
 30
0.0
 40
3.486529717114947
 50
179.8698219881451905
 51
180.3702710203056938
  0
ARC
  5
15B25
  8
0
 10
3505.4948587573758232
 20
168.5754330860619916
 30
0.0
 40
0.4328955486287577
 50
95.9884154628040704
 51
108.0201918168474009
  0
ARC
  5
15B26
  8
0
 10
3505.4532053206808087
 20
168.9670874912683871
 30
0.0
 40
0.0390369052403609
 50
80.4347042404035903
 51
95.1578602479675482
  0
LINE
  5
15B27
  8
0
 10
3505.370836765374861
 20
168.9399771852044978
 30
0.0
 11
3505.4596921415900397
 21
168.9571254406482979
 31
0.0
  0
ARC
  5
15B28
  8
0
 10
3505.4831004422057958
 20
168.9122686738083132
 30
0.0
 40
0.0040326495698611
 50
292.8872855464716736
 51
41.6236823994271106
  0
ARC
  5
15B29
  8
0
 10
3505.4599297162449147
 20
168.9644929893896119
 30
0.0
 40
0.0611657484124153
 50
244.9411237234828036
 51
293.8572959739233283
  0
ARC
  5
15B2A
  8
0
 10
3505.4360359755028185
 20
168.9124240029339887
 30
0.0
 40
0.003899198966116
 50
115.2096605348627065
 51
238.9187753008739037
  0
ARC
  5
15B2B
  8
0
 10
3505.4592140594381817
 20
168.86234582869821
 30
0.0
 40
0.0590810672295007
 50
62.9143743422681609
 51
114.8611223582169032
  0
LINE
  5
15B2C
  8
0
 10
3505.4596921415900397
 20
168.9571254406482979
 30
0.0
 11
3505.4596921415900397
 21
169.0055816612845092
 31
0.0
  0
LINE
  5
15B2D
  8
0
 10
3505.4596921415900397
 20
168.8825734078571088
 30
0.0
 11
3505.5409673681219829
 21
168.897981855588796
 31
0.0
  0
ARC
  5
15B2E
  8
0
 10
3505.5392710797400468
 20
168.9069292995428953
 30
0.0
 40
0.0091068187413172
 50
280.7349370639150266
 51
0.0316667589833437
  0
LINE
  5
15B2F
  8
0
 10
3505.5483778970910862
 20
168.906934332783095
 30
0.0
 11
3505.5488048442539366
 21
168.9901054953544133
 31
0.0
  0
ARC
  5
15B30
  8
0
 10
3505.5517576380270839
 20
168.942372241269311
 30
0.0
 40
0.0090912616220673
 50
86.2478686064962972
 51
110.2998164342585028
  0
ARC
  5
15B31
  8
0
 10
3505.5527200900050957
 20
168.9570480556199925
 30
0.0
 40
0.0056160780647366
 50
266.2478686064961835
 51
312.2430554555032813
  0
ARC
  5
15B32
  8
0
 10
3505.5525760783862097
 20
168.9572066386627114
 30
0.0
 40
0.0058302927409981
 50
312.2430554555032813
 51
354.4343211331304246
  0
ARC
  5
15B33
  8
0
 10
3502.0719219722532216
 20
168.979172539329511
 30
0.0
 40
3.486529717114947
 50
359.6297289796942778
 51
0.1301780118547799
  0
ARC
  5
15B34
  8
0
 10
3505.4245255258051657
 20
168.5754330860619916
 30
0.0
 40
0.4328955486287577
 50
71.9798081831525707
 51
84.0115845371959438
  0
ARC
  5
15B35
  8
0
 10
3505.4661789625001802
 20
168.9670874912683871
 30
0.0
 40
0.0390369052403609
 50
84.842139752032466
 51
99.5652957595964239
  0
LINE
  5
15B36
  8
0
 10
3505.5485475178061279
 20
168.9399771852044978
 30
0.0
 11
3505.4596921415900397
 21
168.9571254406482979
 31
0.0
  0
LINE
  5
15B37
  8
0
 10
3505.682133088448154
 20
168.8453132930953871
 30
0.0
 11
3505.6008578619162108
 21
168.8607217408271879
 31
0.0
  0
ARC
  5
15B38
  8
0
 10
3505.6025541502990563
 20
168.8696691847812872
 30
0.0
 40
0.0091068187413172
 50
179.9683332410166088
 51
259.2650629360849734
  0
LINE
  5
15B39
  8
0
 10
3505.593447332948017
 20
168.8696742180214869
 30
0.0
 11
3505.5930203857851666
 21
168.9528453805928052
 31
0.0
  0
ARC
  5
15B3A
  8
0
 10
3505.5900675920111098
 20
168.9051121265077029
 30
0.0
 40
0.0090912616220673
 50
69.7001835657414404
 51
93.752131393503717
  0
ARC
  5
15B3B
  8
0
 10
3505.5891051400340075
 20
168.9197879408584129
 30
0.0
 40
0.0056160780647366
 50
227.7569445444966902
 51
273.7521313935037028
  0
ARC
  5
15B3C
  8
0
 10
3505.5892491516528935
 20
168.9199465239009896
 30
0.0
 40
0.0058302927409981
 50
185.5656788668696038
 51
227.7569445444966902
  0
ARC
  5
15B3D
  8
0
 10
3509.0699032577849721
 20
168.9419124245679029
 30
0.0
 40
3.486529717114947
 50
179.8698219881451905
 51
180.3702710203056938
  0
ARC
  5
15B3E
  8
0
 10
3505.7172997042339375
 20
168.5381729713002983
 30
0.0
 40
0.4328955486287577
 50
95.9884154628040704
 51
108.0201918168474009
  0
ARC
  5
15B3F
  8
0
 10
3505.6756462675380135
 20
168.9298273765066938
 30
0.0
 40
0.0390369052403609
 50
80.4347042404035903
 51
95.1578602479675482
  0
LINE
  5
15B40
  8
0
 10
3505.5932777122320658
 20
168.9027170704428897
 30
0.0
 11
3505.682133088448154
 21
168.9198653258866898
 31
0.0
  0
ARC
  5
15B41
  8
0
 10
3505.7055413890639102
 20
168.8750085590465915
 30
0.0
 40
0.0040326495698611
 50
292.8872855464716736
 51
41.6236823994271106
  0
ARC
  5
15B42
  8
0
 10
3505.6823706631021196
 20
168.9272328746280039
 30
0.0
 40
0.0611657484124153
 50
244.9411237234828036
 51
293.8572959739233283
  0
ARC
  5
15B43
  8
0
 10
3505.6584769223609328
 20
168.8751638881724091
 30
0.0
 40
0.003899198966116
 50
115.2096605348627065
 51
238.9187753008739037
  0
ARC
  5
15B44
  8
0
 10
3505.6816550062958413
 20
168.8250857139364882
 30
0.0
 40
0.0590810672295007
 50
62.9143743422681609
 51
114.8611223582169032
  0
LINE
  5
15B45
  8
0
 10
3505.682133088448154
 20
168.9198653258866898
 30
0.0
 11
3505.682133088448154
 21
168.9683215465229011
 31
0.0
  0
LINE
  5
15B46
  8
0
 10
3505.682133088448154
 20
168.8453132930953871
 30
0.0
 11
3505.7634083149800972
 21
168.8607217408271879
 31
0.0
  0
ARC
  5
15B47
  8
0
 10
3505.7617120265967969
 20
168.8696691847812872
 30
0.0
 40
0.0091068187413172
 50
280.7349370639150266
 51
0.0316667589833437
  0
LINE
  5
15B48
  8
0
 10
3505.7708188439478363
 20
168.8696742180214869
 30
0.0
 11
3505.7712457911111414
 21
168.9528453805928052
 31
0.0
  0
ARC
  5
15B49
  8
0
 10
3505.7741985848851982
 20
168.9051121265077029
 30
0.0
 40
0.0090912616220673
 50
86.2478686064962972
 51
110.2998164342585028
  0
ARC
  5
15B4A
  8
0
 10
3505.7751610368609363
 20
168.9197879408584129
 30
0.0
 40
0.0056160780647366
 50
266.2478686064961835
 51
312.2430554555032813
  0
ARC
  5
15B4B
  8
0
 10
3505.7750170252429598
 20
168.9199465239009896
 30
0.0
 40
0.0058302927409981
 50
312.2430554555032813
 51
354.4343211331304246
  0
ARC
  5
15B4C
  8
0
 10
3502.2943629191108812
 20
168.9419124245679029
 30
0.0
 40
3.486529717114947
 50
359.6297289796942778
 51
0.1301780118547799
  0
ARC
  5
15B4D
  8
0
 10
3505.6469664726610063
 20
168.5381729713002983
 30
0.0
 40
0.4328955486287577
 50
71.9798081831525707
 51
84.0115845371959438
  0
ARC
  5
15B4E
  8
0
 10
3505.6886199093578398
 20
168.9298273765066938
 30
0.0
 40
0.0390369052403609
 50
84.842139752032466
 51
99.5652957595964239
  0
LINE
  5
15B4F
  8
0
 10
3505.770988464662878
 20
168.9027170704428897
 30
0.0
 11
3505.682133088448154
 21
168.9198653258866898
 31
0.0
  0
LINE
  5
15B50
  8
0
 10
3504.424056352505886
 20
169.5817794962858898
 30
0.0
 11
3504.7350503155539627
 21
169.4958974363090078
 31
0.0
  0
LINE
  5
15B51
  8
0
 10
3504.846418804167115
 20
169.465142642470795
 30
0.0
 11
3505.177271809739068
 21
169.3737764391223948
 31
0.0
  0
LINE
  5
15B52
  8
0
 10
3505.29300957705982
 20
169.3418150538361999
 30
0.0
 11
3505.5833737167531581
 21
169.2616299910274051
 31
0.0
  0
LINE
  5
15B53
  8
0
 10
3504.475988796979891
 20
169.7746740383516908
 30
0.0
 11
3504.7119028893889663
 21
169.7074623309858055
 31
0.0
  0
LINE
  5
15B54
  8
0
 10
3504.8705341560280431
 20
169.6622684294108865
 30
0.0
 11
3505.184367108288825
 21
169.5728577107304886
 31
0.0
  0
LINE
  5
15B55
  8
0
 10
3505.2967588536821495
 20
169.5408374061165091
 30
0.0
 11
3505.6182613565861175
 21
169.4492416395306975
 31
0.0
  0
LINE
  5
15B56
  8
0
 10
3504.9424657293370728
 20
169.8504855102852105
 30
0.0
 11
3505.1549380168062271
 21
169.7924110644291886
 31
0.0
  0
LINE
  5
15B57
  8
0
 10
3505.3148028679697745
 20
169.7487156594719977
 30
0.0
 11
3505.6241624704789501
 21
169.6641592794383087
 31
0.0
  0
LINE
  5
15B58
  8
0
 10
3505.1384212412172019
 20
169.1873610900271956
 30
0.0
 11
3504.8512029257858558
 21
169.2728406002619863
 31
0.0
  0
LINE
  5
15B59
  8
0
 10
3504.7385019280068263
 20
169.3063817276052134
 30
0.0
 11
3504.4059638933331371
 21
169.4053489132311938
 31
0.0
  0
LINE
  5
15B5A
  8
0
 10
3504.2967232195392171
 20
169.4378602079218012
 30
0.0
 11
3503.8737293965969002
 21
169.5637480878895929
 31
0.0
  0
LINE
  5
15B5B
  8
0
 10
3505.1384289560492107
 20
169.0255267256384002
 30
0.0
 11
3504.8497799933948045
 21
169.1059019172286071
 31
0.0
  0
LINE
  5
15B5C
  8
0
 10
3504.7336971838271893
 20
169.1382255326452935
 30
0.0
 11
3504.4073932021569817
 21
169.2290858801142974
 31
0.0
  0
LINE
  5
15B5D
  8
0
 10
3504.2964434720411191
 20
169.2599801737675875
 30
0.0
 11
3503.9790818382939506
 21
169.3483504969491946
 31
0.0
  0
LINE
  5
15B5E
  8
0
 10
3505.6255014355620006
 20
168.787417836263387
 30
0.0
 11
3505.2885448117658598
 21
168.8415747038075949
 31
0.0
  0
LINE
  5
15B5F
  8
0
 10
3505.17855902427209
 20
168.8709643069674087
 30
0.0
 11
3504.8503265217709668
 21
168.9586722118922069
 31
0.0
  0
LINE
  5
15B60
  8
0
 10
3504.7333948421569403
 20
168.9899178458869926
 30
0.0
 11
3504.414514099401913
 21
169.0751268415070001
 31
0.0
  0
LINE
  5
15B61
  8
0
 10
3504.3063869660668388
 20
169.1040197886040914
 30
0.0
 11
3503.979678037172107
 21
169.1913205752576914
 31
0.0
  0
LINE
  5
15B62
  8
0
 10
3503.8240858024100817
 20
169.2328968019554054
 30
0.0
 11
3503.6176766867688457
 21
169.2880519464104907
 31
0.0
  0
LINE
  5
15B63
  8
0
 10
3503.6638010705769375
 20
169.1173802595274935
 30
0.0
 11
3503.8180545022742081
 21
169.0844376373875093
 31
0.0
  0
LINE
  5
15B64
  8
0
 10
3503.9768780575641358
 20
169.0505190119718861
 30
0.0
 11
3504.3649988020902128
 21
168.9676312934236933
 31
0.0
  0
LINE
  5
15B65
  8
0
 10
3504.3788282450591396
 20
168.9646778543387882
 30
0.0
 11
3504.7650362780709656
 21
168.8821986176764938
 31
0.0
  0
LINE
  5
15B66
  8
0
 10
3504.8553116657071769
 20
168.862919254159209
 30
0.0
 11
3505.169136504459857
 21
168.7958982941235888
 31
0.0
  0
LINE
  5
15B67
  8
0
 10
3505.2921870582981683
 20
168.7696194110245074
 30
0.0
 11
3505.6220395249802095
 21
168.6991755638289874
 31
0.0
  0
LINE
  5
15B68
  8
0
 10
3503.9526034754258035
 20
168.8997652049789053
 30
0.0
 11
3504.2629044017148772
 21
168.8439001678754039
 31
0.0
  0
LINE
  5
15B69
  8
0
 10
3504.4218256559870497
 20
168.8152887748235003
 30
0.0
 11
3504.7135700111321057
 21
168.7627645705942996
 31
0.0
  0
LINE
  5
15B6A
  8
0
 10
3504.8739630017480522
 20
168.7338882134428957
 30
0.0
 11
3505.1526758860900372
 21
168.6837101304732016
 31
0.0
  0
LINE
  5
15B6B
  8
0
 10
3505.309964004477024
 20
168.6553927590921091
 30
0.0
 11
3505.5735027651899145
 21
168.6079465499506966
 31
0.0
  0
ARC
  5
15B6C
  8
0
 10
3505.6857863776122031
 20
175.1875907539655088
 30
0.0
 40
6.5806022111235789
 50
265.0767870747134793
 51
265.4209173857017845
  0
ARC
  5
15B6D
  8
0
 10
3505.6857863776122031
 20
175.1875907539655088
 30
0.0
 40
6.5806022111235789
 50
266.7171172333108871
 51
269.2824667778386925
  0
ARC
  5
15B6E
  8
0
 10
3505.458305832663882
 20
172.5206367855280121
 30
0.0
 40
3.9258775608947438
 50
264.9528199434034832
 51
266.0555534090839274
  0
ARC
  5
15B6F
  8
0
 10
3505.458305832663882
 20
172.5206367855280121
 30
0.0
 40
3.9258775608947438
 50
267.5258803852436245
 51
272.3595797103591849
  0
LINE
  5
15B70
  8
0
 10
3505.0043426434472167
 20
168.6422082107540064
 30
0.0
 11
3505.159957912776008
 21
168.6550386085311004
 31
0.0
  0
LINE
  5
15B71
  8
0
 10
3505.3148332088308052
 20
168.6678079958977889
 30
0.0
 11
3505.6253212222150069
 21
168.6934075706305123
 31
0.0
  0
LINE
  5
15B72
  8
0
 10
3504.5336504055121623
 20
168.7151417521083943
 30
0.0
 11
3504.7175659983190599
 21
168.7284429560372985
 31
0.0
  0
LINE
  5
15B73
  8
0
 10
3504.8680142697198789
 20
168.73932372535171
 30
0.0
 11
3505.1817204583439889
 21
168.7620116873943914
 31
0.0
  0
LINE
  5
15B74
  8
0
 10
3505.2921940689298026
 20
168.7700013961556067
 30
0.0
 11
3505.6256596774619538
 21
168.7787957820225984
 31
0.0
  0
LINE
  5
15B75
  8
0
 10
3504.4218846035009847
 20
168.8185006211793109
 30
0.0
 11
3504.7400909623661391
 21
168.8414196281844113
 31
0.0
  0
LINE
  5
15B76
  8
0
 10
3504.8558211457470861
 20
168.8497551652021968
 30
0.0
 11
3505.17855902427209
 21
168.8709643069674087
 31
0.0
  0
LINE
  5
15B77
  8
0
 10
3505.28914991460897
 20
168.8809659339765972
 30
0.0
 11
3505.4188834286019301
 21
168.8903100694195132
 31
0.0
  0
LINE
  5
15B78
  8
0
 10
3503.9128603313488384
 20
168.9198949504113898
 30
0.0
 11
3504.2925088257820789
 21
168.9425851074879006
 31
0.0
  0
LINE
  5
15B79
  8
0
 10
3504.4119522735118153
 20
168.9497237913770959
 30
0.0
 11
3504.7377376255940362
 21
168.9691947518060999
 31
0.0
  0
LINE
  5
15B7A
  8
0
 10
3504.8565680238270943
 20
168.9762967960415949
 30
0.0
 11
3505.1482756675691235
 21
168.9937310605099015
 31
0.0
  0
LINE
  5
15B7B
  8
0
 10
3503.9817429611489388
 20
169.05592780917911
 30
0.0
 11
3504.2929556330868763
 21
169.0810379953844915
 31
0.0
  0
LINE
  5
15B7C
  8
0
 10
3504.4090563356580788
 20
169.0904055775012012
 30
0.0
 11
3504.7376651991889958
 21
169.1169193749653061
 31
0.0
  0
LINE
  5
15B7D
  8
0
 10
3504.8542301903021325
 20
169.1263244181907055
 30
0.0
 11
3505.1482865841039711
 21
169.1500503505484119
 31
0.0
  0
ARC
  5
15B7E
  8
0
 10
3503.5007344169312091
 20
179.1043070234225922
 30
0.0
 40
9.9102558972878878
 50
270.7123526973052776
 51
271.90153099882059
  0
ARC
  5
15B7F
  8
0
 10
3503.5007344169312091
 20
179.1043070234225922
 30
0.0
 40
9.9102558972878878
 50
272.5057025029419719
 51
272.7715955078414822
  0
ARC
  5
15B80
  8
0
 10
3503.5007344169312091
 20
179.1043070234225922
 30
0.0
 40
9.9102558972878878
 50
272.8092047007066867
 51
274.5878545021059267
  0
ARC
  5
15B81
  8
0
 10
3503.5007344169312091
 20
179.1043070234225922
 30
0.0
 40
9.9102558972878878
 50
275.2699284378915081
 51
277.1868138998170821
  0
ARC
  5
15B82
  8
0
 10
3503.5007344169312091
 20
179.1043070234225922
 30
0.0
 40
9.9102558972878878
 50
277.8775118423233721
 51
279.7696231411255212
  0
ARC
  5
15B83
  8
0
 10
3503.5007344169312091
 20
179.1043070234225922
 30
0.0
 40
9.9102558972878878
 50
280.4593998443768896
 51
282.379996619574797
  0
ARC
  5
15B84
  8
0
 10
3503.2210764858050425
 20
179.5413724714206012
 30
0.0
 40
10.1935991402177795
 50
272.3580431828120254
 51
273.4201581951468825
  0
ARC
  5
15B85
  8
0
 10
3503.2210764858050425
 20
179.5413724714206012
 30
0.0
 40
10.1935991402177795
 50
274.3075264672813205
 51
276.0370751366078821
  0
ARC
  5
15B86
  8
0
 10
3503.2210764858050425
 20
179.5413724714206012
 30
0.0
 40
10.1935991402177795
 50
276.7066376917643993
 51
278.5265532581043999
  0
ARC
  5
15B87
  8
0
 10
3503.2210764858050425
 20
179.5413724714206012
 30
0.0
 40
10.1935991402177795
 50
279.1931584784319966
 51
281.106191672339321
  0
ARC
  5
15B88
  8
0
 10
3503.2210764858050425
 20
179.5413724714206012
 30
0.0
 40
10.1935991402177795
 50
281.7430839848457254
 51
283.642731286184528
  0
ARC
  5
15B89
  8
0
 10
3503.0735016093931335
 20
179.507012719685207
 30
0.0
 40
9.9733232078656808
 50
274.6271400416372899
 51
276.9146799767689799
  0
ARC
  5
15B8A
  8
0
 10
3503.0735016093931335
 20
179.507012719685207
 30
0.0
 40
9.9733232078656808
 50
277.7870283854726949
 51
279.5058260285877054
  0
ARC
  5
15B8B
  8
0
 10
3503.0735016093931335
 20
179.507012719685207
 30
0.0
 40
9.9733232078656808
 50
280.3842005354716775
 51
282.1050278284391766
  0
ARC
  5
15B8C
  8
0
 10
3503.0735016093931335
 20
179.507012719685207
 30
0.0
 40
9.9733232078656808
 50
282.9871131044384924
 51
285.1627013690829813
  0
ARC
  5
15B8D
  8
0
 10
3501.6583609865269864
 20
169.170774835750791
 30
0.0
 40
2.244642289389585
 50
353.8918071733656916
 51
355.143077746978804
  0
ARC
  5
15B8E
  8
0
 10
3501.6583609865269864
 20
169.170774835750791
 30
0.0
 40
2.244642289389585
 50
358.1155252480825766
 51
358.8656702581492937
  0
ARC
  5
15B8F
  8
0
 10
3501.6583609865269864
 20
169.170774835750791
 30
0.0
 40
2.244642289389585
 50
1.8553243402896511
 51
3.175421134074957
  0
ARC
  5
15B90
  8
0
 10
3501.6583609865269864
 20
169.170774835750791
 30
0.0
 40
2.244642289389585
 50
6.2143350377648421
 51
10.0104759542338204
  0
LINE
  5
15B91
  8
0
 10
3504.3484358434079695
 20
168.9694240881856047
 30
0.0
 11
3504.3484359130911798
 21
169.0060083139786116
 31
0.0
  0
LINE
  5
15B92
  8
0
 10
3504.3484361046439517
 20
169.1065755434605933
 30
0.0
 11
3504.3484362119129401
 21
169.1628926281707948
 31
0.0
  0
LINE
  5
15B93
  8
0
 10
3504.3484364028740856
 20
169.2631486947466044
 30
0.0
 11
3504.3484365503782101
 21
169.3405899605010916
 31
0.0
  0
LINE
  5
15B94
  8
0
 10
3504.3484367412820575
 20
169.4408166456890115
 30
0.0
 11
3504.3484369128232174
 21
169.5308769530032862
 31
0.0
  0
LINE
  5
15B95
  8
0
 10
3504.3484371353988536
 20
169.647731493412806
 30
0.0
 11
3504.3484373172641426
 21
169.7432120922852903
 31
0.0
  0
LINE
  5
15B96
  8
0
 10
3504.793017766191042
 20
169.8326314100968943
 30
0.0
 11
3504.7930160067521683
 21
169.7202891256949044
 31
0.0
  0
LINE
  5
15B97
  8
0
 10
3504.7930141742099295
 20
169.6032791729132896
 30
0.0
 11
3504.7930125380680693
 21
169.498809590045397
 31
0.0
  0
LINE
  5
15B98
  8
0
 10
3504.7930109700741923
 20
169.3986912595676984
 30
0.0
 11
3504.7930096065260841
 21
169.3116271438593117
 31
0.0
  0
LINE
  5
15B99
  8
0
 10
3504.7930080330329474
 20
169.2111577131082072
 30
0.0
 11
3504.7930069892768188
 21
169.144512707694787
 31
0.0
  0
LINE
  5
15B9A
  8
0
 10
3504.7930054174339602
 20
169.0441486419290129
 30
0.0
 11
3504.7930046731207767
 21
168.996623402365401
 31
0.0
  0
LINE
  5
15B9B
  8
0
 10
3504.7930031005880664
 20
168.8962153734761955
 30
0.0
 11
3504.7930028681489603
 21
168.8813738048214077
 31
0.0
  0
LINE
  5
15B9C
  8
0
 10
3504.7930012951292156
 20
168.7809346287380947
 30
0.0
 11
3504.7930011590060531
 21
168.7722429762264085
 31
0.0
  0
LINE
  5
15B9D
  8
0
 10
3505.2375699085800989
 20
169.6937184399106968
 30
0.0
 11
3505.2375703170910128
 21
169.5774525809069928
 31
0.0
  0
LINE
  5
15B9E
  8
0
 10
3505.2375706699940565
 20
169.4770132022304097
 30
0.0
 11
3505.2375710119267751
 21
169.3796960317401954
 31
0.0
  0
LINE
  5
15B9F
  8
0
 10
3505.2375729849050003
 20
168.818169195514713
 30
0.0
 11
3505.2375730044091142
 21
168.8126183418484061
 31
0.0
  0
LINE
  5
15BA0
  8
0
 10
3505.2375733566041163
 20
168.7123806726453097
 30
0.0
 11
3505.2375733679868972
 21
168.7091408892522111
 31
0.0
  0
LINE
  5
15BA1
  8
0
 10
3506.6860614588208591
 20
163.4723240982889081
 30
0.0
 11
3506.6860614588208591
 21
163.9329540194889034
 31
0.0
  0
ARC
  5
15BA2
  8
0
 10
3506.6742504300441396
 20
163.9329540172441
 30
0.0
 40
0.0118110287777615
 50
0.0000108895939068
 51
90.040378232793131
  0
ARC
  5
15BA3
  8
0
 10
3505.8326197092737857
 20
165.0319778151097978
 30
0.0
 40
0.3434251610789576
 50
309.7967212724303181
 51
331.6940086482258039
  0
ARC
  5
15BA4
  8
0
 10
3505.5011792447721746
 20
165.7071840208020035
 30
0.0
 40
1.0889115928836091
 50
284.0013307613564848
 51
300.413977814772295
  0
LINE
  5
15BA5
  8
0
 10
3506.0524343869760742
 20
164.7681173430260912
 30
0.0
 11
3506.0524343869760742
 21
164.9389198526650944
 31
0.0
  0
LINE
  5
15BA6
  8
0
 10
3505.7646353413761062
 20
164.6506238747251132
 30
0.0
 11
3505.7646353413761062
 21
164.8213866711780895
 31
0.0
  0
ARC
  5
15BA7
  8
0
 10
3506.3464770920118099
 20
163.8073984101224028
 30
0.0
 40
1.1690645903204471
 50
104.5674548888054005
 51
119.8478536950899951
  0
ARC
  5
15BA8
  8
0
 10
3505.6930832390448813
 20
165.171987621182808
 30
0.0
 40
0.5720388726872333
 50
279.1757710797497793
 51
297.3845138786376197
  0
ARC
  5
15BA9
  8
0
 10
3505.7860584212189679
 20
164.9962680393946073
 30
0.0
 40
0.3732496471270856
 50
297.1185782673697986
 51
322.9293502456708893
  0
ARC
  5
15BAA
  8
0
 10
3505.8782733920811552
 20
164.926600632995104
 30
0.0
 40
0.2576765171807856
 50
322.9293502456708893
 51
343.0589309743310764
  0
ARC
  5
15BAB
  8
0
 10
3505.6742804597561189
 20
164.7701637203581129
 30
0.0
 40
0.4607016359482287
 50
0.1380067454116096
 51
10.6463531665200204
  0
ARC
  5
15BAC
  8
0
 10
3505.8365381701710248
 20
165.1991994470402858
 30
0.0
 40
0.3381971589168597
 50
309.6706669599230963
 51
331.9395149188680989
  0
LINE
  5
15BAD
  8
0
 10
3506.1349807592778234
 20
164.7712733984608064
 30
0.0
 11
3506.1349807592778234
 21
164.4172059879888934
 31
0.0
  0
ARC
  5
15BAE
  8
0
 10
3506.2293541442268179
 20
164.0235052020289004
 30
0.0
 40
0.039370078649988
 50
359.9999980144219762
 51
90.0000000727719254
  0
ARC
  5
15BAF
  8
0
 10
611771.9710677869152278
 20
163.984234800524689
 30
0.0
 40
608265.7023435652954504
 50
179.9999963009128976
 51
180.0000037178662069
  0
ARC
  5
15BB0
  8
0
 10
3505.7274625098439174
 20
165.4003742791798004
 30
0.0
 40
0.5167465537622872
 50
276.219618471506692
 51
323.4725226791280761
  0
ARC
  5
15BB1
  8
0
 10
3505.8136303730561849
 20
165.2882670445964948
 30
0.0
 40
0.382748892934877
 50
329.290454421638799
 51
348.5326320805208979
  0
ARC
  5
15BB2
  8
0
 10
3505.8771401069839158
 20
165.1742397098105926
 30
0.0
 40
0.2580979438293223
 50
311.1693654868723797
 51
328.496509475449102
  0
ARC
  5
15BB3
  8
0
 10
3505.7095521407109118
 20
165.3630335470087118
 30
0.0
 40
0.5105401426194383
 50
279.9086934604206931
 51
311.3796935241362007
  0
LINE
  5
15BB4
  8
0
 10
3506.1349807592778234
 20
164.8691323770324004
 30
0.0
 11
3506.1349807592778234
 21
165.0826387331615877
 31
0.0
  0
LINE
  5
15BB5
  8
0
 10
3506.0749480942899936
 20
164.0628752806572095
 30
0.0
 11
3506.0946331324212224
 21
164.082560318788893
 31
0.0
  0
LINE
  5
15BB6
  8
0
 10
3506.0946331324212224
 20
164.082560318788893
 30
0.0
 11
3506.0946331324212224
 21
164.4172059879888934
 31
0.0
  0
LINE
  5
15BB7
  8
0
 10
3506.188738868242126
 20
168.6049566429175002
 30
0.0
 11
3506.188738868242126
 21
165.212172814318194
 31
0.0
  0
LINE
  5
15BB8
  8
0
 10
3507.8470798429389106
 20
169.2403217677832004
 30
0.0
 11
3507.8470798429389106
 21
170.0812012162203928
 31
0.0
  0
ARC
  5
15BB9
  8
0
 10
3507.3449808999171182
 20
169.9213598630348088
 30
0.0
 40
0.5269275156711211
 50
17.6586828342371511
 51
61.7679360896891723
  0
ARC
  5
15BBA
  8
0
 10
3506.4590006090770657
 20
168.273042189267386
 30
0.0
 40
2.3982671610171611
 50
61.7474745775011087
 51
78.8805591629542988
  0
ARC
  5
15BBB
  8
0
 10
3505.788803183284017
 20
165.2381851378596025
 30
0.0
 40
5.5058776697247458
 50
78.1278617204904009
 51
86.409935277833867
  0
ARC
  5
15BBC
  8
0
 10
3507.5203580837678601
 20
169.2326617888780049
 30
0.0
 40
0.3325602963817816
 50
10.75206538902464
 51
49.1616191166991072
  0
ARC
  5
15BBD
  8
0
 10
3506.8776807122440005
 20
168.4118883172224912
 30
0.0
 40
1.3747148184824041
 50
51.267022436316843
 51
74.2309045135631891
  0
ARC
  5
15BBE
  8
0
 10
3506.0036269006927796
 20
165.6790402030298139
 30
0.0
 40
4.2433881629722343
 50
72.9011198883472247
 51
83.644254200063088
  0
LINE
  5
15BBF
  8
0
 10
3506.9394053868281844
 20
169.6256153109289926
 30
0.0
 11
3506.9405784889258939
 21
169.5616970316507093
 31
0.0
  0
ARC
  5
15BC0
  8
0
 10
3506.957758937311155
 20
169.5604864828302993
 30
0.0
 40
0.0172230437242154
 50
124.2388546343312044
 51
222.5621776831019076
  0
ARC
  5
15BC1
  8
0
 10
3506.9830785042659045
 20
169.5840569740176988
 30
0.0
 40
0.0518153868171871
 50
222.821811054071901
 51
263.6712201117093741
  0
ARC
  5
15BC2
  8
0
 10
3507.0028709679590975
 20
169.6752972566839901
 30
0.0
 40
0.1450004959739407
 50
259.8694965105975143
 51
302.1776574712001207
  0
ARC
  5
15BC3
  8
0
 10
3507.0686692218400822
 20
169.5704070098003911
 30
0.0
 40
0.0211813427389998
 50
302.6299611418756967
 51
25.0950417872898512
  0
ARC
  5
15BC4
  8
0
 10
3507.0610831576818782
 20
169.5562635736492894
 30
0.0
 40
0.0353748371029153
 50
40.8261986752174124
 51
76.1673229121931428
  0
ARC
  5
15BC5
  8
0
 10
3507.0282243770598143
 20
169.4341917285063914
 30
0.0
 40
0.161785347185065
 50
75.2040023244852733
 51
119.6991566398251052
  0
LINE
  5
15BC6
  8
0
 10
3507.0898505645791374
 20
169.5704070098003911
 30
0.0
 11
3507.090266508131208
 21
169.640096948453305
 31
0.0
  0
ARC
  5
15BC7
  8
0
 10
3507.0697569125341033
 20
169.6369000260829125
 30
0.0
 40
0.031093336712277
 50
310.8808068986112971
 51
345.7909215323516037
  0
ARC
  5
15BC8
  8
0
 10
3507.093096659485127
 20
169.6309902270562873
 30
0.0
 40
0.0070170099102727
 50
345.7909215323563217
 51
54.2171696986695295
  0
ARC
  5
15BC9
  8
0
 10
3507.0417413331438183
 20
169.5328135098922928
 30
0.0
 40
0.1177473090860804
 50
61.9011623048110522
 51
102.6085554772048027
  0
ARC
  5
15BCA
  8
0
 10
3507.0099254200249561
 20
169.5250306875954891
 30
0.0
 40
0.1228427512436811
 50
87.1476348470231557
 51
125.1263052227239001
  0
ARC
  5
15BCB
  8
0
 10
3506.9424099666430266
 20
169.6156331014138061
 30
0.0
 40
0.0103642814283806
 50
107.7860466488552049
 51
185.0624084991397922
  0
ARC
  5
15BCC
  8
0
 10
3506.95657906687984
 20
169.6191014336575051
 30
0.0
 40
0.0248820094525184
 50
190.1453974167152978
 51
227.7934454603573045
  0
ARC
  5
15BCD
  8
0
 10
3506.996958236503815
 20
169.5542846975569091
 30
0.0
 40
0.0050599824918908
 50
111.7240371658116942
 51
258.1503954999178063
  0
ARC
  5
15BCE
  8
0
 10
3507.0116708873051721
 20
169.5937799044673113
 30
0.0
 40
0.0471559485753636
 50
250.486199891192598
 51
301.92073057053409
  0
ARC
  5
15BCF
  8
0
 10
3507.0339924993159002
 20
169.557811364873487
 30
0.0
 40
0.0048246427266007
 50
302.776461538955914
 51
67.9702824506453567
  0
ARC
  5
15BD0
  8
0
 10
3507.018953529024202
 20
169.5173091300347892
 30
0.0
 40
0.0480270088011901
 50
69.4627791954153366
 51
119.800005551585798
  0
LINE
  5
15BD1
  8
0
 10
3506.9600225350800429
 20
169.4251939584829074
 30
0.0
 11
3506.9611420120299954
 21
169.3641975282451995
 31
0.0
  0
ARC
  5
15BD2
  8
0
 10
3506.9740078728400476
 20
169.3626521907324047
 30
0.0
 40
0.0130279726191424
 50
108.3543623987983011
 51
230.4355831185152113
  0
ARC
  5
15BD3
  8
0
 10
3506.9930505162701593
 20
169.3820206816257041
 30
0.0
 40
0.0401568774534951
 50
227.0900162102946069
 51
259.6621135187677964
  0
ARC
  5
15BD4
  8
0
 10
3507.0082333749242025
 20
169.4567219132918012
 30
0.0
 40
0.1163801307499904
 50
258.9083333072525193
 51
295.2572255995002024
  0
ARC
  5
15BD5
  8
0
 10
3507.0480183070840212
 20
169.3721864229219136
 30
0.0
 40
0.022950743361484
 50
295.4776478495915057
 51
353.5168628169014937
  0
ARC
  5
15BD6
  8
0
 10
3507.0556451015741004
 20
169.3662973348085075
 30
0.0
 40
0.01553131302755
 50
12.2586967170996495
 51
80.7161442048781055
  0
ARC
  5
15BD7
  8
0
 10
3507.0233640496549015
 20
169.2536423650799122
 30
0.0
 40
0.1326262375602962
 50
74.7939615855234337
 51
113.770682777708501
  0
LINE
  5
15BD8
  8
0
 10
3507.0708222834177832
 20
169.3695950363791098
 30
0.0
 11
3507.0713756685290718
 21
169.4366431402158071
 31
0.0
  0
ARC
  5
15BD9
  8
0
 10
3507.059332936273222
 20
169.4382300109600976
 30
0.0
 40
0.0280783579601137
 50
294.9533792716172229
 51
332.3867764339354949
  0
ARC
  5
15BDA
  8
0
 10
3507.0800122044461204
 20
169.4280108324464038
 30
0.0
 40
0.0050458108378621
 50
326.3611801108252166
 51
81.4516235476426544
  0
ARC
  5
15BDB
  8
0
 10
3507.0354430061388484
 20
169.3301320327778114
 30
0.0
 40
0.112408950863283
 50
66.2238818932989801
 51
100.0540500586540986
  0
ARC
  5
15BDC
  8
0
 10
3507.02110393798921
 20
169.3144764173225951
 30
0.0
 40
0.1264488501408932
 50
92.3953898329991858
 51
119.1784661163930963
  0
ARC
  5
15BDD
  8
0
 10
3506.9629010288581412
 20
169.4149646475447071
 30
0.0
 40
0.0104963486248524
 50
109.1595182593794959
 51
167.5974215901599109
  0
ARC
  5
15BDE
  8
0
 10
3506.9771425899821224
 20
169.4216019302519953
 30
0.0
 40
0.0248820094525184
 50
190.1453974167152978
 51
227.7934454603582992
  0
ARC
  5
15BDF
  8
0
 10
3506.9975226801689132
 20
169.3553455175209876
 30
0.0
 40
0.0050599824918908
 50
111.7240371658116942
 51
258.1503954999178063
  0
ARC
  5
15BE0
  8
0
 10
3507.0122353309698155
 20
169.3948407244315035
 30
0.0
 40
0.0471559485753636
 50
250.486199891192598
 51
301.92073057053409
  0
ARC
  5
15BE1
  8
0
 10
3507.0345569429819079
 20
169.358872184837594
 30
0.0
 40
0.0048246427266007
 50
302.776461538955914
 51
67.9702824506453567
  0
ARC
  5
15BE2
  8
0
 10
3507.0195179726888455
 20
169.3183699499988961
 30
0.0
 40
0.0480270088011901
 50
69.4627791954153366
 51
119.800005551585798
  0
ARC
  5
15BE3
  8
0
 10
3507.3687686285620657
 20
169.3947760054699074
 30
0.0
 40
0.502630808186118
 50
295.2251678124573004
 51
342.103913208756012
  0
ARC
  5
15BE4
  8
0
 10
3506.5510794737820106
 20
170.858451652452203
 30
0.0
 40
2.1782974245504501
 50
282.9633111965750913
 51
298.2759118380653831
  0
ARC
  5
15BE5
  8
0
 10
3505.8557864344611517
 20
173.6265519206210968
 30
0.0
 40
5.032141162852076
 50
274.5084501479487926
 51
283.6079171261512784
  0
ARC
  5
15BE6
  8
0
 10
3506.0616952375858091
 20
166.1492974214172875
 30
0.0
 40
3.7184128062957669
 50
71.6880534312444553
 51
83.8252050762161076
  0
ARC
  5
15BE7
  8
0
 10
3506.773091810915048
 20
168.2988583829481968
 30
0.0
 40
1.4541916572289051
 50
55.6384680231320985
 51
71.6880534312444553
  0
ARC
  5
15BE8
  8
0
 10
3507.3576987493997876
 20
169.1538861783708967
 30
0.0
 40
0.4184128181565626
 50
29.8011891267945295
 51
55.6384680231320985
  0
ARC
  5
15BE9
  8
0
 10
3507.5350244209230368
 20
169.2554464353978005
 30
0.0
 40
0.2140629231509128
 50
334.4641819783872734
 51
29.8011891267945295
  0
ARC
  5
15BEA
  8
0
 10
3507.3020134315529504
 20
169.389804645770198
 30
0.0
 40
0.4826788305159777
 50
301.0228313114802177
 51
331.9957710847472754
  0
ARC
  5
15BEB
  8
0
 10
3506.6590780078968237
 20
170.4349285572126007
 30
0.0
 40
1.709710610429835
 50
286.48188933773082
 51
301.4362280146273179
  0
ARC
  5
15BEC
  8
0
 10
3506.0554457125408589
 20
172.3926851136550056
 30
0.0
 40
3.758352555645923
 50
285.9857051335631013
 51
286.8384579257044038
  0
ARC
  5
15BED
  8
0
 10
3506.0554457125408589
 20
172.3926851136550056
 30
0.0
 40
3.758352555645923
 50
279.0365586300939071
 51
284.2664625382388977
  0
ARC
  5
15BEE
  8
0
 10
3505.8435219179459637
 20
173.5220750636580931
 30
0.0
 40
4.9071143476994692
 50
274.6722046851443224
 51
279.4091004560223723
  0
ARC
  5
15BEF
  8
0
 10
3507.4590950558449549
 20
169.3023421540056859
 30
0.0
 40
0.3079485054810791
 50
313.7655152039715745
 51
342.8157018182646993
  0
ARC
  5
15BF0
  8
0
 10
3507.5646923081981186
 20
169.2641450613132861
 30
0.0
 40
0.1958515474117228
 50
344.3645283798740024
 51
28.9313867994127598
  0
ARC
  5
15BF1
  8
0
 10
3507.2690808546681183
 20
169.0605424050746137
 30
0.0
 40
0.5541840200066402
 50
32.5717798047252103
 51
63.054707602092563
  0
ARC
  5
15BF2
  8
0
 10
3506.7070707811080865
 20
168.0826048928572902
 30
0.0
 40
1.6816207846851641
 50
61.0830666529718727
 51
74.6876502053829938
  0
LINE
  5
15BF3
  8
0
 10
3507.7490622768377762
 20
169.2587223022570981
 30
0.0
 11
3507.7490622768377762
 21
169.3302173193899023
 31
0.0
  0
LINE
  5
15BF4
  8
0
 10
3507.3844300632331397
 20
169.3894531470735103
 30
0.0
 11
3507.3856031653308492
 21
169.3255348677951986
 31
0.0
  0
ARC
  5
15BF5
  8
0
 10
3507.4027836137152008
 20
169.3243243189747886
 30
0.0
 40
0.0172230437242154
 50
124.2388546343312044
 51
222.5621776831019076
  0
ARC
  5
15BF6
  8
0
 10
3507.4281031806708597
 20
169.3478948101621882
 30
0.0
 40
0.0518153868171871
 50
222.821811054071901
 51
263.6712201117093741
  0
ARC
  5
15BF7
  8
0
 10
3507.4478956443631432
 20
169.4391350928285078
 30
0.0
 40
0.1450004959739407
 50
259.8694965105975143
 51
302.1776574712001207
  0
ARC
  5
15BF8
  8
0
 10
3507.5136938982441279
 20
169.3342448459449088
 30
0.0
 40
0.0211813427389998
 50
302.6299611418756967
 51
25.0950417872898512
  0
ARC
  5
15BF9
  8
0
 10
3507.506107834085924
 20
169.3201014097938071
 30
0.0
 40
0.0353748371029153
 50
40.8261986752174124
 51
76.1673229121931428
  0
ARC
  5
15BFA
  8
0
 10
3507.47324905346386
 20
169.1980295646509092
 30
0.0
 40
0.161785347185065
 50
75.2040023244852733
 51
119.6991566398251052
  0
LINE
  5
15BFB
  8
0
 10
3507.5348752409818189
 20
169.3342448459449088
 30
0.0
 11
3507.535291184534799
 21
169.4039347845977943
 31
0.0
  0
ARC
  5
15BFC
  8
0
 10
3507.5147815889381491
 20
169.4007378622274018
 30
0.0
 40
0.031093336712277
 50
310.8808068986112971
 51
345.7909215323516037
  0
ARC
  5
15BFD
  8
0
 10
3507.5381213358900823
 20
169.394828063200805
 30
0.0
 40
0.0070170099102727
 50
345.7909215323563217
 51
54.2171696986695295
  0
ARC
  5
15BFE
  8
0
 10
3507.4867660095478641
 20
169.2966513460368105
 30
0.0
 40
0.1177473090860804
 50
61.9011623048110522
 51
102.6085554772048027
  0
ARC
  5
15BFF
  8
0
 10
3507.4549500964280924
 20
169.2888685237400068
 30
0.0
 40
0.1228427512436811
 50
87.1476348470231557
 51
125.1263052227239001
  0
ARC
  5
15C00
  8
0
 10
3507.3874346430470723
 20
169.3794709375582954
 30
0.0
 40
0.0103642814283806
 50
107.7860466488552049
 51
185.0624084991397922
  0
ARC
  5
15C01
  8
0
 10
3507.4016037432838857
 20
169.3829392698019944
 30
0.0
 40
0.0248820094525184
 50
190.1453974167152978
 51
227.7934454603573045
  0
ARC
  5
15C02
  8
0
 10
3507.4419829129078607
 20
169.3181225337013984
 30
0.0
 40
0.0050599824918908
 50
111.7240371658116942
 51
258.1503954999178063
  0
ARC
  5
15C03
  8
0
 10
3507.4566955637101273
 20
169.3576177406118006
 30
0.0
 40
0.0471559485753636
 50
250.486199891192598
 51
301.92073057053409
  0
ARC
  5
15C04
  8
0
 10
3507.4790171757208554
 20
169.3216492010180048
 30
0.0
 40
0.0048246427266007
 50
302.776461538955914
 51
67.9702824506453567
  0
ARC
  5
15C05
  8
0
 10
3507.4639782054291572
 20
169.2811469661793069
 30
0.0
 40
0.0480270088011901
 50
69.4627791954153366
 51
119.800005551585798
  0
LINE
  5
15C06
  8
0
 10
3507.3840442317168709
 20
169.220961034776991
 30
0.0
 11
3507.3852173338159446
 21
169.1570427554987077
 31
0.0
  0
ARC
  5
15C07
  8
0
 10
3507.402397782198932
 20
169.1558322066782978
 30
0.0
 40
0.0172230437242154
 50
124.2388546343312044
 51
222.5621776831019076
  0
ARC
  5
15C08
  8
0
 10
3507.4277173491550457
 20
169.1794026978656973
 30
0.0
 40
0.0518153868171871
 50
222.821811054071901
 51
263.6712201117093741
  0
ARC
  5
15C09
  8
0
 10
3507.4475098128468744
 20
169.2706429805319885
 30
0.0
 40
0.1450004959739407
 50
259.8694965105975143
 51
302.1776574712001207
  0
ARC
  5
15C0A
  8
0
 10
3507.5133080667278591
 20
169.1657527336483895
 30
0.0
 40
0.0211813427389998
 50
302.6299611418756967
 51
25.0950417872898512
  0
ARC
  5
15C0B
  8
0
 10
3507.5057220025710194
 20
169.1516092974972878
 30
0.0
 40
0.0353748371029153
 50
40.8261986752174124
 51
76.1673229121931428
  0
ARC
  5
15C0C
  8
0
 10
3507.472863221948046
 20
169.0295374523543899
 30
0.0
 40
0.161785347185065
 50
75.2040023244852733
 51
119.6991566398251052
  0
LINE
  5
15C0D
  8
0
 10
3507.5344894094669144
 20
169.1657527336483895
 30
0.0
 11
3507.5349053530198944
 21
169.2354426723013034
 31
0.0
  0
ARC
  5
15C0E
  8
0
 10
3507.5143957574227898
 20
169.232245749930911
 30
0.0
 40
0.031093336712277
 50
310.8808068986112971
 51
345.7909215323516037
  0
ARC
  5
15C0F
  8
0
 10
3507.5377355043738135
 20
169.2263359509043141
 30
0.0
 40
0.0070170099102727
 50
345.7909215323563217
 51
54.2171696986695295
  0
ARC
  5
15C10
  8
0
 10
3507.4863801780329595
 20
169.1281592337402913
 30
0.0
 40
0.1177473090860804
 50
61.9011623048110522
 51
102.6085554772048027
  0
ARC
  5
15C11
  8
0
 10
3507.4545642649131878
 20
169.1203764114434875
 30
0.0
 40
0.1228427512436811
 50
87.1476348470231557
 51
125.1263052227239001
  0
ARC
  5
15C12
  8
0
 10
3507.3870488115321677
 20
169.2109788252618046
 30
0.0
 40
0.0103642814283806
 50
107.7860466488552049
 51
185.0624084991397922
  0
ARC
  5
15C13
  8
0
 10
3507.4012179117689811
 20
169.2144471575055036
 30
0.0
 40
0.0248820094525184
 50
190.1453974167152978
 51
227.7934454603573045
  0
ARC
  5
15C14
  8
0
 10
3507.4415970813929562
 20
169.1496304214047939
 30
0.0
 40
0.0050599824918908
 50
111.7240371658116942
 51
258.1503954999178063
  0
ARC
  5
15C15
  8
0
 10
3507.4563097321938585
 20
169.1891256283153098
 30
0.0
 40
0.0471559485753636
 50
250.486199891192598
 51
301.92073057053409
  0
ARC
  5
15C16
  8
0
 10
3507.4786313442059509
 20
169.1531570887215139
 30
0.0
 40
0.0048246427266007
 50
302.776461538955914
 51
67.9702824506453567
  0
ARC
  5
15C17
  8
0
 10
3507.4635923739128884
 20
169.1126548538827876
 30
0.0
 40
0.0480270088011901
 50
69.4627791954153366
 51
119.800005551585798
  0
LINE
  5
15C18
  8
0
 10
3507.3869424741010334
 20
169.074805472417097
 30
0.0
 11
3507.3881155762001072
 21
169.0108871931388137
 31
0.0
  0
ARC
  5
15C19
  8
0
 10
3507.4052960245849135
 20
169.0096766443184038
 30
0.0
 40
0.0172230437242154
 50
124.2388546343312044
 51
222.5621776831019076
  0
ARC
  5
15C1A
  8
0
 10
3507.4306155915401177
 20
169.0332471355056896
 30
0.0
 40
0.0518153868171871
 50
222.821811054071901
 51
263.6712201117093741
  0
ARC
  5
15C1B
  8
0
 10
3507.450408055232856
 20
169.1244874181720945
 30
0.0
 40
0.1450004959739407
 50
259.8694965105975143
 51
302.1776574712001207
  0
ARC
  5
15C1C
  8
0
 10
3507.5162063091129312
 20
169.0195971712884955
 30
0.0
 40
0.0211813427389998
 50
302.6299611418756967
 51
25.0950417872898512
  0
ARC
  5
15C1D
  8
0
 10
3507.508620244955182
 20
169.0054537351373938
 30
0.0
 40
0.0353748371029153
 50
40.8261986752174124
 51
76.1673229121931428
  0
ARC
  5
15C1E
  8
0
 10
3507.4757614643331181
 20
168.8833818899944959
 30
0.0
 40
0.161785347185065
 50
75.2040023244852733
 51
119.6991566398251052
  0
LINE
  5
15C1F
  8
0
 10
3507.5373876518519864
 20
169.0195971712884955
 30
0.0
 11
3507.5378035954049665
 21
169.0892871099414094
 31
0.0
  0
ARC
  5
15C20
  8
0
 10
3507.5172939998078618
 20
169.0860901875709885
 30
0.0
 40
0.031093336712277
 50
310.8808068986112971
 51
345.7909215323516037
  0
ARC
  5
15C21
  8
0
 10
3507.5406337467588855
 20
169.0801803885443917
 30
0.0
 40
0.0070170099102727
 50
345.7909215323563217
 51
54.2171696986695295
  0
ARC
  5
15C22
  8
0
 10
3507.4892784204171221
 20
168.9820036713803972
 30
0.0
 40
0.1177473090860804
 50
61.9011623048110522
 51
102.6085554772048027
  0
ARC
  5
15C23
  8
0
 10
3507.4574625072978051
 20
168.9742208490835935
 30
0.0
 40
0.1228427512436811
 50
87.1476348470231557
 51
125.1263052227239001
  0
ARC
  5
15C24
  8
0
 10
3507.3899470539167851
 20
169.0648232629019105
 30
0.0
 40
0.0103642814283806
 50
107.7860466488552049
 51
185.0624084991397922
  0
ARC
  5
15C25
  8
0
 10
3507.4041161541531437
 20
169.0682915951456096
 30
0.0
 40
0.0248820094525184
 50
190.1453974167152978
 51
227.7934454603573045
  0
ARC
  5
15C26
  8
0
 10
3507.4444953237780283
 20
169.0034748590450135
 30
0.0
 40
0.0050599824918908
 50
111.7240371658116942
 51
258.1503954999178063
  0
ARC
  5
15C27
  8
0
 10
3507.4592079745789306
 20
169.0429700659553873
 30
0.0
 40
0.0471559485753636
 50
250.486199891192598
 51
301.92073057053409
  0
ARC
  5
15C28
  8
0
 10
3507.4815295865901135
 20
169.0070015263615915
 30
0.0
 40
0.0048246427266007
 50
302.776461538955914
 51
67.9702824506453567
  0
ARC
  5
15C29
  8
0
 10
3507.466490616297051
 20
168.9664992915228936
 30
0.0
 40
0.0480270088011901
 50
69.4627791954153366
 51
119.800005551585798
  0
LINE
  5
15C2A
  8
0
 10
3506.9419210513701728
 20
168.843597666746092
 30
0.0
 11
3506.9430941534678823
 21
168.7796793874678087
 31
0.0
  0
ARC
  5
15C2B
  8
0
 10
3506.9602746018531434
 20
168.7784688386473988
 30
0.0
 40
0.0172230437242154
 50
124.2388546343312044
 51
222.5621776831019076
  0
ARC
  5
15C2C
  8
0
 10
3506.9855941688088024
 20
168.8020393298347983
 30
0.0
 40
0.0518153868171871
 50
222.821811054071901
 51
263.6712201117093741
  0
ARC
  5
15C2D
  8
0
 10
3507.0053866325010858
 20
168.8932796125010896
 30
0.0
 40
0.1450004959739407
 50
259.8694965105975143
 51
302.1776574712001207
  0
ARC
  5
15C2E
  8
0
 10
3507.071184886381161
 20
168.7883893656174905
 30
0.0
 40
0.0211813427389998
 50
302.6299611418756967
 51
25.0950417872898512
  0
ARC
  5
15C2F
  8
0
 10
3507.0635988222238666
 20
168.7742459294663888
 30
0.0
 40
0.0353748371029153
 50
40.8261986752174124
 51
76.1673229121931428
  0
ARC
  5
15C30
  8
0
 10
3507.0307400416018027
 20
168.6521740843234909
 30
0.0
 40
0.161785347185065
 50
75.2040023244852733
 51
119.6991566398251052
  0
LINE
  5
15C31
  8
0
 10
3507.0923662291202163
 20
168.7883893656174905
 30
0.0
 11
3507.0927821726731963
 21
168.8580793042704045
 31
0.0
  0
ARC
  5
15C32
  8
0
 10
3507.0722725770751822
 20
168.854882381900012
 30
0.0
 40
0.031093336712277
 50
310.8808068986112971
 51
345.7909215323516037
  0
ARC
  5
15C33
  8
0
 10
3507.0956123240271154
 20
168.8489725828733867
 30
0.0
 40
0.0070170099102727
 50
345.7909215323563217
 51
54.2171696986695295
  0
ARC
  5
15C34
  8
0
 10
3507.0442569976848972
 20
168.7507958657093923
 30
0.0
 40
0.1177473090860804
 50
61.9011623048110522
 51
102.6085554772048027
  0
ARC
  5
15C35
  8
0
 10
3507.012441084566035
 20
168.7430130434127022
 30
0.0
 40
0.1228427512436811
 50
87.1476348470231557
 51
125.1263052227239001
  0
ARC
  5
15C36
  8
0
 10
3506.9449256311841054
 20
168.8336154572309056
 30
0.0
 40
0.0103642814283806
 50
107.7860466488552049
 51
185.0624084991397922
  0
ARC
  5
15C37
  8
0
 10
3506.9590947314218283
 20
168.8370837894746046
 30
0.0
 40
0.0248820094525184
 50
190.1453974167152978
 51
227.7934454603573045
  0
ARC
  5
15C38
  8
0
 10
3506.9994739010448939
 20
168.7722670533740086
 30
0.0
 40
0.0050599824918908
 50
111.7240371658116942
 51
258.1503954999178063
  0
ARC
  5
15C39
  8
0
 10
3507.0141865518471604
 20
168.8117622602844108
 30
0.0
 40
0.0471559485753636
 50
250.486199891192598
 51
301.92073057053409
  0
ARC
  5
15C3A
  8
0
 10
3507.0365081638578886
 20
168.7757937206905865
 30
0.0
 40
0.0048246427266007
 50
302.776461538955914
 51
67.9702824506453567
  0
ARC
  5
15C3B
  8
0
 10
3507.0214691935661904
 20
168.7352914858518886
 30
0.0
 40
0.0480270088011901
 50
69.4627791954153366
 51
119.800005551585798
  0
LINE
  5
15C3C
  8
0
 10
3506.4960546858601447
 20
168.7500744252425875
 30
0.0
 11
3506.4972277879578542
 21
168.6861561459643042
 31
0.0
  0
ARC
  5
15C3D
  8
0
 10
3506.5144082363422058
 20
168.6849455971438942
 30
0.0
 40
0.0172230437242154
 50
124.2388546343312044
 51
222.5621776831019076
  0
ARC
  5
15C3E
  8
0
 10
3506.5397278032987742
 20
168.7085160883312938
 30
0.0
 40
0.0518153868171871
 50
222.821811054071901
 51
263.6712201117093741
  0
ARC
  5
15C3F
  8
0
 10
3506.5595202669901482
 20
168.7997563709976134
 30
0.0
 40
0.1450004959739407
 50
259.8694965105975143
 51
302.1776574712001207
  0
ARC
  5
15C40
  8
0
 10
3506.6253185208711329
 20
168.694866124113986
 30
0.0
 40
0.0211813427389998
 50
302.6299611418756967
 51
25.0950417872898512
  0
ARC
  5
15C41
  8
0
 10
3506.6177324567138385
 20
168.6807226879629127
 30
0.0
 40
0.0353748371029153
 50
40.8261986752174124
 51
76.1673229121931428
  0
ARC
  5
15C42
  8
0
 10
3506.5848736760917745
 20
168.5586508428199863
 30
0.0
 40
0.161785347185065
 50
75.2040023244852733
 51
119.6991566398251052
  0
LINE
  5
15C43
  8
0
 10
3506.6464998636101882
 20
168.694866124113986
 30
0.0
 11
3506.6469158071631682
 21
168.7645560627670136
 31
0.0
  0
ARC
  5
15C44
  8
0
 10
3506.6264062115651541
 20
168.7613591403965074
 30
0.0
 40
0.031093336712277
 50
310.8808068986112971
 51
345.7909215323516037
  0
ARC
  5
15C45
  8
0
 10
3506.6497459585170873
 20
168.7554493413699106
 30
0.0
 40
0.0070170099102727
 50
345.7909215323563217
 51
54.2171696986695295
  0
ARC
  5
15C46
  8
0
 10
3506.5983906321748691
 20
168.6572726242060014
 30
0.0
 40
0.1177473090860804
 50
61.9011623048110522
 51
102.6085554772048027
  0
ARC
  5
15C47
  8
0
 10
3506.5665747190550974
 20
168.6494898019091124
 30
0.0
 40
0.1228427512436811
 50
87.1476348470231557
 51
125.1263052227239001
  0
ARC
  5
15C48
  8
0
 10
3506.4990592656740773
 20
168.740092215727401
 30
0.0
 40
0.0103642814283806
 50
107.7860466488552049
 51
185.0624084991397922
  0
ARC
  5
15C49
  8
0
 10
3506.5132283659108907
 20
168.7435605479711
 30
0.0
 40
0.0248820094525184
 50
190.1453974167152978
 51
227.7934454603573045
  0
ARC
  5
15C4A
  8
0
 10
3506.5536075355348657
 20
168.678743811870504
 30
0.0
 40
0.0050599824918908
 50
111.7240371658116942
 51
258.1503954999178063
  0
ARC
  5
15C4B
  8
0
 10
3506.5683201863371323
 20
168.7182390187809915
 30
0.0
 40
0.0471559485753636
 50
250.486199891192598
 51
301.92073057053409
  0
ARC
  5
15C4C
  8
0
 10
3506.5906417983478605
 20
168.6822704791871104
 30
0.0
 40
0.0048246427266007
 50
302.776461538955914
 51
67.9702824506453567
  0
ARC
  5
15C4D
  8
0
 10
3506.5756028280561623
 20
168.6417682443484125
 30
0.0
 40
0.0480270088011901
 50
69.4627791954153366
 51
119.800005551585798
  0
LINE
  5
15C4E
  8
0
 10
3506.0537238713950501
 20
168.6869071753145874
 30
0.0
 11
3506.0548969734932143
 21
168.6229888960363894
 31
0.0
  0
ARC
  5
15C4F
  8
0
 10
3506.0720774218780207
 20
168.6217783472160079
 30
0.0
 40
0.0172230437242154
 50
124.2388546343312044
 51
222.5621776831019076
  0
ARC
  5
15C50
  8
0
 10
3506.0973969888332249
 20
168.6453488384032937
 30
0.0
 40
0.0518153868171871
 50
222.821811054071901
 51
263.6712201117093741
  0
ARC
  5
15C51
  8
0
 10
3506.1171894525259631
 20
168.7365891210696986
 30
0.0
 40
0.1450004959739407
 50
259.8694965105975143
 51
302.1776574712001207
  0
ARC
  5
15C52
  8
0
 10
3506.1829877064060383
 20
168.6316988741859859
 30
0.0
 40
0.0211813427389998
 50
302.6299611418756967
 51
25.0950417872898512
  0
ARC
  5
15C53
  8
0
 10
3506.1754016422491986
 20
168.6175554380349979
 30
0.0
 40
0.0353748371029153
 50
40.8261986752174124
 51
76.1673229121931428
  0
ARC
  5
15C54
  8
0
 10
3506.1425428616262252
 20
168.4954835928921
 30
0.0
 40
0.161785347185065
 50
75.2040023244852733
 51
119.6991566398251052
  0
LINE
  5
15C55
  8
0
 10
3506.2041690491460031
 20
168.6316988741859859
 30
0.0
 11
3506.2045849926980736
 21
168.7013888128390136
 31
0.0
  0
ARC
  5
15C56
  8
0
 10
3506.184075397100969
 20
168.6981918904685926
 30
0.0
 40
0.031093336712277
 50
310.8808068986112971
 51
345.7909215323516037
  0
ARC
  5
15C57
  8
0
 10
3506.2074151440519927
 20
168.6922820914419958
 30
0.0
 40
0.0070170099102727
 50
345.7909215323563217
 51
54.2171696986695295
  0
ARC
  5
15C58
  8
0
 10
3506.1560598177111387
 20
168.5941053742780014
 30
0.0
 40
0.1177473090860804
 50
61.9011623048110522
 51
102.6085554772048027
  0
ARC
  5
15C59
  8
0
 10
3506.1242439045909123
 20
168.5863225519811976
 30
0.0
 40
0.1228427512436811
 50
87.1476348470231557
 51
125.1263052227239001
  0
ARC
  5
15C5A
  8
0
 10
3506.0567284512098922
 20
168.676924965799401
 30
0.0
 40
0.0103642814283806
 50
107.7860466488552049
 51
185.0624084991397922
  0
ARC
  5
15C5B
  8
0
 10
3506.0708975514471604
 20
168.6803932980432137
 30
0.0
 40
0.0248820094525184
 50
190.1453974167152978
 51
227.7934454603573045
  0
ARC
  5
15C5C
  8
0
 10
3506.1112767210711354
 20
168.615576561942504
 30
0.0
 40
0.0050599824918908
 50
111.7240371658116942
 51
258.1503954999178063
  0
ARC
  5
15C5D
  8
0
 10
3506.1259893718720377
 20
168.6550717688529915
 30
0.0
 40
0.0471559485753636
 50
250.486199891192598
 51
301.92073057053409
  0
ARC
  5
15C5E
  8
0
 10
3506.1483109838841301
 20
168.6191032292591103
 30
0.0
 40
0.0048246427266007
 50
302.776461538955914
 51
67.9702824506453567
  0
ARC
  5
15C5F
  8
0
 10
3506.1332720135910677
 20
168.5786009944204125
 30
0.0
 40
0.0480270088011901
 50
69.4627791954153366
 51
119.800005551585798
  0
LINE
  5
15C60
  8
0
 10
3506.9576391216801312
 20
168.9534052869828997
 30
0.0
 11
3506.9587585986300837
 21
168.8924088567451918
 31
0.0
  0
ARC
  5
15C61
  8
0
 10
3506.971624459440136
 20
168.890863519232397
 30
0.0
 40
0.0130279726191424
 50
108.3543623987983011
 51
230.4355831185152113
  0
ARC
  5
15C62
  8
0
 10
3506.9906671028697929
 20
168.9102320101258101
 30
0.0
 40
0.0401568774534951
 50
227.0900162102946069
 51
259.6621135187677964
  0
ARC
  5
15C63
  8
0
 10
3507.0058499615252003
 20
168.9849332417917935
 30
0.0
 40
0.1163801307499904
 50
258.9083333072525193
 51
295.2572255995002024
  0
ARC
  5
15C64
  8
0
 10
3507.0456348936841096
 20
168.9003977514217922
 30
0.0
 40
0.022950743361484
 50
295.4776478495915057
 51
353.5168628169014937
  0
ARC
  5
15C65
  8
0
 10
3507.0532616881741887
 20
168.8945086633084998
 30
0.0
 40
0.01553131302755
 50
12.2586967170996495
 51
80.7161442048781055
  0
ARC
  5
15C66
  8
0
 10
3507.0209806362540803
 20
168.7818536935799045
 30
0.0
 40
0.1326262375602962
 50
74.7939615855234337
 51
113.770682777708501
  0
LINE
  5
15C67
  8
0
 10
3507.0684388700178715
 20
168.8978063648791021
 30
0.0
 11
3507.0689922551300697
 21
168.9648544687157994
 31
0.0
  0
ARC
  5
15C68
  8
0
 10
3507.0569495228728556
 20
168.9664413394600899
 30
0.0
 40
0.0280783579601137
 50
294.9533792716172229
 51
332.3867764339354949
  0
ARC
  5
15C69
  8
0
 10
3507.0776287910471183
 20
168.9562221609463961
 30
0.0
 40
0.0050458108378621
 50
326.3611801108252166
 51
81.4516235476426544
  0
ARC
  5
15C6A
  8
0
 10
3507.0330595927389368
 20
168.8583433612778038
 30
0.0
 40
0.112408950863283
 50
66.2238818932989801
 51
100.0540500586540986
  0
ARC
  5
15C6B
  8
0
 10
3507.0187205245902078
 20
168.8426877458225874
 30
0.0
 40
0.1264488501408932
 50
92.3953898329991858
 51
119.1784661163930963
  0
ARC
  5
15C6C
  8
0
 10
3506.9605176154577748
 20
168.9431759760446141
 30
0.0
 40
0.0104963486248524
 50
109.1595182593794959
 51
167.5974215901599109
  0
ARC
  5
15C6D
  8
0
 10
3506.9747591765822108
 20
168.9498132587519876
 30
0.0
 40
0.0248820094525184
 50
190.1453974167152978
 51
227.7934454603582992
  0
ARC
  5
15C6E
  8
0
 10
3506.9951392667690016
 20
168.8835568460210084
 30
0.0
 40
0.0050599824918908
 50
111.7240371658116942
 51
258.1503954999178063
  0
ARC
  5
15C6F
  8
0
 10
3507.0098519175699039
 20
168.9230520529314958
 30
0.0
 40
0.0471559485753636
 50
250.486199891192598
 51
301.92073057053409
  0
ARC
  5
15C70
  8
0
 10
3507.0321735295810868
 20
168.8870835133375863
 30
0.0
 40
0.0048246427266007
 50
302.776461538955914
 51
67.9702824506453567
  0
ARC
  5
15C71
  8
0
 10
3507.0171345592889338
 20
168.8465812784988884
 30
0.0
 40
0.0480270088011901
 50
69.4627791954153366
 51
119.800005551585798
  0
LINE
  5
15C72
  8
0
 10
3506.9547354006799651
 20
169.0901451096829078
 30
0.0
 11
3506.9558548776299176
 21
169.0291486794451998
 31
0.0
  0
ARC
  5
15C73
  8
0
 10
3506.9687207384399699
 20
169.0276033419324051
 30
0.0
 40
0.0130279726191424
 50
108.3543623987983011
 51
230.4355831185152113
  0
ARC
  5
15C74
  8
0
 10
3506.9877633818700815
 20
169.0469718328257045
 30
0.0
 40
0.0401568774534951
 50
227.0900162102946069
 51
259.6621135187677964
  0
ARC
  5
15C75
  8
0
 10
3507.0029462405241247
 20
169.1216730644918016
 30
0.0
 40
0.1163801307499904
 50
258.9083333072525193
 51
295.2572255995002024
  0
ARC
  5
15C76
  8
0
 10
3507.0427311726839434
 20
169.0371375741218003
 30
0.0
 40
0.022950743361484
 50
295.4776478495915057
 51
353.5168628169014937
  0
ARC
  5
15C77
  8
0
 10
3507.0503579671749321
 20
169.0312484860085078
 30
0.0
 40
0.01553131302755
 50
12.2586967170996495
 51
80.7161442048781055
  0
ARC
  5
15C78
  8
0
 10
3507.0180769152548237
 20
168.9185935162799126
 30
0.0
 40
0.1326262375602962
 50
74.7939615855234337
 51
113.770682777708501
  0
LINE
  5
15C79
  8
0
 10
3507.0655351490181602
 20
169.0345461875791102
 30
0.0
 11
3507.0660885341299036
 21
169.1015942914158074
 31
0.0
  0
ARC
  5
15C7A
  8
0
 10
3507.0540458018731442
 20
169.103181162160098
 30
0.0
 40
0.0280783579601137
 50
294.9533792716172229
 51
332.3867764339354949
  0
ARC
  5
15C7B
  8
0
 10
3507.0747250700460427
 20
169.0929619836464042
 30
0.0
 40
0.0050458108378621
 50
326.3611801108252166
 51
81.4516235476426544
  0
ARC
  5
15C7C
  8
0
 10
3507.0301558717378612
 20
168.9950831839778118
 30
0.0
 40
0.112408950863283
 50
66.2238818932989801
 51
100.0540500586540986
  0
ARC
  5
15C7D
  8
0
 10
3507.0158168035900417
 20
168.9794275685225955
 30
0.0
 40
0.1264488501408932
 50
92.3953898329991858
 51
119.1784661163930963
  0
ARC
  5
15C7E
  8
0
 10
3506.9576138944589729
 20
169.0799157987447074
 30
0.0
 40
0.0104963486248524
 50
109.1595182593794959
 51
167.5974215901599109
  0
ARC
  5
15C7F
  8
0
 10
3506.9718554555829542
 20
169.0865530814519957
 30
0.0
 40
0.0248820094525184
 50
190.1453974167152978
 51
227.7934454603582992
  0
ARC
  5
15C80
  8
0
 10
3506.9922355457688354
 20
169.020296668720988
 30
0.0
 40
0.0050599824918908
 50
111.7240371658116942
 51
258.1503954999178063
  0
ARC
  5
15C81
  8
0
 10
3507.0069481965701925
 20
169.0597918756315039
 30
0.0
 40
0.0471559485753636
 50
250.486199891192598
 51
301.92073057053409
  0
ARC
  5
15C82
  8
0
 10
3507.0292698085818301
 20
169.0238233360375943
 30
0.0
 40
0.0048246427266007
 50
302.776461538955914
 51
67.9702824506453567
  0
ARC
  5
15C83
  8
0
 10
3507.0142308382892224
 20
168.9833211011988965
 30
0.0
 40
0.0480270088011901
 50
69.4627791954153366
 51
119.800005551585798
  0
LINE
  5
15C84
  8
0
 10
3506.9597542498800067
 20
169.247478743082894
 30
0.0
 11
3506.9608737268299592
 21
169.186482312845186
 31
0.0
  0
ARC
  5
15C85
  8
0
 10
3506.9737395876400115
 20
169.1849369753323913
 30
0.0
 40
0.0130279726191424
 50
108.3543623987983011
 51
230.4355831185152113
  0
ARC
  5
15C86
  8
0
 10
3506.9927822310701231
 20
169.2043054662256907
 30
0.0
 40
0.0401568774534951
 50
227.0900162102946069
 51
259.6621135187677964
  0
ARC
  5
15C87
  8
0
 10
3507.0079650897241663
 20
169.2790066978917878
 30
0.0
 40
0.1163801307499904
 50
258.9083333072525193
 51
295.2572255995002024
  0
ARC
  5
15C88
  8
0
 10
3507.0477500218848945
 20
169.1944712075217865
 30
0.0
 40
0.022950743361484
 50
295.4776478495915057
 51
353.5168628169014937
  0
ARC
  5
15C89
  8
0
 10
3507.0553768163749737
 20
169.1885821194084087
 30
0.0
 40
0.01553131302755
 50
12.2586967170996495
 51
80.7161442048781055
  0
ARC
  5
15C8A
  8
0
 10
3507.0230957644548653
 20
169.0759271496798988
 30
0.0
 40
0.1326262375602962
 50
74.7939615855234337
 51
113.770682777708501
  0
LINE
  5
15C8B
  8
0
 10
3507.0705539982182017
 20
169.1918798209790964
 30
0.0
 11
3507.0711073833299452
 21
169.2589279248157936
 31
0.0
  0
ARC
  5
15C8C
  8
0
 10
3507.0590646510731858
 20
169.2605147955601126
 30
0.0
 40
0.0280783579601137
 50
294.9533792716172229
 51
332.3867764339354949
  0
ARC
  5
15C8D
  8
0
 10
3507.0797439192460843
 20
169.2502956170463904
 30
0.0
 40
0.0050458108378621
 50
326.3611801108252166
 51
81.4516235476426544
  0
ARC
  5
15C8E
  8
0
 10
3507.0351747209388122
 20
169.152416817377798
 30
0.0
 40
0.112408950863283
 50
66.2238818932989801
 51
100.0540500586540986
  0
ARC
  5
15C8F
  8
0
 10
3507.0208356527891738
 20
169.1367612019226101
 30
0.0
 40
0.1264488501408932
 50
92.3953898329991858
 51
119.1784661163930963
  0
ARC
  5
15C90
  8
0
 10
3506.962632743658105
 20
169.2372494321446084
 30
0.0
 40
0.0104963486248524
 50
109.1595182593794959
 51
167.5974215901599109
  0
ARC
  5
15C91
  8
0
 10
3506.9768743047829958
 20
169.2438867148520103
 30
0.0
 40
0.0248820094525184
 50
190.1453974167152978
 51
227.7934454603582992
  0
ARC
  5
15C92
  8
0
 10
3506.997254394968877
 20
169.1776303021210026
 30
0.0
 40
0.0050599824918908
 50
111.7240371658116942
 51
258.1503954999178063
  0
ARC
  5
15C93
  8
0
 10
3507.0119670457697794
 20
169.2171255090314901
 30
0.0
 40
0.0471559485753636
 50
250.486199891192598
 51
301.92073057053409
  0
ARC
  5
15C94
  8
0
 10
3507.0342886577809622
 20
169.181156969437609
 30
0.0
 40
0.0048246427266007
 50
302.776461538955914
 51
67.9702824506453567
  0
ARC
  5
15C95
  8
0
 10
3507.0192496874888093
 20
169.1406547345989111
 30
0.0
 40
0.0480270088011901
 50
69.4627791954153366
 51
119.800005551585798
  0
LINE
  5
15C96
  8
0
 10
3506.5131142714208181
 20
168.86536155328929
 30
0.0
 11
3506.5142337483712254
 21
168.8043651230516105
 31
0.0
  0
ARC
  5
15C97
  8
0
 10
3506.5270996091808229
 20
168.8028197855387873
 30
0.0
 40
0.0130279726191424
 50
108.3543623987983011
 51
230.4355831185152113
  0
ARC
  5
15C98
  8
0
 10
3506.546142252610025
 20
168.8221882764320867
 30
0.0
 40
0.0401568774534951
 50
227.0900162102946069
 51
259.6621135187677964
  0
ARC
  5
15C99
  8
0
 10
3506.5613251112649777
 20
168.8968895080980985
 30
0.0
 40
0.1163801307499904
 50
258.9083333072525193
 51
295.2572255995002024
  0
ARC
  5
15C9A
  8
0
 10
3506.6011100434247965
 20
168.8123540177282109
 30
0.0
 40
0.022950743361484
 50
295.4776478495915057
 51
353.5168628169014937
  0
ARC
  5
15C9B
  8
0
 10
3506.6087368379148757
 20
168.8064649296148048
 30
0.0
 40
0.01553131302755
 50
12.2586967170996495
 51
80.7161442048781055
  0
ARC
  5
15C9C
  8
0
 10
3506.576455785995222
 20
168.6938099598862095
 30
0.0
 40
0.1326262375602962
 50
74.7939615855234337
 51
113.770682777708501
  0
LINE
  5
15C9D
  8
0
 10
3506.6239140197590132
 20
168.8097626311854924
 30
0.0
 11
3506.6244674048698471
 21
168.8768107350221044
 31
0.0
  0
ARC
  5
15C9E
  8
0
 10
3506.6124246726139972
 20
168.8783976057665086
 30
0.0
 40
0.0280783579601137
 50
294.9533792716172229
 51
332.3867764339354949
  0
ARC
  5
15C9F
  8
0
 10
3506.6331039407868957
 20
168.8681784272527864
 30
0.0
 40
0.0050458108378621
 50
326.3611801108252166
 51
81.4516235476426544
  0
ARC
  5
15CA0
  8
0
 10
3506.5885347424791689
 20
168.7702996275841087
 30
0.0
 40
0.112408950863283
 50
66.2238818932989801
 51
100.0540500586540986
  0
ARC
  5
15CA1
  8
0
 10
3506.5741956743299852
 20
168.7546440121290061
 30
0.0
 40
0.1264488501408932
 50
92.3953898329991858
 51
119.1784661163930963
  0
ARC
  5
15CA2
  8
0
 10
3506.5159927651989165
 20
168.8551322423510044
 30
0.0
 40
0.0104963486248524
 50
109.1595182593794959
 51
167.5974215901599109
  0
ARC
  5
15CA3
  8
0
 10
3506.5302343263228977
 20
168.8617695250584063
 30
0.0
 40
0.0248820094525184
 50
190.1453974167152978
 51
227.7934454603582992
  0
ARC
  5
15CA4
  8
0
 10
3506.5506144165101432
 20
168.7955131123273986
 30
0.0
 40
0.0050599824918908
 50
111.7240371658116942
 51
258.1503954999178063
  0
ARC
  5
15CA5
  8
0
 10
3506.5653270673110455
 20
168.8350083192378008
 30
0.0
 40
0.0471559485753636
 50
250.486199891192598
 51
301.92073057053409
  0
ARC
  5
15CA6
  8
0
 10
3506.5876486793217737
 20
168.799039779644005
 30
0.0
 40
0.0048246427266007
 50
302.776461538955914
 51
67.9702824506453567
  0
ARC
  5
15CA7
  8
0
 10
3506.5726097090300755
 20
168.7585375448051934
 30
0.0
 40
0.0480270088011901
 50
69.4627791954153366
 51
119.800005551585798
  0
LINE
  5
15CA8
  8
0
 10
3506.5135358708298554
 20
168.9806778145828901
 30
0.0
 11
3506.5146553477798079
 21
168.9196813843452105
 31
0.0
  0
ARC
  5
15CA9
  8
0
 10
3506.5275212085898602
 20
168.9181360468323874
 30
0.0
 40
0.0130279726191424
 50
108.3543623987983011
 51
230.4355831185152113
  0
ARC
  5
15CAA
  8
0
 10
3506.5465638520190623
 20
168.9375045377258004
 30
0.0
 40
0.0401568774534951
 50
227.0900162102946069
 51
259.6621135187677964
  0
ARC
  5
15CAB
  8
0
 10
3506.561746710674015
 20
169.0122057693918123
 30
0.0
 40
0.1163801307499904
 50
258.9083333072525193
 51
295.2572255995002024
  0
ARC
  5
15CAC
  8
0
 10
3506.6015316428338338
 20
168.927670279021811
 30
0.0
 40
0.022950743361484
 50
295.4776478495915057
 51
353.5168628169014937
  0
ARC
  5
15CAD
  8
0
 10
3506.6091584373248224
 20
168.9217811909084048
 30
0.0
 40
0.01553131302755
 50
12.2586967170996495
 51
80.7161442048781055
  0
ARC
  5
15CAE
  8
0
 10
3506.5768773854051688
 20
168.8091262211798949
 30
0.0
 40
0.1326262375602962
 50
74.7939615855234337
 51
113.770682777708501
  0
LINE
  5
15CAF
  8
0
 10
3506.6243356191680505
 20
168.9250788924792062
 30
0.0
 11
3506.6248890042788844
 21
168.9921269963157897
 31
0.0
  0
ARC
  5
15CB0
  8
0
 10
3506.6128462720230345
 20
168.9937138670601087
 30
0.0
 40
0.0280783579601137
 50
294.9533792716172229
 51
332.3867764339354949
  0
ARC
  5
15CB1
  8
0
 10
3506.633525540195933
 20
168.9834946885463864
 30
0.0
 40
0.0050458108378621
 50
326.3611801108252166
 51
81.4516235476426544
  0
ARC
  5
15CB2
  8
0
 10
3506.5889563418891157
 20
168.8856158888777941
 30
0.0
 40
0.112408950863283
 50
66.2238818932989801
 51
100.0540500586540986
  0
ARC
  5
15CB3
  8
0
 10
3506.5746172737390225
 20
168.8699602734226062
 30
0.0
 40
0.1264488501408932
 50
92.3953898329991858
 51
119.1784661163930963
  0
ARC
  5
15CB4
  8
0
 10
3506.5164143646088633
 20
168.9704485036446044
 30
0.0
 40
0.0104963486248524
 50
109.1595182593794959
 51
167.5974215901599109
  0
ARC
  5
15CB5
  8
0
 10
3506.5306559257328445
 20
168.9770857863520064
 30
0.0
 40
0.0248820094525184
 50
190.1453974167152978
 51
227.7934454603582992
  0
ARC
  5
15CB6
  8
0
 10
3506.5510360159191805
 20
168.9108293736209987
 30
0.0
 40
0.0050599824918908
 50
111.7240371658116942
 51
258.1503954999178063
  0
ARC
  5
15CB7
  8
0
 10
3506.5657486667200828
 20
168.9503245805314862
 30
0.0
 40
0.0471559485753636
 50
250.486199891192598
 51
301.92073057053409
  0
ARC
  5
15CB8
  8
0
 10
3506.5880702787321752
 20
168.9143560409376903
 30
0.0
 40
0.0048246427266007
 50
302.776461538955914
 51
67.9702824506453567
  0
ARC
  5
15CB9
  8
0
 10
3506.5730313084400223
 20
168.8738538060989072
 30
0.0
 40
0.0480270088011901
 50
69.4627791954153366
 51
119.800005551585798
  0
LINE
  5
15CBA
  8
0
 10
3506.5140687035841438
 20
169.1286537471166866
 30
0.0
 11
3506.5151881805340963
 21
169.0676573168790071
 31
0.0
  0
ARC
  5
15CBB
  8
0
 10
3506.5280540413427843
 20
169.0661119793662124
 30
0.0
 40
0.0130279726191424
 50
108.3543623987983011
 51
230.4355831185152113
  0
ARC
  5
15CBC
  8
0
 10
3506.547096684772896
 20
169.085480470259597
 30
0.0
 40
0.0401568774534951
 50
227.0900162102946069
 51
259.6621135187677964
  0
ARC
  5
15CBD
  8
0
 10
3506.5622795434269392
 20
169.1601817019256089
 30
0.0
 40
0.1163801307499904
 50
258.9083333072525193
 51
295.2572255995002024
  0
ARC
  5
15CBE
  8
0
 10
3506.6020644755872127
 20
169.0756462115556928
 30
0.0
 40
0.022950743361484
 50
295.4776478495915057
 51
353.5168628169014937
  0
ARC
  5
15CBF
  8
0
 10
3506.6096912700782013
 20
169.0697571234422867
 30
0.0
 40
0.01553131302755
 50
12.2586967170996495
 51
80.7161442048781055
  0
ARC
  5
15CC0
  8
0
 10
3506.5774102181580929
 20
168.9571021537136915
 30
0.0
 40
0.1326262375602962
 50
74.7939615855234337
 51
113.770682777708501
  0
LINE
  5
15CC1
  8
0
 10
3506.6248684519209746
 20
169.0730548250130028
 30
0.0
 11
3506.6254218370318085
 21
169.1401029288495863
 31
0.0
  0
ARC
  5
15CC2
  8
0
 10
3506.6133791047759587
 20
169.1416897995939053
 30
0.0
 40
0.0280783579601137
 50
294.9533792716172229
 51
332.3867764339354949
  0
ARC
  5
15CC3
  8
0
 10
3506.6340583729502214
 20
169.1314706210802115
 30
0.0
 40
0.0050458108378621
 50
326.3611801108252166
 51
81.4516235476426544
  0
ARC
  5
15CC4
  8
0
 10
3506.5894891746420399
 20
169.0335918214115907
 30
0.0
 40
0.112408950863283
 50
66.2238818932989801
 51
100.0540500586540986
  0
ARC
  5
15CC5
  8
0
 10
3506.5751501064919466
 20
169.0179362059564028
 30
0.0
 40
0.1264488501408932
 50
92.3953898329991858
 51
119.1784661163930963
  0
ARC
  5
15CC6
  8
0
 10
3506.5169471973617874
 20
169.1184244361784863
 30
0.0
 40
0.0104963486248524
 50
109.1595182593794959
 51
167.5974215901599109
  0
ARC
  5
15CC7
  8
0
 10
3506.5311887584862234
 20
169.125061718885803
 30
0.0
 40
0.0248820094525184
 50
190.1453974167152978
 51
227.7934454603582992
  0
ARC
  5
15CC8
  8
0
 10
3506.5515688486730141
 20
169.0588053061547953
 30
0.0
 40
0.0050599824918908
 50
111.7240371658116942
 51
258.1503954999178063
  0
ARC
  5
15CC9
  8
0
 10
3506.5662814994739165
 20
169.0983005130653112
 30
0.0
 40
0.0471559485753636
 50
250.486199891192598
 51
301.92073057053409
  0
ARC
  5
15CCA
  8
0
 10
3506.5886031114850994
 20
169.0623319734714869
 30
0.0
 40
0.0048246427266007
 50
302.776461538955914
 51
67.9702824506453567
  0
ARC
  5
15CCB
  8
0
 10
3506.5735641411929464
 20
169.0218297386327038
 30
0.0
 40
0.0480270088011901
 50
69.4627791954153366
 51
119.800005551585798
  0
LINE
  5
15CCC
  8
0
 10
3506.5126466562301175
 20
169.2955442074828909
 30
0.0
 11
3506.51376613318007
 21
169.2345477772452114
 31
0.0
  0
ARC
  5
15CCD
  8
0
 10
3506.5266319939901223
 20
169.2330024397323882
 30
0.0
 40
0.0130279726191424
 50
108.3543623987983011
 51
230.4355831185152113
  0
ARC
  5
15CCE
  8
0
 10
3506.5456746374197792
 20
169.2523709306256876
 30
0.0
 40
0.0401568774534951
 50
227.0900162102946069
 51
259.6621135187677964
  0
ARC
  5
15CCF
  8
0
 10
3506.5608574960738224
 20
169.3270721622918131
 30
0.0
 40
0.1163801307499904
 50
258.9083333072525193
 51
295.2572255995002024
  0
ARC
  5
15CD0
  8
0
 10
3506.6006424282340959
 20
169.2425366719218118
 30
0.0
 40
0.022950743361484
 50
295.4776478495915057
 51
353.5168628169014937
  0
ARC
  5
15CD1
  8
0
 10
3506.6082692227241751
 20
169.2366475838084909
 30
0.0
 40
0.01553131302755
 50
12.2586967170996495
 51
80.7161442048781055
  0
ARC
  5
15CD2
  8
0
 10
3506.5759881708040666
 20
169.1239926140798957
 30
0.0
 40
0.1326262375602962
 50
74.7939615855234337
 51
113.770682777708501
  0
LINE
  5
15CD3
  8
0
 10
3506.6234464045678578
 20
169.2399452853790933
 30
0.0
 11
3506.623999789680056
 21
169.3069933892157906
 31
0.0
  0
ARC
  5
15CD4
  8
0
 10
3506.6119570574228419
 20
169.3085802599601095
 30
0.0
 40
0.0280783579601137
 50
294.9533792716172229
 51
332.3867764339354949
  0
ARC
  5
15CD5
  8
0
 10
3506.6326363255961951
 20
169.2983610814463873
 30
0.0
 40
0.0050458108378621
 50
326.3611801108252166
 51
81.4516235476426544
  0
ARC
  5
15CD6
  8
0
 10
3506.5880671272889231
 20
169.2004822817777949
 30
0.0
 40
0.112408950863283
 50
66.2238818932989801
 51
100.0540500586540986
  0
ARC
  5
15CD7
  8
0
 10
3506.5737280591401941
 20
169.184826666322607
 30
0.0
 40
0.1264488501408932
 50
92.3953898329991858
 51
119.1784661163930963
  0
ARC
  5
15CD8
  8
0
 10
3506.5155251500082159
 20
169.2853148965446053
 30
0.0
 40
0.0104963486248524
 50
109.1595182593794959
 51
167.5974215901599109
  0
ARC
  5
15CD9
  8
0
 10
3506.5297667111331066
 20
169.2919521792520072
 30
0.0
 40
0.0248820094525184
 50
190.1453974167152978
 51
227.7934454603582992
  0
ARC
  5
15CDA
  8
0
 10
3506.5501468013189879
 20
169.2256957665209995
 30
0.0
 40
0.0050599824918908
 50
111.7240371658116942
 51
258.1503954999178063
  0
ARC
  5
15CDB
  8
0
 10
3506.5648594521198902
 20
169.265190973431487
 30
0.0
 40
0.0471559485753636
 50
250.486199891192598
 51
301.92073057053409
  0
ARC
  5
15CDC
  8
0
 10
3506.5871810641319826
 20
169.2292224338376059
 30
0.0
 40
0.0048246427266007
 50
302.776461538955914
 51
67.9702824506453567
  0
ARC
  5
15CDD
  8
0
 10
3506.5721420938389201
 20
169.188720198998908
 30
0.0
 40
0.0480270088011901
 50
69.4627791954153366
 51
119.800005551585798
  0
LINE
  5
15CDE
  8
0
 10
3506.5207396609798707
 20
169.4835206111829109
 30
0.0
 11
3506.5218591379298232
 21
169.4225241809452029
 31
0.0
  0
ARC
  5
15CDF
  8
0
 10
3506.5347249987398754
 20
169.4209788434324082
 30
0.0
 40
0.0130279726191424
 50
108.3543623987983011
 51
230.4355831185152113
  0
ARC
  5
15CE0
  8
0
 10
3506.5537676421699871
 20
169.4403473343257076
 30
0.0
 40
0.0401568774534951
 50
227.0900162102946069
 51
259.6621135187677964
  0
ARC
  5
15CE1
  8
0
 10
3506.5689505008240303
 20
169.5150485659918047
 30
0.0
 40
0.1163801307499904
 50
258.9083333072525193
 51
295.2572255995002024
  0
ARC
  5
15CE2
  8
0
 10
3506.608735432983849
 20
169.4305130756218887
 30
0.0
 40
0.022950743361484
 50
295.4776478495915057
 51
353.5168628169014937
  0
ARC
  5
15CE3
  8
0
 10
3506.6163622274739282
 20
169.4246239875085109
 30
0.0
 40
0.01553131302755
 50
12.2586967170996495
 51
80.7161442048781055
  0
ARC
  5
15CE4
  8
0
 10
3506.5840811755538198
 20
169.3119690177798873
 30
0.0
 40
0.1326262375602962
 50
74.7939615855234337
 51
113.770682777708501
  0
LINE
  5
15CE5
  8
0
 10
3506.6315394093180657
 20
169.4279216890791133
 30
0.0
 11
3506.6320927944298091
 21
169.4949697929158106
 31
0.0
  0
ARC
  5
15CE6
  8
0
 10
3506.6200500621730498
 20
169.4965566636601011
 30
0.0
 40
0.0280783579601137
 50
294.9533792716172229
 51
332.3867764339354949
  0
ARC
  5
15CE7
  8
0
 10
3506.6407293303459483
 20
169.4863374851464073
 30
0.0
 40
0.0050458108378621
 50
326.3611801108252166
 51
81.4516235476426544
  0
ARC
  5
15CE8
  8
0
 10
3506.5961601320382215
 20
169.3884586854777865
 30
0.0
 40
0.112408950863283
 50
66.2238818932989801
 51
100.0540500586540986
  0
ARC
  5
15CE9
  8
0
 10
3506.5818210638890378
 20
169.3728030700225986
 30
0.0
 40
0.1264488501408932
 50
92.3953898329991858
 51
119.1784661163930963
  0
ARC
  5
15CEA
  8
0
 10
3506.523618154757969
 20
169.4732913002447106
 30
0.0
 40
0.0104963486248524
 50
109.1595182593794959
 51
167.5974215901599109
  0
ARC
  5
15CEB
  8
0
 10
3506.5378597158828597
 20
169.4799285829519988
 30
0.0
 40
0.0248820094525184
 50
190.1453974167152978
 51
227.7934454603582992
  0
ARC
  5
15CEC
  8
0
 10
3506.5582398060691958
 20
169.4136721702209911
 30
0.0
 40
0.0050599824918908
 50
111.7240371658116942
 51
258.1503954999178063
  0
ARC
  5
15CED
  8
0
 10
3506.5729524568700981
 20
169.453167377131507
 30
0.0
 40
0.0471559485753636
 50
250.486199891192598
 51
301.92073057053409
  0
ARC
  5
15CEE
  8
0
 10
3506.5952740688821905
 20
169.4171988375375975
 30
0.0
 40
0.0048246427266007
 50
302.776461538955914
 51
67.9702824506453567
  0
ARC
  5
15CEF
  8
0
 10
3506.580235098589128
 20
169.3766966026988996
 30
0.0
 40
0.0480270088011901
 50
69.4627791954153366
 51
119.800005551585798
  0
LINE
  5
15CF0
  8
0
 10
3506.0685462848791758
 20
169.5614402457829044
 30
0.0
 11
3506.0696657618300378
 21
169.5004438155451965
 31
0.0
  0
ARC
  5
15CF1
  8
0
 10
3506.0825316226400901
 20
169.4988984780324017
 30
0.0
 40
0.0130279726191424
 50
108.3543623987983011
 51
230.4355831185152113
  0
ARC
  5
15CF2
  8
0
 10
3506.1015742660702017
 20
169.5182669689257011
 30
0.0
 40
0.0401568774534951
 50
227.0900162102946069
 51
259.6621135187677964
  0
ARC
  5
15CF3
  8
0
 10
3506.1167571247251544
 20
169.5929682005917982
 30
0.0
 40
0.1163801307499904
 50
258.9083333072525193
 51
295.2572255995002024
  0
ARC
  5
15CF4
  8
0
 10
3506.1565420568840636
 20
169.5084327102219106
 30
0.0
 40
0.022950743361484
 50
295.4776478495915057
 51
353.5168628169014937
  0
ARC
  5
15CF5
  8
0
 10
3506.1641688513750523
 20
169.5025436221085045
 30
0.0
 40
0.01553131302755
 50
12.2586967170996495
 51
80.7161442048781055
  0
ARC
  5
15CF6
  8
0
 10
3506.1318877994549439
 20
169.3898886523799092
 30
0.0
 40
0.1326262375602962
 50
74.7939615855234337
 51
113.770682777708501
  0
LINE
  5
15CF7
  8
0
 10
3506.1793460332178256
 20
169.5058413236791068
 30
0.0
 11
3506.1798994183300238
 21
169.5728894275158041
 31
0.0
  0
ARC
  5
15CF8
  8
0
 10
3506.1678566860728097
 20
169.5744762982600946
 30
0.0
 40
0.0280783579601137
 50
294.9533792716172229
 51
332.3867764339354949
  0
ARC
  5
15CF9
  8
0
 10
3506.1885359542470724
 20
169.5642571197464008
 30
0.0
 40
0.0050458108378621
 50
326.3611801108252166
 51
81.4516235476426544
  0
ARC
  5
15CFA
  8
0
 10
3506.1439667559388909
 20
169.4663783200778084
 30
0.0
 40
0.112408950863283
 50
66.2238818932989801
 51
100.0540500586540986
  0
ARC
  5
15CFB
  8
0
 10
3506.1296276877887976
 20
169.4507227046225921
 30
0.0
 40
0.1264488501408932
 50
92.3953898329991858
 51
119.1784661163930963
  0
ARC
  5
15CFC
  8
0
 10
3506.0714247786590931
 20
169.5512109348447041
 30
0.0
 40
0.0104963486248524
 50
109.1595182593794959
 51
167.5974215901599109
  0
ARC
  5
15CFD
  8
0
 10
3506.0856663397830744
 20
169.5578482175519923
 30
0.0
 40
0.0248820094525184
 50
190.1453974167152978
 51
227.7934454603582992
  0
ARC
  5
15CFE
  8
0
 10
3506.1060464299698651
 20
169.4915918048210131
 30
0.0
 40
0.0050599824918908
 50
111.7240371658116942
 51
258.1503954999178063
  0
ARC
  5
15CFF
  8
0
 10
3506.120759080769858
 20
169.5310870117315005
 30
0.0
 40
0.0471559485753636
 50
250.486199891192598
 51
301.92073057053409
  0
ARC
  5
15D00
  8
0
 10
3506.1430806927819503
 20
169.495118472137591
 30
0.0
 40
0.0048246427266007
 50
302.776461538955914
 51
67.9702824506453567
  0
ARC
  5
15D01
  8
0
 10
3506.1280417224888879
 20
169.4546162372988931
 30
0.0
 40
0.0480270088011901
 50
69.4627791954153366
 51
119.800005551585798
  0
LINE
  5
15D02
  8
0
 10
3506.0708483077301025
 20
169.3640662715829137
 30
0.0
 11
3506.071967784680055
 21
169.3030698413452058
 31
0.0
  0
ARC
  5
15D03
  8
0
 10
3506.0848336454901073
 20
169.301524503832411
 30
0.0
 40
0.0130279726191424
 50
108.3543623987983011
 51
230.4355831185152113
  0
ARC
  5
15D04
  8
0
 10
3506.1038762889202189
 20
169.3208929947257104
 30
0.0
 40
0.0401568774534951
 50
227.0900162102946069
 51
259.6621135187677964
  0
ARC
  5
15D05
  8
0
 10
3506.1190591475738074
 20
169.3955942263918075
 30
0.0
 40
0.1163801307499904
 50
258.9083333072525193
 51
295.2572255995002024
  0
ARC
  5
15D06
  8
0
 10
3506.1588440797349904
 20
169.3110587360218062
 30
0.0
 40
0.022950743361484
 50
295.4776478495915057
 51
353.5168628169014937
  0
ARC
  5
15D07
  8
0
 10
3506.1664708742241601
 20
169.3051696479085138
 30
0.0
 40
0.01553131302755
 50
12.2586967170996495
 51
80.7161442048781055
  0
ARC
  5
15D08
  8
0
 10
3506.1341898223040516
 20
169.1925146781798901
 30
0.0
 40
0.1326262375602962
 50
74.7939615855234337
 51
113.770682777708501
  0
LINE
  5
15D09
  8
0
 10
3506.1816480560678428
 20
169.3084673494792014
 30
0.0
 11
3506.182201441180041
 21
169.3755154533158134
 31
0.0
  0
ARC
  5
15D0A
  8
0
 10
3506.1701587089228269
 20
169.3771023240601039
 30
0.0
 40
0.0280783579601137
 50
294.9533792716172229
 51
332.3867764339354949
  0
ARC
  5
15D0B
  8
0
 10
3506.1908379770961801
 20
169.3668831455464101
 30
0.0
 40
0.0050458108378621
 50
326.3611801108252166
 51
81.4516235476426544
  0
ARC
  5
15D0C
  8
0
 10
3506.1462687787889081
 20
169.2690043458777893
 30
0.0
 40
0.112408950863283
 50
66.2238818932989801
 51
100.0540500586540986
  0
ARC
  5
15D0D
  8
0
 10
3506.1319297106388149
 20
169.2533487304226014
 30
0.0
 40
0.1264488501408932
 50
92.3953898329991858
 51
119.1784661163930963
  0
ARC
  5
15D0E
  8
0
 10
3506.0737268015082009
 20
169.3538369606447134
 30
0.0
 40
0.0104963486248524
 50
109.1595182593794959
 51
167.5974215901599109
  0
ARC
  5
15D0F
  8
0
 10
3506.0879683626330916
 20
169.3604742433520016
 30
0.0
 40
0.0248820094525184
 50
190.1453974167152978
 51
227.7934454603582992
  0
ARC
  5
15D10
  8
0
 10
3506.1083484528189729
 20
169.2942178306209939
 30
0.0
 40
0.0050599824918908
 50
111.7240371658116942
 51
258.1503954999178063
  0
ARC
  5
15D11
  8
0
 10
3506.1230611036198752
 20
169.3337130375315098
 30
0.0
 40
0.0471559485753636
 50
250.486199891192598
 51
301.92073057053409
  0
ARC
  5
15D12
  8
0
 10
3506.1453827156319676
 20
169.2977444979376003
 30
0.0
 40
0.0048246427266007
 50
302.776461538955914
 51
67.9702824506453567
  0
ARC
  5
15D13
  8
0
 10
3506.1303437453389051
 20
169.2572422630989024
 30
0.0
 40
0.0480270088011901
 50
69.4627791954153366
 51
119.800005551585798
  0
LINE
  5
15D14
  8
0
 10
3506.0715761766200558
 20
168.7970277732148929
 30
0.0
 11
3506.0726956535700083
 21
168.7360313429772134
 31
0.0
  0
ARC
  5
15D15
  8
0
 10
3506.0855615143800605
 20
168.7344860054643902
 30
0.0
 40
0.0130279726191424
 50
108.3543623987983011
 51
230.4355831185152113
  0
ARC
  5
15D16
  8
0
 10
3506.1046041578101722
 20
168.7538544963578033
 30
0.0
 40
0.0401568774534951
 50
227.0900162102946069
 51
259.6621135187677964
  0
ARC
  5
15D17
  8
0
 10
3506.1197870164642154
 20
168.8285557280237867
 30
0.0
 40
0.1163801307499904
 50
258.9083333072525193
 51
295.2572255995002024
  0
ARC
  5
15D18
  8
0
 10
3506.1595719486240341
 20
168.7440202376538139
 30
0.0
 40
0.022950743361484
 50
295.4776478495915057
 51
353.5168628169014937
  0
ARC
  5
15D19
  8
0
 10
3506.1671987431141133
 20
168.7381311495404077
 30
0.0
 40
0.01553131302755
 50
12.2586967170996495
 51
80.7161442048781055
  0
ARC
  5
15D1A
  8
0
 10
3506.1349176911949144
 20
168.6254761798118977
 30
0.0
 40
0.1326262375602962
 50
74.7939615855234337
 51
113.770682777708501
  0
LINE
  5
15D1B
  8
0
 10
3506.1823759249577961
 20
168.7414288511110954
 30
0.0
 11
3506.1829293100699942
 21
168.8084769549477926
 31
0.0
  0
ARC
  5
15D1C
  8
0
 10
3506.1708865778127802
 20
168.8100638256921115
 30
0.0
 40
0.0280783579601137
 50
294.9533792716172229
 51
332.3867764339354949
  0
ARC
  5
15D1D
  8
0
 10
3506.1915658459861334
 20
168.7998446471783893
 30
0.0
 40
0.0050458108378621
 50
326.3611801108252166
 51
81.4516235476426544
  0
ARC
  5
15D1E
  8
0
 10
3506.1469966476788613
 20
168.701965847509797
 30
0.0
 40
0.112408950863283
 50
66.2238818932989801
 51
100.0540500586540986
  0
ARC
  5
15D1F
  8
0
 10
3506.1326575795292229
 20
168.6863102320546091
 30
0.0
 40
0.1264488501408932
 50
92.3953898329991858
 51
119.1784661163930963
  0
ARC
  5
15D20
  8
0
 10
3506.0744546703981541
 20
168.7867984622766073
 30
0.0
 40
0.0104963486248524
 50
109.1595182593794959
 51
167.5974215901599109
  0
ARC
  5
15D21
  8
0
 10
3506.0886962315230448
 20
168.7934357449840093
 30
0.0
 40
0.0248820094525184
 50
190.1453974167152978
 51
227.7934454603582992
  0
ARC
  5
15D22
  8
0
 10
3506.1090763217089261
 20
168.7271793322530016
 30
0.0
 40
0.0050599824918908
 50
111.7240371658116942
 51
258.1503954999178063
  0
ARC
  5
15D23
  8
0
 10
3506.1237889725098285
 20
168.766674539163489
 30
0.0
 40
0.0471559485753636
 50
250.486199891192598
 51
301.92073057053409
  0
ARC
  5
15D24
  8
0
 10
3506.1461105845219208
 20
168.7307059995696079
 30
0.0
 40
0.0048246427266007
 50
302.776461538955914
 51
67.9702824506453567
  0
ARC
  5
15D25
  8
0
 10
3506.1310716142288584
 20
168.6902037647309101
 30
0.0
 40
0.0480270088011901
 50
69.4627791954153366
 51
119.800005551585798
  0
LINE
  5
15D26
  8
0
 10
3506.0747126842029502
 20
168.902960300940606
 30
0.0
 11
3506.0758321611519932
 21
168.8419638707030117
 31
0.0
  0
ARC
  5
15D27
  8
0
 10
3506.088698021962955
 20
168.8404185331901886
 30
0.0
 40
0.0130279726191424
 50
108.3543623987983011
 51
230.4355831185152113
  0
ARC
  5
15D28
  8
0
 10
3506.1077406653930666
 20
168.8597870240834879
 30
0.0
 40
0.0401568774534951
 50
227.0900162102946069
 51
259.6621135187677964
  0
ARC
  5
15D29
  8
0
 10
3506.1229235240480193
 20
168.9344882557494998
 30
0.0
 40
0.1163801307499904
 50
258.9083333072525193
 51
295.2572255995002024
  0
ARC
  5
15D2A
  8
0
 10
3506.1627084562069285
 20
168.8499527653796122
 30
0.0
 40
0.022950743361484
 50
295.4776478495915057
 51
353.5168628169014937
  0
ARC
  5
15D2B
  8
0
 10
3506.1703352506970077
 20
168.844063677266206
 30
0.0
 40
0.01553131302755
 50
12.2586967170996495
 51
80.7161442048781055
  0
ARC
  5
15D2C
  8
0
 10
3506.1380541987768993
 20
168.7314087075376108
 30
0.0
 40
0.1326262375602962
 50
74.7939615855234337
 51
113.770682777708501
  0
LINE
  5
15D2D
  8
0
 10
3506.1855124325411452
 20
168.8473613788368937
 30
0.0
 11
3506.1860658176528887
 21
168.9144094826735909
 31
0.0
  0
ARC
  5
15D2E
  8
0
 10
3506.1740230853961293
 20
168.9159963534177962
 30
0.0
 40
0.0280783579601137
 50
294.9533792716172229
 51
332.3867764339354949
  0
ARC
  5
15D2F
  8
0
 10
3506.1947023535699373
 20
168.9057771749041876
 30
0.0
 40
0.0050458108378621
 50
326.3611801108252166
 51
81.4516235476426544
  0
ARC
  5
15D30
  8
0
 10
3506.1501331552608463
 20
168.80789837523551
 30
0.0
 40
0.112408950863283
 50
66.2238818932989801
 51
100.0540500586540986
  0
ARC
  5
15D31
  8
0
 10
3506.1357940871121173
 20
168.7922427597802937
 30
0.0
 40
0.1264488501408932
 50
92.3953898329991858
 51
119.1784661163930963
  0
ARC
  5
15D32
  8
0
 10
3506.077591177981958
 20
168.8927309900024056
 30
0.0
 40
0.0104963486248524
 50
109.1595182593794959
 51
167.5974215901599109
  0
ARC
  5
15D33
  8
0
 10
3506.0918327391059393
 20
168.8993682727098076
 30
0.0
 40
0.0248820094525184
 50
190.1453974167152978
 51
227.7934454603582992
  0
ARC
  5
15D34
  8
0
 10
3506.1122128292918205
 20
168.8331118599787999
 30
0.0
 40
0.0050599824918908
 50
111.7240371658116942
 51
258.1503954999178063
  0
ARC
  5
15D35
  8
0
 10
3506.1269254800931776
 20
168.8726070668892021
 30
0.0
 40
0.0471559485753636
 50
250.486199891192598
 51
301.92073057053409
  0
ARC
  5
15D36
  8
0
 10
3506.1492470921048152
 20
168.8366385272954062
 30
0.0
 40
0.0048246427266007
 50
302.776461538955914
 51
67.9702824506453567
  0
ARC
  5
15D37
  8
0
 10
3506.1342081218122075
 20
168.7961362924567084
 30
0.0
 40
0.0480270088011901
 50
69.4627791954153366
 51
119.800005551585798
  0
LINE
  5
15D38
  8
0
 10
3506.4930790764587982
 20
169.6978499056291128
 30
0.0
 11
3506.494252178557872
 21
169.633931626350801
 31
0.0
  0
ARC
  5
15D39
  8
0
 10
3506.5114326269422236
 20
169.6327210775303911
 30
0.0
 40
0.0172230437242154
 50
124.2388546343312044
 51
222.5621776831019076
  0
ARC
  5
15D3A
  8
0
 10
3506.5367521938978825
 20
169.6562915687177053
 30
0.0
 40
0.0518153868171871
 50
222.821811054071901
 51
263.6712201117093741
  0
ARC
  5
15D3B
  8
0
 10
3506.556544657590166
 20
169.7475318513841103
 30
0.0
 40
0.1450004959739407
 50
259.8694965105975143
 51
302.1776574712001207
  0
ARC
  5
15D3C
  8
0
 10
3506.6223429114711507
 20
169.6426416045005112
 30
0.0
 40
0.0211813427389998
 50
302.6299611418756967
 51
25.0950417872898512
  0
ARC
  5
15D3D
  8
0
 10
3506.6147568473138563
 20
169.6284981683494095
 30
0.0
 40
0.0353748371029153
 50
40.8261986752174124
 51
76.1673229121931428
  0
ARC
  5
15D3E
  8
0
 10
3506.5818980666908828
 20
169.5064263232065116
 30
0.0
 40
0.161785347185065
 50
75.2040023244852733
 51
119.6991566398251052
  0
LINE
  5
15D3F
  8
0
 10
3506.643524254210206
 20
169.6426416045005112
 30
0.0
 11
3506.643940197763186
 21
169.7123315431533968
 31
0.0
  0
ARC
  5
15D40
  8
0
 10
3506.6234306021660814
 20
169.7091346207830043
 30
0.0
 40
0.031093336712277
 50
310.8808068986112971
 51
345.7909215323516037
  0
ARC
  5
15D41
  8
0
 10
3506.6467703491161956
 20
169.7032248217564074
 30
0.0
 40
0.0070170099102727
 50
345.7909215323563217
 51
54.2171696986695295
  0
ARC
  5
15D42
  8
0
 10
3506.5954150227748869
 20
169.605048104592413
 30
0.0
 40
0.1177473090860804
 50
61.9011623048110522
 51
102.6085554772048027
  0
ARC
  5
15D43
  8
0
 10
3506.5635991096560247
 20
169.5972652822956093
 30
0.0
 40
0.1228427512436811
 50
87.1476348470231557
 51
125.1263052227239001
  0
ARC
  5
15D44
  8
0
 10
3506.4960836562740951
 20
169.6878676961138979
 30
0.0
 40
0.0103642814283806
 50
107.7860466488552049
 51
185.0624084991397922
  0
ARC
  5
15D45
  8
0
 10
3506.5102527565109085
 20
169.6913360283575969
 30
0.0
 40
0.0248820094525184
 50
190.1453974167152978
 51
227.7934454603573045
  0
ARC
  5
15D46
  8
0
 10
3506.5506319261348835
 20
169.6265192922570009
 30
0.0
 40
0.0050599824918908
 50
111.7240371658116942
 51
258.1503954999178063
  0
ARC
  5
15D47
  8
0
 10
3506.5653445769357859
 20
169.6660144991674031
 30
0.0
 40
0.0471559485753636
 50
250.486199891192598
 51
301.92073057053409
  0
ARC
  5
15D48
  8
0
 10
3506.5876661889487877
 20
169.6300459595736072
 30
0.0
 40
0.0048246427266007
 50
302.776461538955914
 51
67.9702824506453567
  0
ARC
  5
15D49
  8
0
 10
3506.5726272186548158
 20
169.5895437247349093
 30
0.0
 40
0.0480270088011901
 50
69.4627791954153366
 51
119.800005551585798
  0
LINE
  5
15D4A
  8
0
 10
3506.0487367017281031
 20
169.7883107665290083
 30
0.0
 11
3506.0499098038258126
 21
169.7243924872506966
 31
0.0
  0
ARC
  5
15D4B
  8
0
 10
3506.0670902522110737
 20
169.7231819384302867
 30
0.0
 40
0.0172230437242154
 50
124.2388546343312044
 51
222.5621776831019076
  0
ARC
  5
15D4C
  8
0
 10
3506.0924098191658231
 20
169.7467524296176862
 30
0.0
 40
0.0518153868171871
 50
222.821811054071901
 51
263.6712201117093741
  0
ARC
  5
15D4D
  8
0
 10
3506.1122022828590161
 20
169.8379927122840058
 30
0.0
 40
0.1450004959739407
 50
259.8694965105975143
 51
302.1776574712001207
  0
ARC
  5
15D4E
  8
0
 10
3506.1780005367390913
 20
169.7331024654004068
 30
0.0
 40
0.0211813427389998
 50
302.6299611418756967
 51
25.0950417872898512
  0
ARC
  5
15D4F
  8
0
 10
3506.1704144725817969
 20
169.7189590292493051
 30
0.0
 40
0.0353748371029153
 50
40.8261986752174124
 51
76.1673229121931428
  0
ARC
  5
15D50
  8
0
 10
3506.1375556919601877
 20
169.5968871841064072
 30
0.0
 40
0.161785347185065
 50
75.2040023244852733
 51
119.6991566398251052
  0
LINE
  5
15D51
  8
0
 10
3506.1991818794781466
 20
169.7331024654004068
 30
0.0
 11
3506.1995978230311266
 21
169.8027924040532923
 31
0.0
  0
ARC
  5
15D52
  8
0
 10
3506.179088227434022
 20
169.7995954816828998
 30
0.0
 40
0.031093336712277
 50
310.8808068986112971
 51
345.7909215323516037
  0
ARC
  5
15D53
  8
0
 10
3506.2024279743850457
 20
169.793685682656303
 30
0.0
 40
0.0070170099102727
 50
345.7909215323563217
 51
54.2171696986695295
  0
ARC
  5
15D54
  8
0
 10
3506.1510726480441917
 20
169.6955089654923086
 30
0.0
 40
0.1177473090860804
 50
61.9011623048110522
 51
102.6085554772048027
  0
ARC
  5
15D55
  8
0
 10
3506.1192567349239653
 20
169.6877261431955048
 30
0.0
 40
0.1228427512436811
 50
87.1476348470231557
 51
125.1263052227239001
  0
ARC
  5
15D56
  8
0
 10
3506.0517412815429452
 20
169.7783285570137934
 30
0.0
 40
0.0103642814283806
 50
107.7860466488552049
 51
185.0624084991397922
  0
ARC
  5
15D57
  8
0
 10
3506.0659103817802134
 20
169.7817968892574925
 30
0.0
 40
0.0248820094525184
 50
190.1453974167152978
 51
227.7934454603573045
  0
ARC
  5
15D58
  8
0
 10
3506.1062895514041884
 20
169.7169801531568964
 30
0.0
 40
0.0050599824918908
 50
111.7240371658116942
 51
258.1503954999178063
  0
ARC
  5
15D59
  8
0
 10
3506.1210022022050907
 20
169.7564753600672987
 30
0.0
 40
0.0471559485753636
 50
250.486199891192598
 51
301.92073057053409
  0
ARC
  5
15D5A
  8
0
 10
3506.1433238142171831
 20
169.7205068204735028
 30
0.0
 40
0.0048246427266007
 50
302.776461538955914
 51
67.9702824506453567
  0
ARC
  5
15D5B
  8
0
 10
3506.1282848439241207
 20
169.6800045856348049
 30
0.0
 40
0.0480270088011901
 50
69.4627791954153366
 51
119.800005551585798
  0
LINE
  5
15D5C
  8
0
 10
3505.9045740788951662
 20
169.1234304365111996
 30
0.0
 11
3505.9858493054261999
 21
169.1388388842428867
 31
0.0
  0
ARC
  5
15D5D
  8
0
 10
3505.9841530170438091
 20
169.1477863281970997
 30
0.0
 40
0.0091068187413172
 50
280.7349370639150266
 51
0.0316667589833437
  0
LINE
  5
15D5E
  8
0
 10
3505.9932598343939389
 20
169.1477913614372994
 30
0.0
 11
3505.9936867815581536
 21
169.2309625240085893
 31
0.0
  0
ARC
  5
15D5F
  8
0
 10
3505.9966395753308461
 20
169.183229269923487
 30
0.0
 40
0.0090912616220673
 50
86.2478686064962972
 51
110.2998164342585028
  0
ARC
  5
15D60
  8
0
 10
3505.9976020273088579
 20
169.197905084274197
 30
0.0
 40
0.0056160780647366
 50
266.2478686064961835
 51
312.2430554555032813
  0
ARC
  5
15D61
  8
0
 10
3505.9974580156899719
 20
169.1980636673168021
 30
0.0
 40
0.0058302927409981
 50
312.2430554555032813
 51
354.4343211331304246
  0
ARC
  5
15D62
  8
0
 10
3502.5168039095569839
 20
169.220029567983687
 30
0.0
 40
3.486529717114947
 50
359.6297289796942778
 51
0.1301780118547799
  0
ARC
  5
15D63
  8
0
 10
3505.8694074631089279
 20
168.8162901147161108
 30
0.0
 40
0.4328955486287577
 50
71.9798081831525707
 51
84.0115845371959438
  0
ARC
  5
15D64
  8
0
 10
3505.9110608998039424
 20
169.2079445199225063
 30
0.0
 40
0.0390369052403609
 50
84.842139752032466
 51
99.5652957595964239
  0
LINE
  5
15D65
  8
0
 10
3505.9934294551098901
 20
169.1808342138587022
 30
0.0
 11
3505.9045740788951662
 21
169.1979824693025023
 31
0.0
  0
ARC
  5
15D66
  8
0
 10
3505.8811657782789553
 20
169.153125702462404
 30
0.0
 40
0.0040326495698611
 50
138.3763176005728894
 51
247.112714453528298
  0
ARC
  5
15D67
  8
0
 10
3505.9043365042398364
 20
169.2053500180437027
 30
0.0
 40
0.0611657484124153
 50
246.1427040260765864
 51
295.0588762765171964
  0
ARC
  5
15D68
  8
0
 10
3505.9282302449828421
 20
169.1532810315881932
 30
0.0
 40
0.003899198966116
 50
301.0812246991260963
 51
64.7903394651372935
  0
ARC
  5
15D69
  8
0
 10
3505.9050521610470241
 20
169.103202857352386
 30
0.0
 40
0.0590810672295007
 50
65.138877641783111
 51
117.0856256577317964
  0
LINE
  5
15D6A
  8
0
 10
3505.9045740788951662
 20
169.1979824693025023
 30
0.0
 11
3505.9045740788951662
 21
169.2464386899387137
 31
0.0
  0
LINE
  5
15D6B
  8
0
 10
3505.9045740788951662
 20
169.1234304365111996
 30
0.0
 11
3505.823298852363223
 21
169.1388388842428867
 31
0.0
  0
ARC
  5
15D6C
  8
0
 10
3505.824995140745159
 20
169.1477863281970997
 30
0.0
 40
0.0091068187413172
 50
179.9683332410166088
 51
259.2650629360849734
  0
LINE
  5
15D6D
  8
0
 10
3505.8158883233941197
 20
169.1477913614372994
 30
0.0
 11
3505.8154613762321787
 21
169.2309625240085893
 31
0.0
  0
ARC
  5
15D6E
  8
0
 10
3505.8125085824572125
 20
169.183229269923487
 30
0.0
 40
0.0090912616220673
 50
69.7001835657414404
 51
93.752131393503717
  0
ARC
  5
15D6F
  8
0
 10
3505.8115461304810196
 20
169.197905084274197
 30
0.0
 40
0.0056160780647366
 50
227.7569445444966902
 51
273.7521313935037028
  0
ARC
  5
15D70
  8
0
 10
3505.8116901420989961
 20
169.1980636673168021
 30
0.0
 40
0.0058302927409981
 50
185.5656788668696038
 51
227.7569445444966902
  0
ARC
  5
15D71
  8
0
 10
3509.2923442482310747
 20
169.220029567983687
 30
0.0
 40
3.486529717114947
 50
179.8698219881451905
 51
180.3702710203056938
  0
ARC
  5
15D72
  8
0
 10
3505.9397406946809497
 20
168.8162901147161108
 30
0.0
 40
0.4328955486287577
 50
95.9884154628040704
 51
108.0201918168474009
  0
ARC
  5
15D73
  8
0
 10
3505.8980872579850256
 20
169.2079445199225063
 30
0.0
 40
0.0390369052403609
 50
80.4347042404035903
 51
95.1578602479675482
  0
LINE
  5
15D74
  8
0
 10
3505.8157187026799875
 20
169.1808342138587022
 30
0.0
 11
3505.9045740788951662
 21
169.1979824693025023
 31
0.0
  0
LINE
  5
15D75
  8
0
 10
3506.1270890397609037
 20
169.0857768442849931
 30
0.0
 11
3506.2083642662919374
 21
169.1011852920167939
 31
0.0
  0
ARC
  5
15D76
  8
0
 10
3506.2066679779100014
 20
169.1101327359708932
 30
0.0
 40
0.0091068187413172
 50
280.7349370639150266
 51
0.0316667589833437
  0
LINE
  5
15D77
  8
0
 10
3506.2157747952601312
 20
169.110137769211093
 30
0.0
 11
3506.2162017424238911
 21
169.1933089317824113
 31
0.0
  0
ARC
  5
15D78
  8
0
 10
3506.2191545361988574
 20
169.1455756776973089
 30
0.0
 40
0.0090912616220673
 50
86.2478686064962972
 51
110.2998164342585028
  0
ARC
  5
15D79
  8
0
 10
3506.2201169881750502
 20
169.1602514920479905
 30
0.0
 40
0.0056160780647366
 50
266.2478686064961835
 51
312.2430554555032813
  0
ARC
  5
15D7A
  8
0
 10
3506.2199729765570737
 20
169.1604100750907094
 30
0.0
 40
0.0058302927409981
 50
312.2430554555032813
 51
354.4343211331304246
  0
ARC
  5
15D7B
  8
0
 10
3502.7393188704240856
 20
169.182375975757509
 30
0.0
 40
3.486529717114947
 50
359.6297289796942778
 51
0.1301780118547799
  0
ARC
  5
15D7C
  8
0
 10
3506.0919224239751202
 20
168.7786365224899896
 30
0.0
 40
0.4328955486287577
 50
71.9798081831525707
 51
84.0115845371959438
  0
ARC
  5
15D7D
  8
0
 10
3506.1335758606701347
 20
169.1702909276964135
 30
0.0
 40
0.0390369052403609
 50
84.842139752032466
 51
99.5652957595964239
  0
LINE
  5
15D7E
  8
0
 10
3506.2159444159760824
 20
169.1431806216324958
 30
0.0
 11
3506.1270890397609037
 21
169.1603288770762958
 31
0.0
  0
ARC
  5
15D7F
  8
0
 10
3506.1036807391451475
 20
169.1154721102361975
 30
0.0
 40
0.0040326495698611
 50
138.3763176005728894
 51
247.112714453528298
  0
ARC
  5
15D80
  8
0
 10
3506.1268514651069381
 20
169.1676964258176099
 30
0.0
 40
0.0611657484124153
 50
246.1427040260765864
 51
295.0588762765171964
  0
ARC
  5
15D81
  8
0
 10
3506.1507452058490344
 20
169.1156274393621004
 30
0.0
 40
0.003899198966116
 50
301.0812246991260963
 51
64.7903394651372935
  0
ARC
  5
15D82
  8
0
 10
3506.1275671219132164
 20
169.065549265126208
 30
0.0
 40
0.0590810672295007
 50
65.138877641783111
 51
117.0856256577317964
  0
LINE
  5
15D83
  8
0
 10
3506.1270890397609037
 20
169.1603288770762958
 30
0.0
 11
3506.1270890397609037
 21
169.2794914457840036
 31
0.0
  0
LINE
  5
15D84
  8
0
 10
3506.1270890397609037
 20
169.0857768442849931
 30
0.0
 11
3506.0458138132289605
 21
169.1011852920167939
 31
0.0
  0
ARC
  5
15D85
  8
0
 10
3506.0475101016108965
 20
169.1101327359708932
 30
0.0
 40
0.0091068187413172
 50
179.9683332410166088
 51
259.2650629360849734
  0
LINE
  5
15D86
  8
0
 10
3506.0384032842612214
 20
169.110137769211093
 30
0.0
 11
3506.0379763370970068
 21
169.1933089317824113
 31
0.0
  0
ARC
  5
15D87
  8
0
 10
3506.03502354332295
 20
169.1455756776973089
 30
0.0
 40
0.0090912616220673
 50
69.7001835657414404
 51
93.752131393503717
  0
ARC
  5
15D88
  8
0
 10
3506.0340610913472119
 20
169.1602514920479905
 30
0.0
 40
0.0056160780647366
 50
227.7569445444966902
 51
273.7521313935037028
  0
ARC
  5
15D89
  8
0
 10
3506.0342051029651884
 20
169.1604100750907094
 30
0.0
 40
0.0058302927409981
 50
185.5656788668696038
 51
227.7569445444966902
  0
ARC
  5
15D8A
  8
0
 10
3509.5148592090981765
 20
169.182375975757509
 30
0.0
 40
3.486529717114947
 50
179.8698219881451905
 51
180.3702710203056938
  0
ARC
  5
15D8B
  8
0
 10
3506.1622556555471419
 20
168.7786365224899896
 30
0.0
 40
0.4328955486287577
 50
95.9884154628040704
 51
108.0201918168474009
  0
ARC
  5
15D8C
  8
0
 10
3506.1206022188512179
 20
169.1702909276964135
 30
0.0
 40
0.0390369052403609
 50
80.4347042404035903
 51
95.1578602479675482
  0
LINE
  5
15D8D
  8
0
 10
3506.0382336635461797
 20
169.1431806216324958
 30
0.0
 11
3506.1270890397609037
 21
169.1603288770762958
 31
0.0
  0
LINE
  5
15D8E
  8
0
 10
3506.1270150149948677
 20
169.0030018556111884
 30
0.0
 11
3506.2082902415259014
 21
169.0184103033429039
 31
0.0
  0
ARC
  5
15D8F
  8
0
 10
3506.2065939531448748
 20
169.0273577472970885
 30
0.0
 40
0.0091068187413172
 50
280.7349370639150266
 51
0.0316667589833437
  0
LINE
  5
15D90
  8
0
 10
3506.2157007704950047
 20
169.0273627805372882
 30
0.0
 11
3506.2161277176578551
 21
169.1105339431086065
 31
0.0
  0
ARC
  5
15D91
  8
0
 10
3506.2190805114310024
 20
169.0628006890235042
 30
0.0
 40
0.0090912616220673
 50
86.2478686064962972
 51
110.2998164342585028
  0
ARC
  5
15D92
  8
0
 10
3506.2200429634081047
 20
169.0774765033742142
 30
0.0
 40
0.0056160780647366
 50
266.2478686064961835
 51
312.2430554555032813
  0
ARC
  5
15D93
  8
0
 10
3506.2198989517901282
 20
169.077635086416791
 30
0.0
 40
0.0058302927409981
 50
312.2430554555032813
 51
354.4343211331304246
  0
ARC
  5
15D94
  8
0
 10
3502.7392448456580496
 20
169.0996009870837042
 30
0.0
 40
3.486529717114947
 50
359.6297289796942778
 51
0.1301780118547799
  0
ARC
  5
15D95
  8
0
 10
3506.0918483992081747
 20
168.6958615338160996
 30
0.0
 40
0.4328955486287577
 50
71.9798081831525707
 51
73.3646755383342963
  0
LINE
  5
15D96
  8
0
 10
3506.2158703912109559
 20
169.0604056329586911
 30
0.0
 11
3506.1270150149948677
 21
169.0775538884024911
 31
0.0
  0
ARC
  5
15D97
  8
0
 10
3506.103606714378202
 20
169.0326971215623928
 30
0.0
 40
0.0040326495698611
 50
138.3763176005728894
 51
247.112714453528298
  0
ARC
  5
15D98
  8
0
 10
3506.1267774403399926
 20
169.0849214371436915
 30
0.0
 40
0.0611657484124153
 50
246.1427040260765864
 51
295.0588762765171964
  0
ARC
  5
15D99
  8
0
 10
3506.1506711810820889
 20
169.0328524506882104
 30
0.0
 40
0.003899198966116
 50
301.0812246991260963
 51
64.7903394651372935
  0
ARC
  5
15D9A
  8
0
 10
3506.1274930971458161
 20
168.9827742764524032
 30
0.0
 40
0.0590810672295007
 50
65.138877641783111
 51
117.0856256577317964
  0
LINE
  5
15D9B
  8
0
 10
3506.1270150149948677
 20
169.0775538884024911
 30
0.0
 11
3506.1270150149948677
 21
169.0857908781646017
 31
0.0
  0
LINE
  5
15D9C
  8
0
 10
3506.1270150149948677
 20
169.0030018556111884
 30
0.0
 11
3506.045739788463834
 21
169.0184103033429039
 31
0.0
  0
ARC
  5
15D9D
  8
0
 10
3506.0474360768448605
 20
169.0273577472970885
 30
0.0
 40
0.0091068187413172
 50
179.9683332410166088
 51
259.2650629360849734
  0
LINE
  5
15D9E
  8
0
 10
3506.0383292594938212
 20
169.0273627805372882
 30
0.0
 11
3506.0379023123309707
 21
169.1105339431086065
 31
0.0
  0
ARC
  5
15D9F
  8
0
 10
3506.0349495185578235
 20
169.0628006890235042
 30
0.0
 40
0.0090912616220673
 50
69.7001835657414404
 51
93.752131393503717
  0
ARC
  5
15DA0
  8
0
 10
3506.0339870665811759
 20
169.0774765033742142
 30
0.0
 40
0.0056160780647366
 50
227.7569445444966902
 51
273.7521313935037028
  0
ARC
  5
15DA1
  8
0
 10
3506.0341310781991524
 20
169.077635086416791
 30
0.0
 40
0.0058302927409981
 50
185.5656788668696038
 51
227.7569445444966902
  0
ARC
  5
15DA2
  8
0
 10
3509.5147851843321405
 20
169.0996009870837042
 30
0.0
 40
3.486529717114947
 50
179.8698219881451905
 51
180.3702710203056938
  0
ARC
  5
15DA3
  8
0
 10
3506.1621816307811059
 20
168.6958615338160996
 30
0.0
 40
0.4328955486287577
 50
106.6149058377797019
 51
108.0201918168474009
  0
LINE
  5
15DA4
  8
0
 10
3506.0381596387787795
 20
169.0604056329586911
 30
0.0
 11
3506.1270150149948677
 21
169.0775538884024911
 31
0.0
  0
LINE
  5
15DA5
  8
0
 10
3506.1270794772949557
 20
168.9254681559112896
 30
0.0
 11
3506.2083547038259894
 21
168.9408766036430052
 31
0.0
  0
ARC
  5
15DA6
  8
0
 10
3506.2066584154440534
 20
168.9498240475971045
 30
0.0
 40
0.0091068187413172
 50
280.7349370639150266
 51
0.0316667589833437
  0
LINE
  5
15DA7
  8
0
 10
3506.2157652327941832
 20
168.9498290808373042
 30
0.0
 11
3506.2161921799579432
 21
169.0330002434085088
 31
0.0
  0
ARC
  5
15DA8
  8
0
 10
3506.2191449737319999
 20
168.9852669893234918
 30
0.0
 40
0.0090912616220673
 50
86.2478686064962972
 51
110.2998164342585028
  0
ARC
  5
15DA9
  8
0
 10
3506.2201074257081927
 20
168.9999428036742017
 30
0.0
 40
0.0056160780647366
 50
266.2478686064961835
 51
312.2430554555032813
  0
ARC
  5
15DAA
  8
0
 10
3506.2199634140902162
 20
169.0001013867168069
 30
0.0
 40
0.0058302927409981
 50
312.2430554555032813
 51
354.4343211331304246
  0
ARC
  5
15DAB
  8
0
 10
3502.7393093079567734
 20
169.0220672873836918
 30
0.0
 40
3.486529717114947
 50
359.6297289796942778
 51
0.1301780118547799
  0
ARC
  5
15DAC
  8
0
 10
3506.0919128615091722
 20
168.6183278341160872
 30
0.0
 40
0.4328955486287577
 50
71.9798081831525707
 51
73.3800648024402733
  0
LINE
  5
15DAD
  8
0
 10
3506.2159348535101344
 20
168.982871933258707
 30
0.0
 11
3506.1270794772949557
 21
169.0000201887023934
 31
0.0
  0
ARC
  5
15DAE
  8
0
 10
3506.1036711766778353
 20
168.9551634218624088
 30
0.0
 40
0.0040326495698611
 50
138.3763176005728894
 51
247.112714453528298
  0
ARC
  5
15DAF
  8
0
 10
3506.1268419026409902
 20
169.0073877374437075
 30
0.0
 40
0.0611657484124153
 50
246.1427040260765864
 51
295.0588762765171964
  0
ARC
  5
15DB0
  8
0
 10
3506.1507356433821769
 20
168.955318750988198
 30
0.0
 40
0.003899198966116
 50
301.0812246991260963
 51
64.7903394651372935
  0
ARC
  5
15DB1
  8
0
 10
3506.1275575594468137
 20
168.9052405767523055
 30
0.0
 40
0.0590810672295007
 50
65.138877641783111
 51
117.0856256577317964
  0
LINE
  5
15DB2
  8
0
 10
3506.1270794772949557
 20
169.0000201887023934
 30
0.0
 11
3506.1270794772949557
 21
169.0030140766043019
 31
0.0
  0
LINE
  5
15DB3
  8
0
 10
3506.1270794772949557
 20
168.9254681559112896
 30
0.0
 11
3506.045804250763922
 21
168.9408766036430052
 31
0.0
  0
ARC
  5
15DB4
  8
0
 10
3506.0475005391449486
 20
168.9498240475971045
 30
0.0
 40
0.0091068187413172
 50
179.9683332410166088
 51
259.2650629360849734
  0
LINE
  5
15DB5
  8
0
 10
3506.0383937217939092
 20
168.9498290808373042
 30
0.0
 11
3506.0379667746310588
 21
169.0330002434085088
 31
0.0
  0
ARC
  5
15DB6
  8
0
 10
3506.0350139808579115
 20
168.9852669893234918
 30
0.0
 40
0.0090912616220673
 50
69.7001835657414404
 51
93.752131393503717
  0
ARC
  5
15DB7
  8
0
 10
3506.0340515288808092
 20
168.9999428036742017
 30
0.0
 40
0.0056160780647366
 50
227.7569445444966902
 51
273.7521313935037028
  0
ARC
  5
15DB8
  8
0
 10
3506.0341955404987857
 20
169.0001013867168069
 30
0.0
 40
0.0058302927409981
 50
185.5656788668696038
 51
227.7569445444966902
  0
ARC
  5
15DB9
  8
0
 10
3509.5148496466308643
 20
169.0220672873836918
 30
0.0
 40
3.486529717114947
 50
179.8698219881451905
 51
180.3702710203056938
  0
ARC
  5
15DBA
  8
0
 10
3506.162246093081194
 20
168.6183278341160872
 30
0.0
 40
0.4328955486287577
 50
106.637716495691194
 51
108.0201918168474009
  0
LINE
  5
15DBB
  8
0
 10
3506.0382241010788675
 20
168.982871933258707
 30
0.0
 11
3506.1270794772949557
 21
169.0000201887023934
 31
0.0
  0
LINE
  5
15DBC
  8
0
 10
3505.9045741232521323
 20
168.8825734078571088
 30
0.0
 11
3505.9858493497840755
 21
168.897981855588796
 31
0.0
  0
ARC
  5
15DBD
  8
0
 10
3505.9841530614007752
 20
168.9069292995428953
 30
0.0
 40
0.0091068187413172
 50
280.7349370639150266
 51
0.0316667589833437
  0
LINE
  5
15DBE
  8
0
 10
3505.9932598787518145
 20
168.906934332783095
 30
0.0
 11
3505.9936868259151197
 21
168.9901054953544133
 31
0.0
  0
ARC
  5
15DBF
  8
0
 10
3505.9966396196891765
 20
168.942372241269311
 30
0.0
 40
0.0090912616220673
 50
86.2478686064962972
 51
110.2998164342585028
  0
ARC
  5
15DC0
  8
0
 10
3505.997602071665824
 20
168.9570480556199925
 30
0.0
 40
0.0056160780647366
 50
266.2478686064961835
 51
312.2430554555032813
  0
ARC
  5
15DC1
  8
0
 10
3505.9974580600478475
 20
168.9572066386627114
 30
0.0
 40
0.0058302927409981
 50
312.2430554555032813
 51
354.4343211331304246
  0
ARC
  5
15DC2
  8
0
 10
3502.5168039539148594
 20
168.979172539329511
 30
0.0
 40
3.486529717114947
 50
359.6297289796942778
 51
0.1301780118547799
  0
ARC
  5
15DC3
  8
0
 10
3505.8694075074668035
 20
168.5754330860619916
 30
0.0
 40
0.4328955486287577
 50
71.9798081831525707
 51
84.0115845371959438
  0
ARC
  5
15DC4
  8
0
 10
3505.911060944161818
 20
168.9670874912683871
 30
0.0
 40
0.0390369052403609
 50
84.842139752032466
 51
99.5652957595964239
  0
LINE
  5
15DC5
  8
0
 10
3505.9934294994682205
 20
168.9399771852044978
 30
0.0
 11
3505.9045741232521323
 21
168.9571254406482979
 31
0.0
  0
ARC
  5
15DC6
  8
0
 10
3505.8811658226359214
 20
168.9122686738083132
 30
0.0
 40
0.0040326495698611
 50
138.3763176005728894
 51
247.112714453528298
  0
ARC
  5
15DC7
  8
0
 10
3505.9043365485981667
 20
168.9644929893896119
 30
0.0
 40
0.0611657484124153
 50
246.1427040260765864
 51
295.0588762765171964
  0
ARC
  5
15DC8
  8
0
 10
3505.9282302893388987
 20
168.9124240029339887
 30
0.0
 40
0.003899198966116
 50
301.0812246991260963
 51
64.7903394651372935
  0
ARC
  5
15DC9
  8
0
 10
3505.9050522054048997
 20
168.86234582869821
 30
0.0
 40
0.0590810672295007
 50
65.138877641783111
 51
117.0856256577317964
  0
LINE
  5
15DCA
  8
0
 10
3505.9045741232521323
 20
168.9571254406482979
 30
0.0
 11
3505.9045741232521323
 21
169.0055816612845092
 31
0.0
  0
LINE
  5
15DCB
  8
0
 10
3505.9045741232521323
 20
168.8825734078571088
 30
0.0
 11
3505.8232988967210986
 21
168.897981855588796
 31
0.0
  0
ARC
  5
15DCC
  8
0
 10
3505.8249951851030346
 20
168.9069292995428953
 30
0.0
 40
0.0091068187413172
 50
179.9683332410166088
 51
259.2650629360849734
  0
LINE
  5
15DCD
  8
0
 10
3505.8158883677519952
 20
168.906934332783095
 30
0.0
 11
3505.8154614205891448
 21
168.9901054953544133
 31
0.0
  0
ARC
  5
15DCE
  8
0
 10
3505.8125086268150881
 20
168.942372241269311
 30
0.0
 40
0.0090912616220673
 50
69.7001835657414404
 51
93.752131393503717
  0
ARC
  5
15DCF
  8
0
 10
3505.8115461748379857
 20
168.9570480556199925
 30
0.0
 40
0.0056160780647366
 50
227.7569445444966902
 51
273.7521313935037028
  0
ARC
  5
15DD0
  8
0
 10
3505.8116901864559622
 20
168.9572066386627114
 30
0.0
 40
0.0058302927409981
 50
185.5656788668696038
 51
227.7569445444966902
  0
ARC
  5
15DD1
  8
0
 10
3509.2923442925889503
 20
168.979172539329511
 30
0.0
 40
3.486529717114947
 50
179.8698219881451905
 51
180.3702710203056938
  0
ARC
  5
15DD2
  8
0
 10
3505.9397407390379158
 20
168.5754330860619916
 30
0.0
 40
0.4328955486287577
 50
95.9884154628040704
 51
108.0201918168474009
  0
ARC
  5
15DD3
  8
0
 10
3505.8980873023419917
 20
168.9670874912683871
 30
0.0
 40
0.0390369052403609
 50
80.4347042404035903
 51
95.1578602479675482
  0
LINE
  5
15DD4
  8
0
 10
3505.8157187470369536
 20
168.9399771852044978
 30
0.0
 11
3505.9045741232521323
 21
168.9571254406482979
 31
0.0
  0
LINE
  5
15DD5
  8
0
 10
3506.9402099123371954
 20
169.5817794962858898
 30
0.0
 11
3506.6292159492882092
 21
169.4958974363090078
 31
0.0
  0
LINE
  5
15DD6
  8
0
 10
3506.5178474606750569
 20
169.465142642470795
 30
0.0
 11
3506.1869944551040135
 21
169.3737764391223948
 31
0.0
  0
LINE
  5
15DD7
  8
0
 10
3506.0712566877818972
 20
169.3418150538361999
 30
0.0
 11
3505.7808925480890139
 21
169.2616299910274051
 31
0.0
  0
LINE
  5
15DD8
  8
0
 10
3506.8882774678631904
 20
169.7746740383516908
 30
0.0
 11
3506.6523633754541152
 21
169.7074623309858055
 31
0.0
  0
LINE
  5
15DD9
  8
0
 10
3506.4937321088150384
 20
169.6622684294108865
 30
0.0
 11
3506.1798991565528922
 21
169.5728577107304886
 31
0.0
  0
LINE
  5
15DDA
  8
0
 10
3506.067507411160932
 20
169.5408374061165091
 30
0.0
 11
3505.746004908256964
 21
169.4492416395306975
 31
0.0
  0
LINE
  5
15DDB
  8
0
 10
3506.4218005355060086
 20
169.8504855102852105
 30
0.0
 11
3506.2093282480350354
 21
169.7924110644291886
 31
0.0
  0
LINE
  5
15DDC
  8
0
 10
3506.0494633968719427
 20
169.7487156594719977
 30
0.0
 11
3505.7401037943641313
 21
169.6641592794383087
 31
0.0
  0
LINE
  5
15DDD
  8
0
 10
3506.2258450236258795
 20
169.1873610900271956
 30
0.0
 11
3506.5130633390572257
 21
169.2728406002619863
 31
0.0
  0
LINE
  5
15DDE
  8
0
 10
3506.6257643368348909
 20
169.3063817276052134
 30
0.0
 11
3506.9583023715099444
 21
169.4053489132311938
 31
0.0
  0
LINE
  5
15DDF
  8
0
 10
3507.0675430453020454
 20
169.4378602079218012
 30
0.0
 11
3507.490536868244817
 21
169.5637480878895929
 31
0.0
  0
LINE
  5
15DE0
  8
0
 10
3506.2258373087938708
 20
169.0255267256384002
 30
0.0
 11
3506.5144862714478222
 21
169.1059019172286071
 31
0.0
  0
LINE
  5
15DE1
  8
0
 10
3506.6305690810158922
 20
169.1382255326452935
 30
0.0
 11
3506.9568730626851902
 21
169.2290858801142974
 31
0.0
  0
LINE
  5
15DE2
  8
0
 10
3507.0678227928019624
 20
169.2599801737675875
 30
0.0
 11
3507.3851844265482214
 21
169.3483504969491946
 31
0.0
  0
LINE
  5
15DE3
  8
0
 10
3505.7387648292801714
 20
168.787417836263387
 30
0.0
 11
3506.0757214530772217
 21
168.8415747038075949
 31
0.0
  0
LINE
  5
15DE4
  8
0
 10
3506.1857072405709914
 20
168.8709643069674087
 30
0.0
 11
3506.5139397430712052
 21
168.9586722118922069
 31
0.0
  0
LINE
  5
15DE5
  8
0
 10
3506.6308714226861412
 20
168.9899178458869926
 30
0.0
 11
3506.9497521654411685
 21
169.0751268415070001
 31
0.0
  0
LINE
  5
15DE6
  8
0
 10
3507.0578792987757879
 20
169.1040197886040914
 30
0.0
 11
3507.384588227670065
 21
169.1913205752576914
 31
0.0
  0
LINE
  5
15DE7
  8
0
 10
3507.5401804624311808
 20
169.2328968019554054
 30
0.0
 11
3507.7465895780728715
 21
169.2880519464104907
 31
0.0
  0
LINE
  5
15DE8
  8
0
 10
3507.7004651942647797
 20
169.1173802595274935
 30
0.0
 11
3507.5462117625679639
 21
169.0844376373875093
 31
0.0
  0
LINE
  5
15DE9
  8
0
 10
3507.3873882072789456
 20
169.0505190119718861
 30
0.0
 11
3506.9992674627528686
 21
168.9676312934236933
 31
0.0
  0
LINE
  5
15DEA
  8
0
 10
3506.9854380197830324
 20
168.9646778543387882
 30
0.0
 11
3506.5992299867721158
 21
168.8821986176764938
 31
0.0
  0
LINE
  5
15DEB
  8
0
 10
3506.5089545991340856
 20
168.862919254159209
 30
0.0
 11
3506.1951297603832245
 21
168.7958982941235888
 31
0.0
  0
LINE
  5
15DEC
  8
0
 10
3506.0720792065449132
 20
168.7696194110245074
 30
0.0
 11
3505.7422267398619624
 21
168.6991755638289874
 31
0.0
  0
LINE
  5
15DED
  8
0
 10
3507.4116627894159137
 20
168.8997652049789053
 30
0.0
 11
3507.1013618631282043
 21
168.8439001678754039
 31
0.0
  0
LINE
  5
15DEE
  8
0
 10
3506.9424406088560318
 20
168.8152887748235003
 30
0.0
 11
3506.6506962537109757
 21
168.7627645705942996
 31
0.0
  0
LINE
  5
15DEF
  8
0
 10
3506.4903032630941198
 20
168.7338882134428957
 30
0.0
 11
3506.2115903787530442
 21
168.6837101304732016
 31
0.0
  0
LINE
  5
15DF0
  8
0
 10
3506.0543022603660575
 20
168.6553927590921091
 30
0.0
 11
3505.7907634996518027
 21
168.6079465499506966
 31
0.0
  0
ARC
  5
15DF1
  8
0
 10
3505.6784798872308784
 20
175.1875907539655088
 30
0.0
 40
6.5806022111235789
 50
274.5790826142982155
 51
274.9232129252865207
  0
ARC
  5
15DF2
  8
0
 10
3505.6784798872308784
 20
175.1875907539655088
 30
0.0
 40
6.5806022111235789
 50
270.7175332221613075
 51
273.2828827666891129
  0
ARC
  5
15DF3
  8
0
 10
3505.9059604321778352
 20
172.5206367855280121
 30
0.0
 40
3.9258775608947438
 50
273.9444465909160726
 51
275.0471800565965168
  0
ARC
  5
15DF4
  8
0
 10
3505.9059604321778352
 20
172.5206367855280121
 30
0.0
 40
3.9258775608947438
 50
267.6404202896408151
 51
272.4741196147563755
  0
LINE
  5
15DF5
  8
0
 10
3506.3599236213958648
 20
168.6422082107540064
 30
0.0
 11
3506.2043083520661639
 21
168.6550386085311004
 31
0.0
  0
LINE
  5
15DF6
  8
0
 10
3506.049433056010912
 20
168.6678079958977889
 30
0.0
 11
3505.7389450426271651
 21
168.6934075706305123
 31
0.0
  0
LINE
  5
15DF7
  8
0
 10
3506.8306158593309192
 20
168.7151417521083943
 30
0.0
 11
3506.6467002665240216
 21
168.7284429560372985
 31
0.0
  0
LINE
  5
15DF8
  8
0
 10
3506.4962519951232025
 20
168.73932372535171
 30
0.0
 11
3506.1825458064981831
 21
168.7620116873943914
 31
0.0
  0
LINE
  5
15DF9
  8
0
 10
3506.0720721959119146
 20
168.7700013961556067
 30
0.0
 11
3505.7386065873811276
 21
168.7787957820225984
 31
0.0
  0
LINE
  5
15DFA
  8
0
 10
3506.9423816613420968
 20
168.8185006211793109
 30
0.0
 11
3506.6241753024760328
 21
168.8414196281844113
 31
0.0
  0
LINE
  5
15DFB
  8
0
 10
3506.5084451190950858
 20
168.8497551652021968
 30
0.0
 11
3506.1857072405709914
 21
168.8709643069674087
 31
0.0
  0
LINE
  5
15DFC
  8
0
 10
3506.075116350233202
 20
168.8809659339765972
 30
0.0
 11
3505.9453828362397871
 21
168.8903100694195132
 31
0.0
  0
LINE
  5
15DFD
  8
0
 10
3507.4514059334928788
 20
168.9198949504113898
 30
0.0
 11
3507.0717574390610025
 21
168.9425851074879006
 31
0.0
  0
LINE
  5
15DFE
  8
0
 10
3506.9523139913308114
 20
168.9497237913770959
 30
0.0
 11
3506.6265286392481357
 21
168.9691947518060999
 31
0.0
  0
LINE
  5
15DFF
  8
0
 10
3506.5076982410159872
 20
168.9762967960415949
 30
0.0
 11
3506.215990597273958
 21
168.9937310605099015
 31
0.0
  0
LINE
  5
15E00
  8
0
 10
3507.3825233036927784
 20
169.05592780917911
 30
0.0
 11
3507.0713106317562051
 21
169.0810379953844915
 31
0.0
  0
LINE
  5
15E01
  8
0
 10
3506.9552099291850027
 20
169.0904055775012012
 30
0.0
 11
3506.6266010656531762
 21
169.1169193749653061
 31
0.0
  0
LINE
  5
15E02
  8
0
 10
3506.5100360745400394
 20
169.1263244181907055
 30
0.0
 11
3506.2159796807391103
 21
169.1500503505484119
 31
0.0
  0
ARC
  5
15E03
  8
0
 10
3507.8635318479109628
 20
179.1043070234225922
 30
0.0
 40
9.9102558972878878
 50
268.0984690011792964
 51
269.2876473026947224
  0
ARC
  5
15E04
  8
0
 10
3507.8635318479109628
 20
179.1043070234225922
 30
0.0
 40
9.9102558972878878
 50
267.2284044921585178
 51
267.4942974970580281
  0
ARC
  5
15E05
  8
0
 10
3507.8635318479109628
 20
179.1043070234225922
 30
0.0
 40
9.9102558972878878
 50
265.4121454978940733
 51
267.1907952992933133
  0
ARC
  5
15E06
  8
0
 10
3507.8635318479109628
 20
179.1043070234225922
 30
0.0
 40
9.9102558972878878
 50
262.8131861001829179
 51
264.7300715621084919
  0
ARC
  5
15E07
  8
0
 10
3507.8635318479109628
 20
179.1043070234225922
 30
0.0
 40
9.9102558972878878
 50
260.2303768588744788
 51
262.1224881576766279
  0
ARC
  5
15E08
  8
0
 10
3507.8635318479109628
 20
179.1043070234225922
 30
0.0
 40
9.9102558972878878
 50
257.6200033804250893
 51
259.5406001556231104
  0
ARC
  5
15E09
  8
0
 10
3508.1431897790371295
 20
179.5413724714206012
 30
0.0
 40
10.1935991402177795
 50
266.5798418048531175
 51
267.6419568171879177
  0
ARC
  5
15E0A
  8
0
 10
3508.1431897790371295
 20
179.5413724714206012
 30
0.0
 40
10.1935991402177795
 50
263.9629248633921179
 51
265.6924735327186795
  0
ARC
  5
15E0B
  8
0
 10
3508.1431897790371295
 20
179.5413724714206012
 30
0.0
 40
10.1935991402177795
 50
261.4734467418954864
 51
263.293362308235487
  0
ARC
  5
15E0C
  8
0
 10
3508.1431897790371295
 20
179.5413724714206012
 30
0.0
 40
10.1935991402177795
 50
258.893808327660679
 51
260.8068415215680034
  0
ARC
  5
15E0D
  8
0
 10
3508.1431897790371295
 20
179.5413724714206012
 30
0.0
 40
10.1935991402177795
 50
256.357268713815472
 51
258.2569160151542746
  0
ARC
  5
15E0E
  8
0
 10
3508.2907646554499479
 20
179.507012719685207
 30
0.0
 40
9.9733232078656808
 50
263.0853200232309064
 51
265.3728599583625964
  0
ARC
  5
15E0F
  8
0
 10
3508.2907646554499479
 20
179.507012719685207
 30
0.0
 40
9.9733232078656808
 50
260.4941739714122946
 51
262.2129716145273051
  0
ARC
  5
15E10
  8
0
 10
3508.2907646554499479
 20
179.507012719685207
 30
0.0
 40
9.9733232078656808
 50
257.8949721715608234
 51
259.6157994645283225
  0
ARC
  5
15E11
  8
0
 10
3508.2907646554499479
 20
179.507012719685207
 30
0.0
 40
9.9733232078656808
 50
254.837298630916905
 51
257.0128868955615076
  0
ARC
  5
15E12
  8
0
 10
3509.7059052783151856
 20
169.170774835750791
 30
0.0
 40
2.244642289389585
 50
184.856922253021196
 51
186.1081928266341947
  0
ARC
  5
15E13
  8
0
 10
3509.7059052783151856
 20
169.170774835750791
 30
0.0
 40
2.244642289389585
 50
181.1343297418507063
 51
181.884474751917395
  0
ARC
  5
15E14
  8
0
 10
3509.7059052783151856
 20
169.170774835750791
 30
0.0
 40
2.244642289389585
 50
176.8245788659249911
 51
178.1446756597102876
  0
ARC
  5
15E15
  8
0
 10
3509.7059052783151856
 20
169.170774835750791
 30
0.0
 40
2.244642289389585
 50
169.9895240457661885
 51
173.7856649622351881
  0
LINE
  5
15E16
  8
0
 10
3507.0158304214351119
 20
168.9694240881856047
 30
0.0
 11
3507.0158303517519016
 21
169.0060083139786116
 31
0.0
  0
LINE
  5
15E17
  8
0
 10
3507.0158301601991298
 20
169.1065755434605933
 30
0.0
 11
3507.0158300529287771
 21
169.1628926281707948
 31
0.0
  0
LINE
  5
15E18
  8
0
 10
3507.0158298619689958
 20
169.2631486947466044
 30
0.0
 11
3507.0158297144639619
 21
169.3405899605010916
 31
0.0
  0
LINE
  5
15E19
  8
0
 10
3507.0158295235601145
 20
169.4408166456890115
 30
0.0
 11
3507.0158293520189545
 21
169.5308769530032862
 31
0.0
  0
LINE
  5
15E1A
  8
0
 10
3507.0158291294428636
 20
169.647731493412806
 30
0.0
 11
3507.0158289475789388
 21
169.7432120922852903
 31
0.0
  0
LINE
  5
15E1B
  8
0
 10
3506.5712484986511299
 20
169.8326314100968943
 30
0.0
 11
3506.5712502580909131
 21
169.7202891256949044
 31
0.0
  0
LINE
  5
15E1C
  8
0
 10
3506.5712520906317877
 20
169.6032791729132896
 30
0.0
 11
3506.5712537267741027
 21
169.498809590045397
 31
0.0
  0
LINE
  5
15E1D
  8
0
 10
3506.5712552947688891
 20
169.3986912595676984
 30
0.0
 11
3506.5712566583160879
 21
169.3116271438593117
 31
0.0
  0
LINE
  5
15E1E
  8
0
 10
3506.571258231810134
 20
169.2111577131082072
 30
0.0
 11
3506.5712592755658079
 21
169.144512707694787
 31
0.0
  0
LINE
  5
15E1F
  8
0
 10
3506.5712608474091212
 20
169.0441486419290129
 30
0.0
 11
3506.57126159172185
 21
168.996623402365401
 31
0.0
  0
LINE
  5
15E20
  8
0
 10
3506.5712631642541055
 20
168.8962153734761955
 30
0.0
 11
3506.5712633966932117
 21
168.8813738048214077
 31
0.0
  0
LINE
  5
15E21
  8
0
 10
3506.5712649697129564
 20
168.7809346287380947
 30
0.0
 11
3506.5712651058370284
 21
168.7722429762264085
 31
0.0
  0
LINE
  5
15E22
  8
0
 10
3506.1266963562620731
 20
169.6937184399106968
 30
0.0
 11
3506.1266959477511591
 21
169.5774525809069928
 31
0.0
  0
LINE
  5
15E23
  8
0
 10
3506.1266955948481154
 20
169.4770132022304097
 30
0.0
 11
3506.1266952529149421
 21
169.3796960317401954
 31
0.0
  0
LINE
  5
15E24
  8
0
 10
3506.1266932799371716
 20
168.818169195514713
 30
0.0
 11
3506.1266932604339672
 21
168.8126183418484061
 31
0.0
  0
LINE
  5
15E25
  8
0
 10
3506.1266929082389652
 20
168.7123806726453097
 30
0.0
 11
3506.1266928968561842
 21
168.7091408892522111
 31
0.0
  0
LINE
  5
15E26
  8
0
 10
3505.6204209837669623
 20
168.6930035485266899
 30
0.0
 11
3505.6232681856208728
 21
168.1962555925888978
 31
0.0
  0
ARC
  5
15E27
  8
0
 10
3505.1923619092458466
 20
168.4660070152743003
 30
0.0
 40
0.1368989870008671
 50
359.8331364328050199
 51
66.5390438988758319
  0
ARC
  5
15E28
  8
0
 10
3500.3570038666462096
 20
168.3186111456494132
 30
0.0
 40
4.9744288481166521
 50
359.3056719588573173
 51
1.693369096941165
  0
ARC
  5
15E29
  8
0
 10
3505.6010494352358364
 20
168.5841414299100052
 30
0.0
 40
0.0234788475018069
 50
31.9394965911611983
 51
84.3092842504039766
  0
LINE
  5
15E2A
  8
0
 10
3505.7438452810752096
 20
168.6930035485266899
 30
0.0
 11
3505.7409980792208444
 21
168.1962555925888978
 31
0.0
  0
ARC
  5
15E2B
  8
0
 10
3506.1719043555958706
 20
168.4660070152743003
 30
0.0
 40
0.1368989870008671
 50
113.460956101124097
 51
180.1668635671950085
  0
ARC
  5
15E2C
  8
0
 10
3511.0072623981959623
 20
168.3186111456494132
 30
0.0
 40
4.9744288481166521
 50
178.3066309030587888
 51
180.6943280411425974
  0
ARC
  5
15E2D
  8
0
 10
3505.7632168296058808
 20
168.5841414299100052
 30
0.0
 40
0.0234788475018069
 50
95.6907157495960377
 51
148.0605034088387981
  0
ARC
  5
15E2E
  8
0
 10
3505.6821331324208586
 20
168.2027919029119118
 30
0.0
 40
0.0592267280406793
 50
186.3361157209992882
 51
353.6638842790006834
  0
ARC
  5
15E2F
  8
0
 10
3505.6821331324208586
 20
168.2641923525085872
 30
0.0
 40
0.3511145968931511
 50
180.9565234052155915
 51
359.0434765947844085
  0
ARC
  5
15E30
  8
0
 10
3505.6821331324208586
 20
164.8860196563952911
 30
0.0
 40
5.8646389452061216
 50
85.5852558166658355
 51
94.4147441833341787
  0
ARC
  5
15E31
  8
0
 10
3505.6821331324208586
 20
164.5348881646609982
 30
0.0
 40
5.4195303164337849
 50
81.6049042816420638
 51
98.3950957183579362
  0
ARC
  5
15E32
  8
0
 10
3505.6821331324208586
 20
162.8858863724483115
 30
0.0
 40
7.0037667735257694
 50
83.6097166046995994
 51
96.3902833953004148
  0
ARC
  5
15E33
  8
0
 10
3505.6821331324208586
 20
165.5895907487143006
 30
0.0
 40
0.7101851555972984
 50
261.7983192299083726
 51
278.2016807700916274
  0
ARC
  5
15E34
  8
0
 10
3505.6821331324208586
 20
165.4846238861570953
 30
0.0
 40
0.6350641414681231
 50
259.5421339717689193
 51
280.4578660282310807
  0
ARC
  5
15E35
  8
0
 10
3505.6821331324208586
 20
165.5338823134428878
 30
0.0
 40
0.7172563382283936
 50
263.3949491796736879
 51
276.6050508204052107
  0
ARC
  5
15E36
  8
0
 10
3505.6821331324222228
 20
165.3631194948393954
 30
0.0
 40
0.7172563162249302
 50
263.3949489760826737
 51
276.6050510238649167
  0
ARC
  5
15E37
  8
0
 10
3505.6821331324208586
 20
165.2351255783513864
 30
0.0
 40
0.6361154805050063
 50
260.7574164989021028
 51
279.2425835010980109
  0
LINE
  5
15E39
  8
0
 10
3494.8553943654678733
 20
163.4723240983888957
 30
0.0
 11
3494.8553943654678733
 21
165.3227177990889061
 31
0.0
  0
ARC
  5
15E3A
  8
0
 10
3494.3837956281881816
 20
165.3169947014822867
 30
0.0
 40
0.40077031363664
 50
1.01411251155782
 51
15.6460519584238291
  0
LINE
  5
15E3B
  8
0
 10
3494.7845031676188228
 20
165.324087806288901
 30
0.0
 11
3494.7845031676188228
 21
165.3227177990889061
 31
0.0
  0
ARC
  5
15E3C
  8
0
 10
3494.8372681432060745
 20
166.7290422873080047
 30
0.0
 40
0.0198282589869327
 50
1.7937587577756231
 51
91.843404515653944
  0
LINE
  5
15E3D
  8
0
 10
3494.8570866858708541
 20
166.7296629491393958
 30
0.0
 11
3494.8570866858708541
 21
165.4451639697182941
 31
0.0
  0
ARC
  5
15E3E
  8
0
 10
3494.8155408710231313
 20
165.4459320724448048
 30
0.0
 40
0.0415529146157568
 50
334.2273339348445234
 51
358.9408311903325739
  0
ARC
  5
15E3F
  8
0
 10
3494.848087552546076
 20
165.4307187810503024
 30
0.0
 40
0.0056470778489326
 50
273.1069436183549897
 51
329.642718845217928
  0
ARC
  5
15E40
  8
0
 10
3480.1393287861269528
 20
165.7241487803225937
 30
0.0
 40
14.7236606898656692
 50
1.62245593795399
 51
3.124910393614845
  0
ARC
  5
15E41
  8
0
 10
3494.1517882559141981
 20
166.4891542029604921
 30
0.0
 40
0.6903341530863067
 50
3.124284110642813
 51
13.9976967911535102
  0
ARC
  5
15E42
  8
0
 10
3494.7785117517778417
 20
166.6453871612607998
 30
0.0
 40
0.0444308495431551
 50
13.9976967911535102
 51
85.3930602328232737
  0
ARC
  5
15E43
  8
0
 10
3494.6268429797610224
 20
164.974775089480886
 30
0.0
 40
1.7219112986641281
 50
84.8275249464424235
 51
87.9225731086152678
  0
ARC
  5
15E44
  8
0
 10
3494.6435549183929652
 20
166.6969833708450892
 30
0.0
 40
0.0457340744226587
 50
316.997757456124873
 51
358.2096239473369224
  0
ARC
  5
15E45
  8
0
 10
3494.4782934084691988
 20
166.9017889702562059
 30
0.0
 40
0.3085120832107774
 50
282.4902318844609113
 51
310.0971231900148268
  0
ENDSEC
  0
EOF
