  0
SECTION
  2
HEADER
  9
$ACADVER
  1
AC1009
  9
$INSBASE
 10
4181.5796871925476808
 20
116.0802233674496051
 30
0.0
  9
$EXTMIN
 10
4172.4896081469833007
 20
113.3158112838935949
 30
-0.0000000000112498
  9
$EXTMAX
 10
4182.6721503951121122
 20
117.6507282001038988
 30
0.0000000000002956
  9
$LIMMIN
 10
0.0
 20
0.0
  9
$LIMMAX
 10
11.6929133858000007
 20
8.2677165353999982
  9
$ORTHOMODE
 70
     0
  9
$REGENMODE
 70
     1
  9
$FILLMODE
 70
     1
  9
$QTEXTMODE
 70
     0
  9
$MIRRTEXT
 70
     0
  9
$DRAGMODE
 70
     2
  9
$LTSCALE
 40
0.6431102362
  9
$OSMODE
 70
  4095
  9
$ATTMODE
 70
     1
  9
$TEXTSIZE
 40
0.2
  9
$TRACEWID
 40
0.05
  9
$TEXTSTYLE
  7
STANDARD
  9
$CLAYER
  8
0
  9
$CELTYPE
  6
BYLAYER
  9
$CECOLOR
 62
   256
  9
$DIMSCALE
 40
1.0
  9
$DIMASZ
 40
0.1875
  9
$DIMEXO
 40
0.0625
  9
$DIMDLI
 40
0.4443307087
  9
$DIMRND
 40
0.0
  9
$DIMDLE
 40
0.0
  9
$DIMEXE
 40
0.125
  9
$DIMTP
 40
0.01
  9
$DIMTM
 40
0.01
  9
$DIMTXT
 40
2.0
  9
$DIMCEN
 40
0.1052362205
  9
$DIMTSZ
 40
0.0
  9
$DIMTOL
 70
     1
  9
$DIMLIM
 70
     0
  9
$DIMTIH
 70
     1
  9
$DIMTOH
 70
     1
  9
$DIMSE1
 70
     0
  9
$DIMSE2
 70
     0
  9
$DIMTAD
 70
     0
  9
$DIMZIN
 70
     0
  9
$DIMBLK
  1

  9
$DIMASO
 70
     1
  9
$DIMSHO
 70
     1
  9
$DIMPOST
  1
\X
  9
$DIMAPOST
  1

  9
$DIMALT
 70
     1
  9
$DIMALTD
 70
     2
  9
$DIMALTF
 40
25.3999999999999986
  9
$DIMLFAC
 40
1.0
  9
$DIMTOFL
 70
     0
  9
$DIMTVP
 40
0.0
  9
$DIMTIX
 70
     0
  9
$DIMSOXD
 70
     0
  9
$DIMSAH
 70
     0
  9
$DIMBLK1
  1

  9
$DIMBLK2
  1

  9
$DIMSTYLE
  2
STANDARD
  9
$DIMCLRD
 70
     0
  9
$DIMCLRE
 70
     0
  9
$DIMCLRT
 70
     0
  9
$DIMTFAC
 40
1.0
  9
$DIMGAP
 40
0.09
  9
$LUNITS
 70
     2
  9
$LUPREC
 70
     4
  9
$SKETCHINC
 40
0.1
  9
$FILLETRAD
 40
0.0
  9
$AUNITS
 70
     0
  9
$AUPREC
 70
     0
  9
$MENU
  1
.
  9
$ELEVATION
 40
0.0
  9
$PELEVATION
 40
0.0
  9
$THICKNESS
 40
0.0
  9
$LIMCHECK
 70
     0
  9
$BLIPMODE
 70
     0
  9
$CHAMFERA
 40
0.0
  9
$CHAMFERB
 40
0.0
  9
$SKPOLY
 70
     0
  9
$TDCREATE
 40
2458060.468368056230247
  9
$TDUPDATE
 40
2459531.4109837962314487
  9
$TDINDWG
 40
0.3915001157
  9
$TDUSRTIMER
 40
0.3915001157
  9
$USRTIMER
 70
     1
  9
$ANGBASE
 50
0.0
  9
$ANGDIR
 70
     0
  9
$PDMODE
 70
     0
  9
$PDSIZE
 40
0.3125
  9
$PLINEWID
 40
0.0
  9
$COORDS
 70
     1
  9
$SPLFRAME
 70
     0
  9
$SPLINETYPE
 70
     6
  9
$SPLINESEGS
 70
     8
  9
$ATTDIA
 70
     1
  9
$ATTREQ
 70
     1
  9
$HANDLING
 70
     1
  9
$HANDSEED
  5
11673
  9
$SURFTAB1
 70
     6
  9
$SURFTAB2
 70
     6
  9
$SURFTYPE
 70
     6
  9
$SURFU
 70
     6
  9
$SURFV
 70
     6
  9
$UCSNAME
  2

  9
$UCSORG
 10
0.0
 20
0.0
 30
0.0
  9
$UCSXDIR
 10
1.0
 20
0.0
 30
0.0
  9
$UCSYDIR
 10
0.0
 20
1.0
 30
0.0
  9
$PUCSNAME
  2

  9
$PUCSORG
 10
0.0
 20
0.0
 30
0.0
  9
$PUCSXDIR
 10
1.0
 20
0.0
 30
0.0
  9
$PUCSYDIR
 10
0.0
 20
1.0
 30
0.0
  9
$USERI1
 70
     0
  9
$USERI2
 70
     0
  9
$USERI3
 70
     0
  9
$USERI4
 70
     0
  9
$USERI5
 70
     0
  9
$USERR1
 40
0.0
  9
$USERR2
 40
0.0
  9
$USERR3
 40
0.0
  9
$USERR4
 40
0.0
  9
$USERR5
 40
0.0
  9
$WORLDVIEW
 70
     1
  9
$SHADEDGE
 70
     3
  9
$SHADEDIF
 70
    70
  9
$TILEMODE
 70
     1
  9
$MAXACTVP
 70
    64
  9
$PLIMCHECK
 70
     0
  9
$PEXTMIN
 10
1.0000000000000000E+20
 20
1.0000000000000000E+20
 30
1.0000000000000000E+20
  9
$PEXTMAX
 10
-1.0000000000000000E+20
 20
-1.0000000000000000E+20
 30
-1.0000000000000000E+20
  9
$PLIMMIN
 10
0.0
 20
0.0
  9
$PLIMMAX
 10
12.0
 20
9.0
  9
$UNITMODE
 70
     0
  9
$VISRETAIN
 70
     1
  9
$PLINEGEN
 70
     0
  9
$PSLTSCALE
 70
     1
  0
ENDSEC
  0
SECTION
  2
TABLES
  0
TABLE
  2
VPORT
 70
     1
  0
VPORT
  2
*ACTIVE
 70
     0
 10
0.0
 20
0.0
 11
1.0
 21
1.0
 12
-87.4254683852022936
 22
11.1792574434147696
 13
0.0
 23
0.0
 14
1.0
 24
1.0
 15
0.0
 25
0.0
 16
0.0
 26
0.0
 36
122.0237731519760018
 17
4265.00634765625
 27
104.3040122985839986
 37
0.0
 40
5.008357938647662
 41
2.0410052910052912
 42
50.0
 43
0.0
 44
0.0
 50
0.0
 51
0.0
 71
     0
 72
   100
 73
     1
 74
     1
 75
     0
 76
     0
 77
     0
 78
     0
  0
ENDTAB
  0
TABLE
  2
LTYPE
 70
     2
  0
LTYPE
  2
CONTINUOUS
 70
     0
  3
Solid line
 72
    65
 73
     0
 40
0.0
  0
LTYPE
  2
PHANTOM2
 70
     0
  3
___ _ _ ___ _ _ ___ _ _ ___ _ _
 72
    65
 73
     6
 40
1.25
 49
0.625
 49
-0.125
 49
0.125
 49
-0.125
 49
0.125
 49
-0.125
  0
ENDTAB
  0
TABLE
  2
LAYER
 70
     2
  0
LAYER
  2
0
 70
     0
 62
   255
  6
CONTINUOUS
  0
LAYER
  2
DEFPOINTS
 70
     0
 62
     7
  6
CONTINUOUS
  0
ENDTAB
  0
TABLE
  2
STYLE
 70
     1
  0
STYLE
  2
STANDARD
 70
     0
 40
0.0
 41
0.8
 50
0.0
 71
     0
 42
0.2
  3
txt
  4

  0
ENDTAB
  0
TABLE
  2
VIEW
 70
     0
  0
ENDTAB
  0
TABLE
  2
UCS
 70
     0
  0
ENDTAB
  0
TABLE
  2
APPID
 70
     9
  0
APPID
  2
ACAD
 70
     0
  0
APPID
  2
ACAD_MLEADERVER
 70
     0
  0
APPID
  2
ACAD_EXEMPT_FROM_CAD_STANDARDS
 70
     0
  0
APPID
  2
ACAD_NAV_VCDISPLAY
 70
     0
  0
APPID
  2
ACAECLAYERSTANDARD
 70
     0
  0
APPID
  2
ACCMTRANSPARENCY
 70
     0
  0
APPID
  2
ACAD_DSTYLE_DIMJAG
 70
     0
  0
APPID
  2
ACAD_DSTYLE_DIMTALN
 70
     0
  0
APPID
  2
ACDBATTR
 70
     0
  0
ENDTAB
  0
TABLE
  2
DIMSTYLE
 70
     1
  0
DIMSTYLE
  2
STANDARD
 70
     0
  3

  4

  5

  6

  7

 40
1.0
 41
0.1875
 42
0.0625
 43
0.38
 44
0.125
 45
0.0
 46
0.0
 47
0.01
 48
0.01
140
0.15625
141
0.09
142
0.0
143
25.3999999999999986
144
1.0
145
0.0
146
1.0
147
0.09
 71
     1
 72
     0
 73
     1
 74
     1
 75
     0
 76
     0
 77
     0
 78
     4
170
     0
171
     2
172
     0
173
     0
174
     0
175
     0
176
     0
177
     0
178
     0
  0
ENDTAB
  0
ENDSEC
  0
SECTION
  2
BLOCKS
  0
BLOCK
  8
0
  2
$MODEL_SPACE
 70
     0
 10
0.0
 20
0.0
 30
0.0
  3
$MODEL_SPACE
  1

  0
ENDBLK
  5
21
  8
0
  0
BLOCK
 67
     1
  8
0
  2
$PAPER_SPACE
 70
     0
 10
0.0
 20
0.0
 30
0.0
  3
$PAPER_SPACE
  1

  0
ENDBLK
  5
1D
 67
     1
  8
0
  0
ENDSEC
  0
SECTION
  2
ENTITIES
  0
ATTDEF
  5
FDB2
  8
DEFPOINTS
 10
4181.5757716412917944
 20
116.0842583177414014
 30
0.0
 40
0.001
  1
K-72287D
  3

  2
MODELNUMBER
 70
     0
1001
ACDBATTR
1070
     0
1070
     1
  0
ATTDEF
  5
FDB3
  8
DEFPOINTS
 10
4181.5757716412917944
 20
116.0825916510746936
 30
0.0
 40
0.001
  1
ALEO
  3

  2
TRADENAME
 70
     0
1001
ACDBATTR
1070
     0
1070
     1
  0
ATTDEF
  5
FDB4
  8
DEFPOINTS
 10
4181.5757716412917944
 20
116.0809249844080995
 30
0.0
 40
0.001
  1
BATH AND SHOWER FAUCET
  3

  2
PRODUCT
 70
     0
1001
ACDBATTR
1070
     0
1070
     1
  0
LINE
  5
11513
  8
0
 10
4178.8431800562866556
 20
115.3905910642126003
 30
0.0
 11
4179.6899059036468316
 21
115.3905910642126003
 31
0.0
  0
LINE
  5
11514
  8
0
 10
4178.7747136882881023
 20
115.921787028912604
 30
0.0
 11
4178.781665468657593
 21
115.9217870288221945
 31
0.0
  0
LINE
  5
11515
  8
0
 10
4178.7816759924307917
 20
116.2372991249138039
 30
0.0
 11
4178.7747136882881023
 21
116.2372991817126007
 31
0.0
  0
LINE
  5
11516
  8
0
 10
4178.7629032800869027
 20
116.2254886078335971
 30
0.0
 11
4178.7629032879876831
 21
115.933597602812597
 31
0.0
  0
LINE
  5
11517
  8
0
 10
4179.6899059036468316
 20
115.3905910642126003
 30
0.0
 11
4179.6899059036468316
 21
116.7684951464126044
 31
0.0
  0
ARC
  5
11518
  8
0
 10
4179.7096059036475708
 20
115.4101723051205965
 30
0.0
 40
0.0197
 50
179.9999999999992042
 51
270.0
  0
ARC
  5
11519
  8
0
 10
4179.7096059036475708
 20
116.7488275995634979
 30
0.0
 40
0.0197
 50
90.0054941073143198
 51
179.9999999999992042
  0
LINE
  5
1151A
  8
0
 10
4178.8700792156359967
 20
115.9076540124108021
 30
0.0
 11
4178.8702593416355739
 21
115.9081274007108959
 31
0.0
  0
ARC
  5
1151B
  8
0
 10
4177.6998105815491726
 20
116.0815360289069957
 30
0.0
 40
1.179125262671223
 50
351.5423418821220025
 51
359.9008956724562154
  0
ARC
  5
1151C
  8
0
 10
4177.9237817843559242
 20
116.0718476339175993
 30
0.0
 40
0.9605332275332784
 50
350.1861767186529164
 51
351.4069185945421054
  0
ARC
  5
1151D
  8
0
 10
4177.7229324081008599
 20
116.0786580550446985
 30
0.0
 40
1.1560019762985241
 50
0.0415565051604482
 51
8.4972813486236802
  0
ARC
  5
1151E
  8
0
 10
4177.8403034667926477
 20
116.0802821200645951
 30
0.0
 40
1.0439806698877709
 50
8.2873359265900817
 51
9.4021431517349754
  0
ARC
  5
1151F
  8
0
 10
4177.9138120697207341
 20
116.0788350668529034
 30
0.0
 40
0.9853559833931084
 50
8.9151793908582082
 51
88.2748382503053506
  0
ARC
  5
11520
  8
0
 10
4177.9150484195433819
 20
116.0800575698156933
 30
0.0
 40
0.9840896488888639
 50
91.6393710394813894
 51
351.1919271781430893
  0
ARC
  5
11521
  8
0
 10
4178.7816744461870258
 20
116.2491109305126002
 30
0.0
 40
0.0118118057
 50
270.0075003955632269
 51
9.4816894136045082
  0
ARC
  5
11522
  8
0
 10
4178.7816640073870076
 20
115.9099753093125997
 30
0.0
 40
0.0118117196
 50
350.5168481946943189
 51
89.9929117328707662
  0
ARC
  5
11523
  8
0
 10
4180.1527791130829428
 20
118.2570381418982066
 30
0.0
 40
4.1051666558088424
 50
220.8365637479872987
 51
223.5416150150691976
  0
LINE
  5
11524
  8
0
 10
4178.870259354335758
 20
116.2508297932107979
 30
0.0
 11
4178.8686178533362181
 21
116.2546829953108016
 31
0.0
  0
LINE
  5
11525
  8
0
 10
4178.8686178984362414
 20
115.9042745178108049
 30
0.0
 11
4178.8700792156359967
 21
115.9076540124108021
 31
0.0
  0
LINE
  5
11526
  8
0
 10
4178.8661126508995949
 20
115.9081120741067963
 30
0.0
 11
4178.8661323485348476
 21
115.9053251239107993
 31
0.0
  0
LINE
  5
11527
  8
0
 10
4178.8661320018363767
 20
116.2536342716108066
 30
0.0
 11
4178.8661185501359796
 21
116.2507864173108061
 31
0.0
  0
LINE
  5
11528
  8
0
 10
4178.8661185501359796
 20
116.2507864173108061
 30
0.0
 11
4178.8662448070363098
 21
116.2494717771107986
 31
0.0
  0
ARC
  5
11529
  8
0
 10
4178.8642797220800276
 20
114.7285173040283013
 30
0.0
 40
0.6624098880760798
 50
91.825344615302285
 51
120.4624501589808006
  0
LINE
  5
1152A
  8
0
 10
4178.8431800562866556
 20
116.7684951464126044
 30
0.0
 11
4179.6899059036468316
 21
116.7684951464126044
 31
0.0
  0
ARC
  5
1152B
  8
0
 10
4178.8597280134572429
 20
117.3729828264959991
 30
0.0
 40
0.6047141392914895
 50
245.9115016826067972
 51
268.4319095317486017
  0
ARC
  5
1152C
  8
0
 10
4173.6492298479233796
 20
117.2853979624101015
 30
0.0
 40
1.016036239505935
 50
194.938576603154786
 51
227.1304819832240867
  0
ARC
  5
1152D
  8
0
 10
4172.6989465014466987
 20
117.0313697987437962
 30
0.0
 40
0.032389120376147
 50
91.7142440624753164
 51
194.0974856291975925
  0
ARC
  5
1152E
  8
0
 10
4175.2562995322014103
 20
114.2833936852882033
 30
0.0
 40
2.181787170178215
 50
43.9483324594449485
 51
56.5785712501305369
  0
ARC
  5
1152F
  8
0
 10
4175.6729148685681139
 20
114.875147478522706
 30
0.0
 40
1.458578645096988
 50
57.4345883478183907
 51
87.5742891524768652
  0
ARC
  5
11530
  8
0
 10
4174.6407049054978415
 20
102.2154046637432003
 30
0.0
 40
14.1593364553805792
 50
85.5689427485768164
 51
90.3802801140147665
  0
ARC
  5
11531
  8
0
 10
4174.4969578833897685
 20
114.222414095472601
 30
0.0
 40
2.1525906012560529
 50
88.6751418191931577
 51
104.9187786606761961
  0
ARC
  5
11532
  8
0
 10
4178.1631329787351206
 20
102.7346447412313069
 30
0.0
 40
13.9076755732026491
 50
88.7123207823858451
 51
93.4770172488827029
  0
ARC
  5
11533
  8
0
 10
4178.1634053506541022
 20
102.7296262004637981
 30
0.0
 40
13.8536995487272296
 50
88.7199619813916343
 51
93.4766868099433736
  0
ARC
  5
11534
  8
0
 10
4178.1634434770749067
 20
102.7287929011420999
 30
0.0
 40
13.8457336404308293
 50
88.7209434135471184
 51
93.4767000065451441
  0
ARC
  5
11535
  8
0
 10
4177.3374691726230594
 20
116.1365007942525978
 30
0.0
 40
0.4805485468604762
 50
92.1241032519315723
 51
103.5039452071357005
  0
ARC
  5
11536
  8
0
 10
4177.3377999468393682
 20
116.1347134594445976
 30
0.0
 40
0.4233642680697905
 50
91.9649282775801424
 51
103.5248729906448943
  0
ARC
  5
11537
  8
0
 10
4177.3378435737122345
 20
116.1345144272056018
 30
0.0
 40
0.4147673817215621
 50
91.9401011864332389
 51
103.4866663753936962
  0
ARC
  5
11538
  8
0
 10
4177.3026850237592953
 20
116.2752088872508978
 30
0.0
 40
0.3375557116459117
 50
103.2608039100311004
 51
127.9640937868403938
  0
ARC
  5
11539
  8
0
 10
4177.3026850237592953
 20
116.2752088872508978
 30
0.0
 40
0.2785557116459117
 50
103.2608039100311004
 51
127.9640937868403938
  0
ARC
  5
1153A
  8
0
 10
4177.3026945224319206
 20
116.2751935604554063
 30
0.0
 40
0.2697736385186037
 50
103.1955427078012946
 51
127.9636817973030958
  0
ARC
  5
1153B
  8
0
 10
4177.2645938825426128
 20
116.3354756675229993
 30
0.0
 40
0.2667021822641244
 50
129.4773743071253023
 51
154.7096018209811064
  0
ARC
  5
1153C
  8
0
 10
4177.2650126538483164
 20
116.3352445714570962
 30
0.0
 40
0.2081746061665734
 50
129.9547447589146998
 51
154.7542436603038993
  0
ARC
  5
1153D
  8
0
 10
4177.2651176294757533
 20
116.3351800864273997
 30
0.0
 40
0.1994970593719327
 50
130.0537541367764902
 51
154.7495122569756063
  0
ARC
  5
1153E
  8
0
 10
4177.8190066888655565
 20
116.1098175846027942
 30
0.0
 40
0.8650022055157668
 50
156.883978135446398
 51
173.7747101745117959
  0
ARC
  5
1153F
  8
0
 10
4177.8214984440282933
 20
116.1093251057899067
 30
0.0
 40
0.808537430009745
 50
157.0934594978128018
 51
173.811338239961799
  0
ARC
  5
11540
  8
0
 10
4177.8216078810191902
 20
116.1093414687604053
 30
0.0
 40
0.7998391894468666
 50
157.1231108989377958
 51
173.7552587808604017
  0
ARC
  5
11541
  8
0
 10
4177.9781600040032572
 20
116.0795703771264016
 30
0.0
 40
1.026576910231904
 50
173.0597031277671078
 51
184.9980907525001044
  0
ARC
  5
11542
  8
0
 10
4177.978159940867954
 20
116.079570381492104
 30
0.0
 40
0.9675768470322216
 50
173.0597029438625043
 51
184.9982615045288981
  0
ARC
  5
11543
  8
0
 10
4177.9787231094142044
 20
116.0795901818268021
 30
0.0
 40
0.9593395996040239
 50
173.0096144730030119
 51
184.9965091186367943
  0
ARC
  5
11544
  8
0
 10
4177.9842815352876642
 20
116.080590901355805
 30
0.0
 40
1.032764188782076
 50
185.0249044433882943
 51
194.2617418118576893
  0
ARC
  5
11545
  8
0
 10
4177.9836727200454334
 20
116.0805126628491024
 30
0.0
 40
0.9731508677067097
 50
185.0252501960596874
 51
194.2527744485977905
  0
ARC
  5
11546
  8
0
 10
4177.9836728689269876
 20
116.0805126943469929
 30
0.0
 40
0.9643510197606161
 50
185.025497565552314
 51
194.2527740617580037
  0
ARC
  5
11547
  8
0
 10
4177.4978994256107399
 20
115.9385727762302025
 30
0.0
 40
0.5266872716161385
 50
192.3228167758950065
 51
206.5025885723624981
  0
ARC
  5
11548
  8
0
 10
4177.5003485364750304
 20
115.9396102261410988
 30
0.0
 40
0.4703419942897399
 50
192.1118500548899135
 51
206.4825547132462873
  0
ARC
  5
11549
  8
0
 10
4177.5007066885173117
 20
115.9397619403035975
 30
0.0
 40
0.4619302200125153
 50
192.0801518929922054
 51
206.4792068422758007
  0
ARC
  5
1154A
  8
0
 10
4177.2582300046578894
 20
115.8183788226755979
 30
0.0
 40
0.2585692922479815
 50
206.3666190674742893
 51
236.1744207839610965
  0
ARC
  5
1154B
  8
0
 10
4177.2582540186076585
 20
115.8183958881343045
 30
0.0
 40
0.1995985990905757
 50
206.3277551308009095
 51
236.0521718696091966
  0
ARC
  5
1154C
  8
0
 10
4177.2582585578529688
 20
115.8183991221005016
 30
0.0
 40
0.1908041445043424
 50
206.3199575745053949
 51
236.0293098001021974
  0
ARC
  5
1154D
  8
0
 10
4177.3035496192951541
 20
115.8899755887416063
 30
0.0
 40
0.3432823128872107
 50
236.5427654704704992
 51
251.3897807484623002
  0
ARC
  5
1154E
  8
0
 10
4177.303560019003271
 20
115.8899915837500032
 30
0.0
 40
0.2843012496618068
 50
236.5355137993996948
 51
251.4316809749469996
  0
ARC
  5
1154F
  8
0
 10
4177.3035450897232295
 20
115.8899654652628044
 30
0.0
 40
0.2754712285976185
 50
236.535121206580186
 51
251.3858116264474063
  0
ARC
  5
11550
  8
0
 10
4177.3254857096653723
 20
115.9505148083511017
 30
0.0
 40
0.4076591039974123
 50
251.1832721605391043
 51
266.9506000834566066
  0
ARC
  5
11551
  8
0
 10
4177.3254881768889391
 20
115.9505240975987022
 30
0.0
 40
0.3486686925667253
 50
251.1833823100560892
 51
266.9281000020060901
  0
ARC
  5
11552
  8
0
 10
4177.3254891155447694
 20
115.9505436647138055
 30
0.0
 40
0.3398880826142096
 50
251.1397080459396136
 51
266.952479022309717
  0
ARC
  5
11553
  8
0
 10
4178.3015185759331871
 20
134.2388911666214142
 30
0.0
 40
18.7220619037050504
 50
266.9451983836876821
 51
270.2349836609075169
  0
ARC
  5
11554
  8
0
 10
4178.1923243678584186
 20
132.0429831687592923
 30
0.0
 40
16.4644573397499983
 50
266.9169278191325247
 51
271.1288564870529854
  0
ARC
  5
11555
  8
0
 10
4178.1923231695564027
 20
132.0412357509902108
 30
0.0
 40
16.4539121287818908
 50
266.9171019532304854
 51
271.1283533475138938
  0
ARC
  5
11556
  8
0
 10
4178.3622227538253355
 20
117.6230610961226972
 30
0.0
 40
2.1061357586490539
 50
270.4374276760403859
 51
274.2640558300973908
  0
ARC
  5
11557
  8
0
 10
4178.5039510402311862
 20
115.8980221287334018
 30
0.0
 40
0.3755614320727532
 50
272.2690902278617955
 51
299.1790819634682066
  0
ARC
  5
11558
  8
0
 10
4178.5039803024410503
 20
115.8979513463848008
 30
0.0
 40
0.31648536557677
 50
272.3016332283395968
 51
299.1804492501656796
  0
ARC
  5
11559
  8
0
 10
4178.5039803024410503
 20
115.8979513463848008
 30
0.0
 40
0.30768536557677
 50
272.3016332283395968
 51
299.1804492501656796
  0
ARC
  5
1155A
  8
0
 10
4178.5286058286983462
 20
115.8209801294811001
 30
0.0
 40
0.2967094401755177
 50
302.2770194558158892
 51
330.0521749563761205
  0
ARC
  5
1155B
  8
0
 10
4178.5266646097870762
 20
115.8225771911674968
 30
0.0
 40
0.2402153992830368
 50
303.2252984704848018
 51
329.5957695003219214
  0
ARC
  5
1155C
  8
0
 10
4178.5266550648402699
 20
115.8224324925150057
 30
0.0
 40
0.2313225886221141
 50
303.4006612059903887
 51
330.0127914841226016
  0
ARC
  5
1155D
  8
0
 10
4178.1914730029120619
 20
115.9953932655617024
 30
0.0
 40
0.6761155736116872
 50
331.5077782181401744
 51
352.1722845820896168
  0
ARC
  5
1155E
  8
0
 10
4178.1914730029120619
 20
115.9953932655617024
 30
0.0
 40
0.6171155736116872
 50
331.5077782181401744
 51
352.1722845820896168
  0
ARC
  5
1155F
  8
0
 10
4178.1957025210085703
 20
115.9934191206748011
 30
0.0
 40
0.6036814401415387
 50
331.6563405015281774
 51
351.8683220805182259
  0
ARC
  5
11560
  8
0
 10
4178.1622204874338422
 20
116.1582619951868054
 30
0.0
 40
0.7058490024936411
 50
7.7044256278155601
 51
24.9888177095456285
  0
ARC
  5
11561
  8
0
 10
4178.1619753983914052
 20
116.1582096430111051
 30
0.0
 40
0.6470988978402282
 50
7.7061227118794298
 51
24.9151739982171705
  0
ARC
  5
11562
  8
0
 10
4178.1695413275647297
 20
116.1610204686048036
 30
0.0
 40
0.6302479270510782
 50
8.2132870180972901
 51
25.0500702660820593
  0
ARC
  5
11563
  8
0
 10
4178.4801991977292346
 20
116.3012753808965982
 30
0.0
 40
0.3572523651569932
 50
25.7428491731079916
 51
43.9925895111313068
  0
ARC
  5
11564
  8
0
 10
4178.4802510531271764
 20
116.3013056890783048
 30
0.0
 40
0.2981924924728747
 50
25.7420828072757786
 51
44.0180163703669507
  0
ARC
  5
11565
  8
0
 10
4178.4800000007326162
 20
116.3010991122554003
 30
0.0
 40
0.289716577801477
 50
25.9496923358242917
 51
44.0128945304957995
  0
ARC
  5
11566
  8
0
 10
4178.5440373256169551
 20
116.3548847408062983
 30
0.0
 40
0.2741508813977775
 50
45.1989035186199786
 51
75.2740383245845237
  0
ARC
  5
11567
  8
0
 10
4178.5439330407170928
 20
116.3546278037817956
 30
0.0
 40
0.2154256925609718
 50
45.5891532295244275
 51
75.2534532823503639
  0
ARC
  5
11568
  8
0
 10
4178.5439128928628634
 20
116.3545785629617058
 30
0.0
 40
0.2066784402603178
 50
45.661603873986337
 51
75.2511114493506312
  0
ARC
  5
11569
  8
0
 10
4178.472646705956322
 20
116.0996918762999996
 30
0.0
 40
0.5391247446368718
 50
74.8301664820254047
 51
89.6785755126885959
  0
ARC
  5
1156A
  8
0
 10
4178.4720390927068365
 20
116.0965853912359051
 30
0.0
 40
0.483283945853164
 50
74.7978657833547516
 51
89.8999010999686305
  0
ARC
  5
1156B
  8
0
 10
4178.4719527717215897
 20
116.0961491376624934
 30
0.0
 40
0.4749278609603377
 50
74.7929951016720764
 51
89.9331995217101507
  0
ARC
  5
1156C
  8
0
 10
4177.7709207033185521
 20
116.0793761939080042
 30
0.0
 40
1.1044915005096601
 50
350.8273810361844198
 51
9.0385168119073516
  0
ARC
  5
1156D
  8
0
 10
4177.7695920828728049
 20
116.0793769041733015
 30
0.0
 40
1.0468201556943011
 50
350.7631414691971941
 51
9.1022463469144945
  0
ARC
  5
1156E
  8
0
 10
4178.7747123538529195
 20
116.2254901079271008
 30
0.0
 40
0.0118090738608992
 50
89.9935255330212556
 51
180.0072783212075933
  0
ARC
  5
1156F
  8
0
 10
4178.7747123168874168
 20
115.9335960578336966
 30
0.0
 40
0.0118090290007135
 50
179.9925039753042881
 51
270.0066538451148972
  0
ARC
  5
11570
  8
0
 10
4178.8770934178046446
 20
115.9052729219996962
 30
0.0
 40
0.0109611935737796
 50
179.7271318602437873
 51
194.9495168605367894
  0
ARC
  5
11571
  8
0
 10
4178.8609747720711312
 20
115.9077402609613046
 30
0.0
 40
0.0083921842335742
 50
319.2878794341062871
 51
335.6082862633089121
  0
ARC
  5
11572
  8
0
 10
4178.8669645406462223
 20
115.9025649449837942
 30
0.0
 40
0.0004765845361941
 50
194.5411696614465029
 51
321.2107846015480845
  0
ARC
  5
11573
  8
0
 10
4178.8779280557591846
 20
116.253631756690595
 30
0.0
 40
0.0117960541916091
 50
166.4209323179333069
 51
179.9877845323487122
  0
ARC
  5
11574
  8
0
 10
4178.8614672886787957
 20
116.2515574230367008
 30
0.0
 40
0.0078038309152596
 50
23.6105453092483195
 51
40.6823014255274487
  0
ARC
  5
11575
  8
0
 10
4178.8670044861983115
 20
116.2562152060384051
 30
0.0
 40
0.0005737702345953
 50
48.4286756885911132
 51
161.072903963151191
  0
LINE
  5
11576
  8
0
 10
4177.2896806174558151
 20
116.8381410376126013
 30
0.0
 11
4172.7368218864985465
 21
116.8381410376126013
 31
0.0
  0
LINE
  5
11577
  8
0
 10
4172.9579888444468452
 20
116.5407399770875969
 30
0.0
 11
4173.9427744909353351
 21
116.3024446395133964
 31
0.0
  0
LINE
  5
11578
  8
0
 10
4173.9080356321355794
 20
116.3108994700360057
 30
0.0
 11
4172.9946214583242181
 21
116.5318757322429946
 31
0.0
  0
LINE
  5
11579
  8
0
 10
4172.9946214583242181
 20
116.5318757322429946
 30
0.0
 11
4172.9245806450471719
 21
116.2423617097876019
 31
0.0
  0
LINE
  5
1157A
  8
0
 10
4172.9245806450471719
 20
116.2423617097876019
 30
0.0
 11
4172.9635924143467491
 21
116.2052113039875962
 31
0.0
  0
LINE
  5
1157B
  8
0
 10
4172.9635924143467491
 20
116.2052113039875962
 30
0.0
 11
4173.7863153085481827
 21
116.0061736885875945
 31
0.0
  0
LINE
  5
1157C
  8
0
 10
4173.7863153085481827
 20
116.0061736885875945
 30
0.0
 11
4173.8379943884483509
 21
116.0213836688875944
 31
0.0
  0
LINE
  5
1157D
  8
0
 10
4173.8379943884483509
 20
116.0213836688875944
 30
0.0
 11
4173.9080356321355794
 21
116.3108994700360057
 31
0.0
  0
LINE
  5
1157E
  8
0
 10
4172.9245806450471719
 20
116.2423617097876019
 30
0.0
 11
4173.2018293264482054
 21
116.1752881947875977
 31
0.0
  0
LINE
  5
1157F
  8
0
 10
4173.2018293264482054
 20
116.1752881947875977
 30
0.0
 11
4173.2306744124407487
 21
116.2945194899626955
 31
0.0
  0
LINE
  5
11580
  8
0
 10
4173.2306744124407487
 20
116.2945194899626955
 30
0.0
 11
4173.5895907930553221
 21
116.2076884791133011
 31
0.0
  0
LINE
  5
11581
  8
0
 10
4173.5895907930553221
 20
116.2076884791133011
 30
0.0
 11
4173.5607457070491364
 21
116.0884571839876003
 31
0.0
  0
LINE
  5
11582
  8
0
 10
4173.5607457070491364
 20
116.0884571839876003
 30
0.0
 11
4173.8379943884483509
 21
116.0213836688875944
 31
0.0
  0
LINE
  5
11583
  8
0
 10
4177.2032485359868588
 20
117.0630641607125995
 30
0.0
 11
4177.2032485359868588
 21
117.2298296673496054
 31
0.0
  0
LINE
  5
11584
  8
0
 10
4177.734744598987163
 20
117.0630641607125995
 30
0.0
 11
4177.734744598987163
 21
117.2298296673496054
 31
0.0
  0
LINE
  5
11585
  8
0
 10
4177.7780516855882524
 20
117.2298296673496054
 30
0.0
 11
4177.1599414492866345
 21
117.2298296673496054
 31
0.0
  0
LINE
  5
11586
  8
0
 10
4177.1599414492866345
 20
117.2298296673496054
 30
0.0
 11
4177.1599414492866345
 21
117.5638614014626029
 31
0.0
  0
LINE
  5
11587
  8
0
 10
4177.7780516855882524
 20
117.2298296673496054
 30
0.0
 11
4177.7780516854872985
 21
117.5638614014626029
 31
0.0
  0
ARC
  5
11588
  8
0
 10
4177.1993115281120481
 20
117.5638614012870988
 30
0.0
 40
0.0393700788246889
 50
106.5837560935334949
 51
179.9999997446103066
  0
ARC
  5
11589
  8
0
 10
4177.7386816066900792
 20
117.5638614012631962
 30
0.0
 40
0.0393700788966553
 50
0.0000002901382385
 51
73.416243456758238
  0
ARC
  5
1158A
  8
0
 10
4177.468996567555223
 20
116.6743753932329071
 30
0.0
 40
0.9688401008167652
 50
73.1446215930008208
 51
106.8553784069991934
  0
LINE
  5
1158B
  8
0
 10
4177.1880746516217187
 20
117.6015938238626006
 30
0.0
 11
4177.7499184833523032
 21
117.6015938238626006
 31
0.0
  0
ARC
  5
1158C
  8
0
 10
4179.0053010879482827
 20
115.9491670874793954
 30
0.0
 40
0.0196893610995932
 50
270.5117897790333927
 51
359.9955270105937188
  0
ARC
  5
1158D
  8
0
 10
4179.0053010881056252
 20
116.2099191232819066
 30
0.0
 40
0.0196893609621628
 50
0.00517681040007
 51
89.4882106765321765
  0
LINE
  5
1158E
  8
0
 10
4179.0054769591861259
 20
116.2296076987626066
 30
0.0
 11
4178.8688791661879804
 21
116.2307981116837965
 31
0.0
  0
LINE
  5
1158F
  8
0
 10
4179.0054769591888544
 20
115.9294785118625981
 30
0.0
 11
4178.8689348696152592
 21
115.9282885844117033
 31
0.0
  0
LINE
  5
11590
  8
0
 10
4179.0249904489874098
 20
116.2099209022625956
 30
0.0
 11
4179.0249904489874098
 21
115.9491655503625935
 31
0.0
  0
ARC
  5
11591
  8
0
 10
4178.7432176736092515
 20
117.1282769139089055
 30
0.0
 40
0.333827851413525
 50
236.873289401763401
 51
247.0251477295448126
  0
ARC
  5
11592
  8
0
 10
4177.7663803720051874
 20
115.6923230987981981
 30
0.0
 40
1.402961949461538
 50
55.5120652718046301
 51
62.8266336904743383
  0
ARC
  5
11593
  8
0
 10
4177.9411877187940263
 20
116.0986151036038052
 30
0.0
 40
0.9621499683450162
 50
61.0378505181301918
 51
83.8323797883959969
  0
ARC
  5
11594
  8
0
 10
4177.8436918320521727
 20
115.4092594259045939
 30
0.0
 40
1.658147969551331
 50
83.0421406547656744
 51
86.190896557192346
  0
ARC
  5
11595
  8
0
 10
4177.261675593425025
 20
117.2850745306469946
 30
0.0
 40
2.3552664948103841
 50
299.5729703029948041
 51
302.53739109148529
  0
ARC
  5
11596
  8
0
 10
4170.5375359246727385
 20
109.4316248577408004
 30
0.0
 40
8.9489709850509556
 50
43.332221759634713
 51
45.3457646151718308
  0
LINE
  5
11597
  8
0
 10
4176.9178154650871875
 20
115.7066638757433026
 30
0.0
 11
4176.9178154650871875
 21
115.1655489561876067
 31
0.0
  0
LINE
  5
11598
  8
0
 10
4176.9178154650871875
 20
115.1655489561876067
 30
0.0
 11
4177.0162406618874229
 21
115.0671237593875986
 31
0.0
  0
LINE
  5
11599
  8
0
 10
4177.0162406618874229
 20
115.0671237593875986
 30
0.0
 11
4177.9216920816479615
 21
115.0671237593875986
 31
0.0
  0
LINE
  5
1159A
  8
0
 10
4176.9178154650871875
 20
115.1655489561876067
 30
0.0
 11
4177.5511039045823054
 21
115.1655489561876067
 31
0.0
  0
LINE
  5
1159C
  8
0
 10
4177.9538466397561933
 20
117.0637444234995996
 30
0.0
 11
4172.6979775893387341
 21
117.0637444234995996
 31
0.0
  0
ARC
  5
1159D
  8
0
 10
4173.2290221306120657
 20
115.5024830193598007
 30
0.0
 40
0.7920381940287835
 50
62.9195255896130519
 51
89.8804743953131577
  0
ARC
  5
1159E
  8
0
 10
4173.5623979885886001
 20
116.8804936537552948
 30
0.0
 40
0.7920381931929056
 50
242.9195255910784113
 51
269.8804744160530049
  0
LINE
  5
1159F
  8
0
 10
4173.7151217916425594
 20
116.0132707575337037
 30
0.0
 11
4173.0301571494428572
 21
116.1789811443337044
 31
0.0
  0
ARC
  5
115A0
  8
0
 10
4173.0338601746816494
 20
116.1942876167011036
 30
0.0
 40
0.0157480313236771
 50
188.4347672431358092
 51
256.4000005115328236
  0
ARC
  5
115A1
  8
0
 10
4173.7188248170468796
 20
116.0285772299876044
 30
0.0
 40
0.0157480315000064
 50
256.4000000005952984
 51
324.3652325337733942
  0
LINE
  5
115A2
  8
0
 10
4177.921692081547917
 20
115.0671237592875968
 30
0.0
 11
4177.9509240871575457
 21
115.0963557648985045
 31
0.0
  0
LINE
  5
115A3
  8
0
 10
4179.7096040146097948
 20
116.7685275994729039
 30
0.0
 11
4180.2017169649498101
 21
116.7685747883131029
 31
0.0
  0
ARC
  5
115A4
  8
0
 10
4180.3941803727893785
 20
111.5371570851020948
 30
0.0
 40
5.234956862174255
 50
79.2169908578192548
 51
92.1069565614832726
  0
ARC
  5
115A5
  8
0
 10
4181.1009240156054148
 20
115.2480153053416956
 30
0.0
 40
1.4573974242064329
 50
29.645503329193339
 51
79.2169908578192548
  0
ARC
  5
115A6
  8
0
 10
4180.7884870412653981
 20
115.264627853494602
 30
0.0
 40
1.7289972503708251
 50
4.4009367371859476
 51
24.0368845556095785
  0
ARC
  5
115A7
  8
0
 10
4180.2017648199389441
 20
114.9574484053308936
 30
0.0
 40
0.4330239024340333
 50
359.998962935117504
 51
90.0063320102279931
  0
LINE
  5
115A8
  8
0
 10
4179.7096059036475708
 20
115.3904723051205963
 30
0.0
 11
4180.2017169645514514
 21
115.3904723051205963
 31
0.0
  0
LINE
  5
115A9
  8
0
 10
4180.6347887223018915
 20
114.9574405675130038
 30
0.0
 11
4180.6347887223018915
 21
113.3433928985130024
 31
0.0
  0
LINE
  5
115AA
  8
0
 10
4182.5245856627943795
 20
113.3433928985151056
 30
0.0
 11
4182.5245856626243039
 21
114.9574405677131068
 31
0.0
  0
ARC
  5
115AB
  8
0
 10
4176.4671915835433538
 20
115.0095427523997955
 30
0.0
 40
6.0576181512978957
 50
359.5071871451705192
 51
3.6701269658867099
  0
LINE
  5
115AC
  8
0
 10
4182.5048856627936402
 20
113.3234894891131006
 30
0.0
 11
4180.6544887223017213
 21
113.3234894891131006
 31
0.0
  0
ARC
  5
115AD
  8
0
 10
4182.5045340614478846
 20
113.343538536559393
 30
0.0
 40
0.0200521302363472
 50
271.0046965307598157
 51
359.5838587450729165
  0
ARC
  5
115AE
  8
0
 10
4180.6548403236483864
 20
113.3435385365595067
 30
0.0
 40
0.0200521302363934
 50
180.4161412610266098
 51
268.9953034691880021
  0
LINE
  5
115AF
  8
0
 10
4177.0555556908502695
 20
114.9625291940372023
 30
0.0
 11
4177.0555556908502695
 21
114.9998272596290008
 31
0.0
  0
LINE
  5
115B0
  8
0
 10
4177.0555556908502695
 20
115.0339923781129983
 30
0.0
 11
4177.0555556908502695
 21
115.0671237593875986
 31
0.0
  0
LINE
  5
115B1
  8
0
 10
4177.0555556908502695
 20
114.9276517452937014
 30
0.0
 11
4177.0555556908502695
 21
114.891718632005194
 31
0.0
  0
LINE
  5
115B2
  8
0
 10
4177.0555556908502695
 20
114.8561948799029011
 30
0.0
 11
4177.0555556908502695
 21
114.8203009232714038
 31
0.0
  0
LINE
  5
115B3
  8
0
 10
4177.0555556908502695
 20
114.7848188670855052
 30
0.0
 11
4177.0555556908502695
 21
114.7491072698587971
 31
0.0
  0
LINE
  5
115B4
  8
0
 10
4177.0949204653497873
 20
114.6740312961130002
 30
0.0
 11
4177.8429519613500815
 21
114.6740312961130002
 31
0.0
  0
LINE
  5
115B5
  8
0
 10
4177.0857414623469595
 20
114.9453649699305942
 30
0.0
 11
4177.4689362133503892
 21
114.9632165813438007
 31
0.0
  0
LINE
  5
115B6
  8
0
 10
4177.0555556908502695
 20
114.9625291940372023
 30
0.0
 11
4177.4689362133503892
 21
114.9809438504129986
 31
0.0
  0
LINE
  5
115B7
  8
0
 10
4177.0555556908502695
 20
114.9998272596290008
 30
0.0
 11
4177.4689362133503892
 21
115.0169143932129998
 31
0.0
  0
LINE
  5
115B8
  8
0
 10
4177.0555556908502695
 20
115.0339923781129983
 30
0.0
 11
4177.4689362133503892
 21
115.0523738366797062
 31
0.0
  0
LINE
  5
115B9
  8
0
 10
4177.0868160717491264
 20
115.0173751419131065
 30
0.0
 11
4177.4689414812055475
 21
115.0346336163021022
 31
0.0
  0
LINE
  5
115BA
  8
0
 10
4177.0555503865498395
 20
114.9276515162130039
 30
0.0
 11
4177.4689362133503892
 21
114.9455047088131039
 31
0.0
  0
LINE
  5
115BB
  8
0
 10
4177.0555556908502695
 20
114.891718632005194
 30
0.0
 11
4177.4689362133503892
 21
114.909534296913094
 31
0.0
  0
LINE
  5
115BC
  8
0
 10
4177.4699129214295681
 20
114.8741063712235047
 30
0.0
 11
4177.0555503865498395
 21
114.8561946506130056
 31
0.0
  0
LINE
  5
115BD
  8
0
 10
4177.086813620250723
 20
114.8745381035130038
 30
0.0
 11
4177.4689362133503892
 21
114.8917989086868943
 31
0.0
  0
LINE
  5
115BE
  8
0
 10
4177.0555556908502695
 20
114.8203009232714038
 30
0.0
 11
4177.4689362133503892
 21
114.8381080706130035
 31
0.0
  0
LINE
  5
115BF
  8
0
 10
4177.0555518013507026
 20
114.784818699113103
 30
0.0
 11
4177.4689362133503892
 21
114.8026711716129995
 31
0.0
  0
LINE
  5
115C0
  8
0
 10
4177.086736260649559
 20
114.8031094626129942
 30
0.0
 11
4177.4689362133503892
 21
114.820381854873304
 31
0.0
  0
LINE
  5
115C1
  8
0
 10
4177.0555520186489957
 20
114.7491071136131069
 30
0.0
 11
4177.4689362133503892
 21
114.7666959005129996
 31
0.0
  0
LINE
  5
115C2
  8
0
 10
4177.0868044405506225
 20
114.7317129177130965
 30
0.0
 11
4177.4689483647953239
 21
114.7489643712641936
 31
0.0
  0
LINE
  5
115C3
  8
0
 10
4177.0555556908502695
 20
114.7141251456575048
 30
0.0
 11
4177.4689363665502242
 21
114.7312447962131046
 31
0.0
  0
LINE
  5
115C4
  8
0
 10
4177.0555556908502695
 20
114.7141251456575048
 30
0.0
 11
4177.8823167358495994
 21
114.7141251456575048
 31
0.0
  0
LINE
  5
115C5
  8
0
 10
4177.0867977268489994
 20
115.0173672280131001
 30
0.0
 11
4177.0555556908502695
 21
115.0339923781129983
 31
0.0
  0
LINE
  5
115C6
  8
0
 10
4177.0867977268489994
 20
115.0173672280131001
 30
0.0
 11
4177.0555556908502695
 21
114.9998272596290008
 31
0.0
  0
LINE
  5
115C7
  8
0
 10
4177.0868044405506225
 20
114.7317129177130965
 30
0.0
 11
4177.0555556908502695
 21
114.7491072698587971
 31
0.0
  0
LINE
  5
115C8
  8
0
 10
4177.0868044405506225
 20
114.7317129177130965
 30
0.0
 11
4177.0555556908502695
 21
114.7141251456575048
 31
0.0
  0
LINE
  5
115C9
  8
0
 10
4177.086736260649559
 20
114.8031094626129942
 30
0.0
 11
4177.0555556908502695
 21
114.7848188670855052
 31
0.0
  0
LINE
  5
115CA
  8
0
 10
4177.0555556908502695
 20
114.8203009232714038
 30
0.0
 11
4177.086736260649559
 21
114.8031094626129942
 31
0.0
  0
LINE
  5
115CB
  8
0
 10
4177.086813620250723
 20
114.8745381035130038
 30
0.0
 11
4177.0555556908502695
 21
114.891718632005194
 31
0.0
  0
LINE
  5
115CC
  8
0
 10
4177.086813620250723
 20
114.8745381035130038
 30
0.0
 11
4177.0555556908502695
 21
114.8561948799029011
 31
0.0
  0
LINE
  5
115CD
  8
0
 10
4177.0555556908502695
 20
114.9625291940372023
 30
0.0
 11
4177.0857414623469595
 21
114.9453649699305942
 31
0.0
  0
LINE
  5
115CE
  8
0
 10
4177.0857414623469595
 20
114.9453649699305942
 30
0.0
 11
4177.0555556908502695
 21
114.9276517452937014
 31
0.0
  0
LINE
  5
115CF
  8
0
 10
4177.0555556908502695
 20
114.7141251456575048
 30
0.0
 11
4177.0949204653497873
 21
114.6740312961130002
 31
0.0
  0
LINE
  5
115D0
  8
0
 10
4177.8823167358495994
 20
114.9625291940372023
 30
0.0
 11
4177.8823167358495994
 21
114.9998272596290008
 31
0.0
  0
LINE
  5
115D1
  8
0
 10
4177.8823167358495994
 20
115.0339923781129983
 30
0.0
 11
4177.8823167358495994
 21
115.0671237593875986
 31
0.0
  0
LINE
  5
115D2
  8
0
 10
4177.8823167358495994
 20
114.9276517452937014
 30
0.0
 11
4177.8823167358495994
 21
114.891718632005194
 31
0.0
  0
LINE
  5
115D3
  8
0
 10
4177.8823167358495994
 20
114.8561948799029011
 30
0.0
 11
4177.8823167358495994
 21
114.8203009232714038
 31
0.0
  0
LINE
  5
115D4
  8
0
 10
4177.8823167358495994
 20
114.7848188670855052
 30
0.0
 11
4177.8823167358495994
 21
114.7491072698587971
 31
0.0
  0
LINE
  5
115D5
  8
0
 10
4177.8521309643529094
 20
114.9453649699305942
 30
0.0
 11
4177.4689362133503892
 21
114.9632165813438007
 31
0.0
  0
LINE
  5
115D6
  8
0
 10
4177.8823167358495994
 20
114.9625291940372023
 30
0.0
 11
4177.4689362133503892
 21
114.9809438504129986
 31
0.0
  0
LINE
  5
115D7
  8
0
 10
4177.8823167358495994
 20
114.9998272596290008
 30
0.0
 11
4177.4689362133503892
 21
115.0169143932129998
 31
0.0
  0
LINE
  5
115D8
  8
0
 10
4177.8823167358495994
 20
115.0339923781129983
 30
0.0
 11
4177.4689362133503892
 21
115.0523738366797062
 31
0.0
  0
LINE
  5
115D9
  8
0
 10
4177.8510563549507424
 20
115.0173751419131065
 30
0.0
 11
4177.4689309454943213
 21
115.0346336163021022
 31
0.0
  0
LINE
  5
115DA
  8
0
 10
4177.8823220401500294
 20
114.9276515162130039
 30
0.0
 11
4177.4689362133503892
 21
114.9455047088131039
 31
0.0
  0
LINE
  5
115DB
  8
0
 10
4177.8823167358495994
 20
114.891718632005194
 30
0.0
 11
4177.4689362133503892
 21
114.909534296913094
 31
0.0
  0
LINE
  5
115DC
  8
0
 10
4177.4679595052703007
 20
114.8741063712235047
 30
0.0
 11
4177.8823220401500294
 21
114.8561946506130056
 31
0.0
  0
LINE
  5
115DD
  8
0
 10
4177.8510588064491458
 20
114.8745381035130038
 30
0.0
 11
4177.4689362133503892
 21
114.8917989086868943
 31
0.0
  0
LINE
  5
115DE
  8
0
 10
4177.8823167358495994
 20
114.8203009232714038
 30
0.0
 11
4177.4689362133503892
 21
114.8381080706130035
 31
0.0
  0
LINE
  5
115DF
  8
0
 10
4177.8823206253491662
 20
114.784818699113103
 30
0.0
 11
4177.4689362133503892
 21
114.8026711716129995
 31
0.0
  0
LINE
  5
115E0
  8
0
 10
4177.8511361660503098
 20
114.8031094626129942
 30
0.0
 11
4177.4689362133503892
 21
114.820381854873304
 31
0.0
  0
LINE
  5
115E1
  8
0
 10
4177.8823204080499636
 20
114.7491071136131069
 30
0.0
 11
4177.4689362133503892
 21
114.7666959005129996
 31
0.0
  0
LINE
  5
115E2
  8
0
 10
4177.8510679861501558
 20
114.7317129177130965
 30
0.0
 11
4177.4689240619054544
 21
114.7489643712641936
 31
0.0
  0
LINE
  5
115E3
  8
0
 10
4177.8823167358495994
 20
114.7141251456575048
 30
0.0
 11
4177.4689360601496446
 21
114.7312447962131046
 31
0.0
  0
LINE
  5
115E4
  8
0
 10
4177.8510746998499599
 20
115.0173672280131001
 30
0.0
 11
4177.8823167358495994
 21
115.0339923781129983
 31
0.0
  0
LINE
  5
115E5
  8
0
 10
4177.8510746998499599
 20
115.0173672280131001
 30
0.0
 11
4177.8823167358495994
 21
114.9998272596290008
 31
0.0
  0
LINE
  5
115E6
  8
0
 10
4177.8510679861501558
 20
114.7317129177130965
 30
0.0
 11
4177.8823167358495994
 21
114.7491072698587971
 31
0.0
  0
LINE
  5
115E7
  8
0
 10
4177.8510679861501558
 20
114.7317129177130965
 30
0.0
 11
4177.8823167358495994
 21
114.7141251456575048
 31
0.0
  0
LINE
  5
115E8
  8
0
 10
4177.8511361660503098
 20
114.8031094626129942
 30
0.0
 11
4177.8823167358495994
 21
114.7848188670855052
 31
0.0
  0
LINE
  5
115E9
  8
0
 10
4177.8823167358495994
 20
114.8203009232714038
 30
0.0
 11
4177.8511361660503098
 21
114.8031094626129942
 31
0.0
  0
LINE
  5
115EA
  8
0
 10
4177.8510588064491458
 20
114.8745381035130038
 30
0.0
 11
4177.8823167358495994
 21
114.891718632005194
 31
0.0
  0
LINE
  5
115EB
  8
0
 10
4177.8510588064491458
 20
114.8745381035130038
 30
0.0
 11
4177.8823167358495994
 21
114.8561948799029011
 31
0.0
  0
LINE
  5
115EC
  8
0
 10
4177.8823167358495994
 20
114.9625291940372023
 30
0.0
 11
4177.8521309643529094
 21
114.9453649699305942
 31
0.0
  0
LINE
  5
115ED
  8
0
 10
4177.8521309643529094
 20
114.9453649699305942
 30
0.0
 11
4177.8823167358495994
 21
114.9276517452937014
 31
0.0
  0
LINE
  5
115EE
  8
0
 10
4177.8823167358495994
 20
114.7141251456575048
 30
0.0
 11
4177.8429519613500815
 21
114.6740312961130002
 31
0.0
  0
ENDSEC
  0
EOF
