  0
SECTION
  2
HEADER
  9
$ACADVER
  1
AC1009
  9
$INSBASE
 10
4183.4858996670036504
 20
120.9547946791984998
 30
0.0
  9
$EXTMIN
 10
4177.2593363987325574
 20
111.0962537038363962
 30
-0.0000000000112498
  9
$EXTMAX
 10
4189.9933253427188902
 20
120.9599223840858997
 30
0.0000000000002956
  9
$LIMMIN
 10
0.0
 20
0.0
  9
$LIMMAX
 10
11.6929133858000007
 20
8.2677165353999982
  9
$ORTHOMODE
 70
     0
  9
$REGENMODE
 70
     1
  9
$FILLMODE
 70
     1
  9
$QTEXTMODE
 70
     0
  9
$MIRRTEXT
 70
     0
  9
$DRAGMODE
 70
     2
  9
$LTSCALE
 40
0.6431102362
  9
$OSMODE
 70
  4095
  9
$ATTMODE
 70
     1
  9
$TEXTSIZE
 40
0.2
  9
$TRACEWID
 40
0.05
  9
$TEXTSTYLE
  7
STANDARD
  9
$CLAYER
  8
0
  9
$CELTYPE
  6
BYLAYER
  9
$CECOLOR
 62
   256
  9
$DIMSCALE
 40
1.0
  9
$DIMASZ
 40
0.1875
  9
$DIMEXO
 40
0.0625
  9
$DIMDLI
 40
0.4443307087
  9
$DIMRND
 40
0.0
  9
$DIMDLE
 40
0.0
  9
$DIMEXE
 40
0.125
  9
$DIMTP
 40
0.01
  9
$DIMTM
 40
0.01
  9
$DIMTXT
 40
2.0
  9
$DIMCEN
 40
0.1052362205
  9
$DIMTSZ
 40
0.0
  9
$DIMTOL
 70
     1
  9
$DIMLIM
 70
     0
  9
$DIMTIH
 70
     1
  9
$DIMTOH
 70
     1
  9
$DIMSE1
 70
     0
  9
$DIMSE2
 70
     0
  9
$DIMTAD
 70
     0
  9
$DIMZIN
 70
     0
  9
$DIMBLK
  1

  9
$DIMASO
 70
     1
  9
$DIMSHO
 70
     1
  9
$DIMPOST
  1
\X
  9
$DIMAPOST
  1

  9
$DIMALT
 70
     1
  9
$DIMALTD
 70
     2
  9
$DIMALTF
 40
25.3999999999999986
  9
$DIMLFAC
 40
1.0
  9
$DIMTOFL
 70
     0
  9
$DIMTVP
 40
0.0
  9
$DIMTIX
 70
     0
  9
$DIMSOXD
 70
     0
  9
$DIMSAH
 70
     0
  9
$DIMBLK1
  1

  9
$DIMBLK2
  1

  9
$DIMSTYLE
  2
STANDARD
  9
$DIMCLRD
 70
     0
  9
$DIMCLRE
 70
     0
  9
$DIMCLRT
 70
     0
  9
$DIMTFAC
 40
1.0
  9
$DIMGAP
 40
0.09
  9
$LUNITS
 70
     2
  9
$LUPREC
 70
     4
  9
$SKETCHINC
 40
0.1
  9
$FILLETRAD
 40
0.0
  9
$AUNITS
 70
     0
  9
$AUPREC
 70
     0
  9
$MENU
  1
.
  9
$ELEVATION
 40
0.0
  9
$PELEVATION
 40
0.0
  9
$THICKNESS
 40
0.0
  9
$LIMCHECK
 70
     0
  9
$BLIPMODE
 70
     0
  9
$CHAMFERA
 40
0.0
  9
$CHAMFERB
 40
0.0
  9
$SKPOLY
 70
     0
  9
$TDCREATE
 40
2458060.468368056230247
  9
$TDUPDATE
 40
2459531.4112384258769453
  9
$TDINDWG
 40
0.3926575231
  9
$TDUSRTIMER
 40
0.3926575231
  9
$USRTIMER
 70
     1
  9
$ANGBASE
 50
0.0
  9
$ANGDIR
 70
     0
  9
$PDMODE
 70
     0
  9
$PDSIZE
 40
0.3125
  9
$PLINEWID
 40
0.0
  9
$COORDS
 70
     1
  9
$SPLFRAME
 70
     0
  9
$SPLINETYPE
 70
     6
  9
$SPLINESEGS
 70
     8
  9
$ATTDIA
 70
     1
  9
$ATTREQ
 70
     1
  9
$HANDLING
 70
     1
  9
$HANDSEED
  5
11517
  9
$SURFTAB1
 70
     6
  9
$SURFTAB2
 70
     6
  9
$SURFTYPE
 70
     6
  9
$SURFU
 70
     6
  9
$SURFV
 70
     6
  9
$UCSNAME
  2

  9
$UCSORG
 10
0.0
 20
0.0
 30
0.0
  9
$UCSXDIR
 10
1.0
 20
0.0
 30
0.0
  9
$UCSYDIR
 10
0.0
 20
1.0
 30
0.0
  9
$PUCSNAME
  2

  9
$PUCSORG
 10
0.0
 20
0.0
 30
0.0
  9
$PUCSXDIR
 10
1.0
 20
0.0
 30
0.0
  9
$PUCSYDIR
 10
0.0
 20
1.0
 30
0.0
  9
$USERI1
 70
     0
  9
$USERI2
 70
     0
  9
$USERI3
 70
     0
  9
$USERI4
 70
     0
  9
$USERI5
 70
     0
  9
$USERR1
 40
0.0
  9
$USERR2
 40
0.0
  9
$USERR3
 40
0.0
  9
$USERR4
 40
0.0
  9
$USERR5
 40
0.0
  9
$WORLDVIEW
 70
     1
  9
$SHADEDGE
 70
     3
  9
$SHADEDIF
 70
    70
  9
$TILEMODE
 70
     1
  9
$MAXACTVP
 70
    64
  9
$PLIMCHECK
 70
     0
  9
$PEXTMIN
 10
1.0000000000000000E+20
 20
1.0000000000000000E+20
 30
1.0000000000000000E+20
  9
$PEXTMAX
 10
-1.0000000000000000E+20
 20
-1.0000000000000000E+20
 30
-1.0000000000000000E+20
  9
$PLIMMIN
 10
0.0
 20
0.0
  9
$PLIMMAX
 10
12.0
 20
9.0
  9
$UNITMODE
 70
     0
  9
$VISRETAIN
 70
     1
  9
$PLINEGEN
 70
     0
  9
$PSLTSCALE
 70
     1
  0
ENDSEC
  0
SECTION
  2
TABLES
  0
TABLE
  2
VPORT
 70
     1
  0
VPORT
  2
*ACTIVE
 70
     0
 10
0.0
 20
0.0
 11
1.0
 21
1.0
 12
-81.3800167855242762
 22
11.7240757453771796
 13
0.0
 23
0.0
 14
1.0
 24
1.0
 15
0.0
 25
0.0
 16
0.0
 26
0.0
 36
122.0237731519760018
 17
4265.00634765625
 27
104.3040122985839986
 37
0.0
 40
9.9418483527482095
 41
2.0410052910052912
 42
50.0
 43
0.0
 44
0.0
 50
0.0
 51
0.0
 71
     0
 72
   100
 73
     1
 74
     1
 75
     0
 76
     0
 77
     0
 78
     0
  0
ENDTAB
  0
TABLE
  2
LTYPE
 70
     2
  0
LTYPE
  2
CONTINUOUS
 70
     0
  3
Solid line
 72
    65
 73
     0
 40
0.0
  0
LTYPE
  2
PHANTOM2
 70
     0
  3
___ _ _ ___ _ _ ___ _ _ ___ _ _
 72
    65
 73
     6
 40
1.25
 49
0.625
 49
-0.125
 49
0.125
 49
-0.125
 49
0.125
 49
-0.125
  0
ENDTAB
  0
TABLE
  2
LAYER
 70
     2
  0
LAYER
  2
0
 70
     0
 62
   255
  6
CONTINUOUS
  0
LAYER
  2
DEFPOINTS
 70
     0
 62
     7
  6
CONTINUOUS
  0
ENDTAB
  0
TABLE
  2
STYLE
 70
     1
  0
STYLE
  2
STANDARD
 70
     0
 40
0.0
 41
0.8
 50
0.0
 71
     0
 42
0.2
  3
txt
  4

  0
ENDTAB
  0
TABLE
  2
VIEW
 70
     0
  0
ENDTAB
  0
TABLE
  2
UCS
 70
     0
  0
ENDTAB
  0
TABLE
  2
APPID
 70
     9
  0
APPID
  2
ACAD
 70
     0
  0
APPID
  2
ACAD_MLEADERVER
 70
     0
  0
APPID
  2
ACAD_EXEMPT_FROM_CAD_STANDARDS
 70
     0
  0
APPID
  2
ACAD_NAV_VCDISPLAY
 70
     0
  0
APPID
  2
ACAECLAYERSTANDARD
 70
     0
  0
APPID
  2
ACCMTRANSPARENCY
 70
     0
  0
APPID
  2
ACAD_DSTYLE_DIMJAG
 70
     0
  0
APPID
  2
ACAD_DSTYLE_DIMTALN
 70
     0
  0
APPID
  2
ACDBATTR
 70
     0
  0
ENDTAB
  0
TABLE
  2
DIMSTYLE
 70
     1
  0
DIMSTYLE
  2
STANDARD
 70
     0
  3

  4

  5

  6

  7

 40
1.0
 41
0.1875
 42
0.0625
 43
0.38
 44
0.125
 45
0.0
 46
0.0
 47
0.01
 48
0.01
140
0.15625
141
0.09
142
0.0
143
25.3999999999999986
144
1.0
145
0.0
146
1.0
147
0.09
 71
     1
 72
     0
 73
     1
 74
     1
 75
     0
 76
     0
 77
     0
 78
     4
170
     0
171
     2
172
     0
173
     0
174
     0
175
     0
176
     0
177
     0
178
     0
  0
ENDTAB
  0
ENDSEC
  0
SECTION
  2
BLOCKS
  0
BLOCK
  8
0
  2
$MODEL_SPACE
 70
     0
 10
0.0
 20
0.0
 30
0.0
  3
$MODEL_SPACE
  1

  0
ENDBLK
  5
21
  8
0
  0
BLOCK
 67
     1
  8
0
  2
$PAPER_SPACE
 70
     0
 10
0.0
 20
0.0
 30
0.0
  3
$PAPER_SPACE
  1

  0
ENDBLK
  5
1D
 67
     1
  8
0
  0
ENDSEC
  0
SECTION
  2
ENTITIES
  0
ATTDEF
  5
FDB2
  8
DEFPOINTS
 10
4183.480991444220308
 20
120.9530904075683964
 30
0.0
 40
0.001
  1
K-72287D
  3

  2
MODELNUMBER
 70
     0
1001
ACDBATTR
1070
     0
1070
     1
  0
ATTDEF
  5
FDB3
  8
DEFPOINTS
 10
4183.480991444220308
 20
120.9514237409017028
 30
0.0
 40
0.001
  1
ALEO
  3

  2
TRADENAME
 70
     0
1001
ACDBATTR
1070
     0
1070
     1
  0
ATTDEF
  5
FDB4
  8
DEFPOINTS
 10
4183.480991444220308
 20
120.9497570742350945
 30
0.0
 40
0.001
  1
BATH AND SHOWER FAUCET
  3

  2
PRODUCT
 70
     0
1001
ACDBATTR
1070
     0
1070
     1
  0
LINE
  5
1140F
  8
0
 10
4179.2748876782034131
 20
115.3606882656397943
 30
0.0
 11
4179.2748876782034131
 21
117.3291855999106019
 31
0.0
  0
LINE
  5
11410
  8
0
 10
4179.844170458903136
 20
117.5243242746751946
 30
0.0
 11
4179.844170458903136
 21
118.1181804952751975
 31
0.0
  0
LINE
  5
11411
  8
0
 10
4181.2221232148031049
 20
118.1181804952751975
 30
0.0
 11
4181.2221232148031049
 21
117.7828345006751931
 31
0.0
  0
LINE
  5
11412
  8
0
 10
4177.9127648501053045
 20
117.3003872166522967
 30
0.0
 11
4177.9041457089488176
 21
117.3071869939953018
 31
0.0
  0
LINE
  5
11413
  8
0
 10
4181.9437532249303331
 20
115.3631184312236968
 30
0.0
 11
4179.3418155552026292
 21
115.3614595730751944
 31
0.0
  0
LINE
  5
11414
  8
0
 10
4177.3063837393046924
 20
115.3801994623549945
 30
0.0
 11
4179.2748876782034131
 21
115.3606882656397943
 31
0.0
  0
LINE
  5
11415
  8
0
 10
4177.8974202562339997
 20
117.3091631334298057
 30
0.0
 11
4177.30638374170303
 21
117.304004859675203
 31
0.0
  0
ARC
  5
11416
  8
0
 10
4177.897615031116402
 20
117.297393482473197
 30
0.0
 40
0.0117712625021447
 50
56.3031684505444971
 51
90.9480960960040363
  0
LINE
  5
11417
  8
0
 10
4179.2748876782034131
 20
117.3291855999106019
 30
0.0
 11
4178.4055853799036413
 21
117.3153010046752058
 31
0.0
  0
LINE
  5
11418
  8
0
 10
4179.6473252599307671
 20
117.3300394448119022
 30
0.0
 11
4179.3418167691033887
 21
117.3286081157777971
 31
0.0
  0
LINE
  5
11419
  8
0
 10
4181.2221232148031049
 20
118.1181804952751975
 30
0.0
 11
4179.844170458903136
 21
118.1181804952751975
 31
0.0
  0
ARC
  5
1141A
  8
0
 10
4179.8641854297229656
 20
118.1378804952751977
 30
0.0
 40
0.0197
 50
180.0123851690285903
 51
270.0
  0
ARC
  5
1141B
  8
0
 10
4178.1160100223096379
 20
108.6070273528494994
 30
0.0
 40
8.6909687578981476
 50
90.0410985591533546
 51
91.0562080536111864
  0
ARC
  5
1141C
  8
0
 10
4179.3087467566338091
 20
16.8867853322954389
 30
0.0
 40
100.4183665072638973
 50
90.5539973990193943
 51
90.6841138916592655
  0
ARC
  5
1141D
  8
0
 10
4179.6251695186219877
 20
117.5630846790041062
 30
0.0
 40
0.23409604450443
 50
275.4308191968216875
 51
288.935250384464382
  0
ARC
  5
1141E
  8
0
 10
4177.3065629787843136
 20
115.3998911427010938
 30
0.0
 40
0.0196924960745237
 50
181.1038441862656043
 51
269.4784913314661026
  0
ARC
  5
1141F
  8
0
 10
4177.3065625442413875
 20
117.284313609981993
 30
0.0
 40
0.019692061467178
 50
90.5202488091011759
 51
178.8961532244906039
  0
LINE
  5
11420
  8
0
 10
4178.3980146571038858
 20
117.3123704997252048
 30
0.0
 11
4178.3902741707688619
 21
117.3056579220319975
 31
0.0
  0
ARC
  5
11421
  8
0
 10
4178.3394072020118983
 20
117.5773510188092956
 30
0.0
 40
0.2768978670003965
 50
269.6692566263690196
 51
279.1586335064146738
  0
ARC
  5
11422
  8
0
 10
4178.3762925817663927
 20
117.3477582019540932
 30
0.0
 40
0.0443612263197065
 50
279.3249741814427125
 51
288.3714324593246943
  0
ARC
  5
11423
  8
0
 10
4177.9521978668053634
 20
117.4977851362639001
 30
0.0
 40
0.2012980414040378
 50
258.7030646345540958
 51
271.0273568539890903
  0
ARC
  5
11424
  8
0
 10
4179.6234929562251637
 20
117.5497885255546038
 30
0.0
 40
0.2221418201536181
 50
290.4572940437507782
 51
353.4176807169637868
  0
ARC
  5
11425
  8
0
 10
4181.4609112113521405
 20
117.7983241315864973
 30
0.0
 40
0.2392898576227565
 50
183.7114462347313975
 51
259.7494303381131999
  0
ARC
  5
11426
  8
0
 10
4180.4681061670980853
 20
117.9387742495155038
 30
0.0
 40
1.021880306116363
 50
216.5625989209576971
 51
338.4155923483738206
  0
ARC
  5
11427
  8
0
 10
4181.9008835474023726
 20
113.3025403414034002
 30
0.0
 40
2.061023986638407
 50
81.6877789068626043
 51
88.8081513087071244
  0
ARC
  5
11428
  8
0
 10
4182.151549569080089
 20
114.9790494296211989
 30
0.0
 40
0.3659324107539239
 50
56.3229816576046076
 51
82.5747227565987032
  0
ARC
  5
11429
  8
0
 10
4182.1246308404288357
 20
115.0288332386162011
 30
0.0
 40
0.3430940803056038
 50
18.3459413074152984
 51
47.9421294759295691
  0
ARC
  5
1142A
  8
0
 10
4181.0426483123192156
 20
114.6074890446867016
 30
0.0
 40
1.5038751273330371
 50
14.4020196923202999
 51
20.6084822612876088
  0
ARC
  5
1142B
  8
0
 10
4178.8893466073759555
 20
114.1217496749842013
 30
0.0
 40
3.7108941972454939
 50
1.1397453260584069
 51
13.3967827929634407
  0
ARC
  5
1142C
  8
0
 10
4087.7076298506108287
 20
100.4117089492335992
 30
0.0
 40
95.6897728971707267
 50
6.6823717824277127
 51
6.8844745468275841
  0
ARC
  5
1142D
  8
0
 10
4183.2503434877116888
 20
111.6072811565113057
 30
0.0
 40
0.5066485227153282
 50
186.8714199588316944
 51
217.5266984231656977
  0
ARC
  5
1142E
  8
0
 10
4183.2235026437301713
 20
111.6166535414978966
 30
0.0
 40
0.491646432959888
 50
220.2993645884139937
 51
255.9268898584749081
  0
ARC
  5
1142F
  8
0
 10
4183.3841133707155677
 20
112.1175865743677065
 30
0.0
 40
1.017166505544314
 50
254.0122881953680007
 51
267.2203757895458125
  0
ARC
  5
11430
  8
0
 10
4183.4859011669695974
 20
113.4015131037082966
 30
0.0
 40
2.3048554430331518
 50
266.2407803242671775
 51
269.9999627126970836
  0
ARC
  5
11431
  8
0
 10
4178.405820941865386
 20
117.3034480215224988
 30
0.0
 40
0.0118553236588855
 50
91.1385260203015548
 51
131.1827111495643123
  0
CIRCLE
  5
11432
  8
0
 10
4179.156777442002749
 20
116.3449369327751981
 30
0.0
 40
0.0393700786999993
  0
LINE
  5
11433
  8
0
 10
4177.9247091273027763
 20
117.4356604917751952
 30
0.0
 11
4177.9235192551423097
 21
117.2985404658053028
 31
0.0
  0
LINE
  5
11434
  8
0
 10
4178.378688359903208
 20
117.4356604919751987
 30
0.0
 11
4178.379835885407374
 21
117.3034204613529994
 31
0.0
  0
LINE
  5
11435
  8
0
 10
4177.9444015967774249
 20
117.4551731090736979
 30
0.0
 11
4178.3589958966549602
 21
117.4551731090735984
 31
0.0
  0
ARC
  5
11436
  8
0
 10
4178.3589896609146308
 20
117.4354735237970999
 30
0.0
 40
0.019699586263428
 50
0.5438006766546023
 51
89.9818635190624434
  0
ARC
  5
11437
  8
0
 10
4177.9444064657536728
 20
117.4354748968765989
 30
0.0
 40
0.0196982127988915
 50
90.0141622902496579
 51
179.4601560133320959
  0
LINE
  5
11438
  8
0
 10
4179.2748876782034131
 20
115.4787952004752043
 30
0.0
 11
4179.3221301650337409
 21
115.4787952004752043
 31
0.0
  0
LINE
  5
11439
  8
0
 10
4179.2748876782034131
 20
117.2110786650752061
 30
0.0
 11
4179.3221316868020949
 21
117.2110786650752061
 31
0.0
  0
LINE
  5
1143A
  8
0
 10
4179.32213177270296
 20
117.3088624465752048
 30
0.0
 11
4179.3221300792038164
 21
115.3810910858751981
 31
0.0
  0
ARC
  5
1143B
  8
0
 10
4179.3417272882588804
 20
115.3810566136703954
 30
0.0
 40
0.0195972393755371
 50
179.8992147399922885
 51
270.2580639205382909
  0
ARC
  5
1143C
  8
0
 10
4179.3418728314072723
 20
117.3088671361227995
 30
0.0
 40
0.019741059260368
 50
90.1627135434092679
 51
180.0136107836964072
  0
ARC
  5
1143D
  8
0
 10
4193.7491695211911065
 20
-1182.050254471909966
 30
0.0
 40
1299.6716047896650252
 50
90.4524590337518504
 51
90.5436109624416758
  0
LINE
  5
1143E
  8
0
 10
4181.8037354521547968
 20
117.5806201093914041
 30
0.0
 11
4181.8037354521547968
 21
117.5664639459539984
 31
0.0
  0
LINE
  5
1143F
  8
0
 10
4182.0399536296536098
 20
117.5799948021913934
 30
0.0
 11
4182.0399536296536098
 21
117.5686029473527014
 31
0.0
  0
ARC
  5
11440
  8
0
 10
4181.9192093671499606
 20
116.5848352436388069
 30
0.0
 40
1.0024578414608429
 50
83.0820286815357747
 51
96.6146298893782358
  0
CIRCLE
  5
11441
  8
0
 10
4183.4858995911026796
 20
115.8991792716751945
 30
0.0
 40
0.3090551180999999
  0
CIRCLE
  5
11442
  8
0
 10
4183.4858995911026796
 20
115.8991792716751945
 30
0.0
 40
0.3346456693000004
  0
LINE
  5
11443
  8
0
 10
4177.2868741372058139
 20
117.2846929690565929
 30
0.0
 11
4177.2868741372058139
 21
115.3995117761437967
 31
0.0
  0
LINE
  5
11444
  8
0
 10
4182.7074659924410298
 20
111.8818340635238968
 30
0.0
 11
4182.5995066211025915
 21
114.1955630591751998
 31
0.0
  0
LINE
  5
11445
  8
0
 10
4179.8444854301833402
 20
118.1378762368841961
 30
0.0
 11
4179.844378628053164
 21
118.6319600230751945
 31
0.0
  0
ARC
  5
11446
  8
0
 10
4176.3809699753746827
 20
118.697373245796399
 30
0.0
 40
3.4640708579593849
 50
358.9180000889717235
 51
12.8841205292642602
  0
ARC
  5
11447
  8
0
 10
4180.5336000401466663
 20
120.0099788695120964
 30
0.0
 40
0.9453187834668796
 50
170.4290672302076075
 51
214.8502815101043097
  0
ARC
  5
11448
  8
0
 10
4180.5330051572018419
 20
120.0100791760286967
 30
0.0
 40
0.944715503169821
 50
89.9914073114150739
 51
170.4290672302076075
  0
ARC
  5
11449
  8
0
 10
4181.2021082439832753
 20
118.1378804952751977
 30
0.0
 40
0.0197
 50
270.0
 51
359.9876148309713244
  0
LINE
  5
1144A
  8
0
 10
4181.2218082435229007
 20
118.1378762368841961
 30
0.0
 11
4181.221915045653077
 21
118.6319600230751945
 31
0.0
  0
ARC
  5
1144B
  8
0
 10
4184.6853236983306488
 20
118.6973732457962996
 30
0.0
 40
3.4640708579594182
 50
167.115879470735706
 51
181.0819999110281913
  0
ARC
  5
1144C
  8
0
 10
4180.5326936335586652
 20
120.0099788695120964
 30
0.0
 40
0.9453187834668796
 50
325.1497184898955766
 51
9.5709327697924387
  0
ARC
  5
1144D
  8
0
 10
4180.5332885165053085
 20
120.0100791760286967
 30
0.0
 40
0.944715503169821
 50
9.5709327697924387
 51
90.0085926885849261
  0
LINE
  5
1144E
  8
0
 10
4179.322130926079808
 20
116.3451211515751993
 30
0.0
 11
4187.6496684079265833
 21
116.3451211515751993
 31
0.0
  0
ARC
  5
1144F
  8
0
 10
4181.3417837939196033
 20
115.2019484854419034
 30
0.0
 40
1.2052728739009191
 50
3.6590189776672659
 51
71.5275694798185242
  0
ARC
  5
11450
  8
0
 10
4141.6022248510289501
 20
112.6606479041939934
 30
0.0
 40
41.0260055846352572
 50
2.1441197397607219
 51
3.6590189776672659
  0
LINE
  5
11451
  8
0
 10
4187.6969115039037206
 20
115.3606882656397943
 30
0.0
 11
4187.6969115039037206
 21
117.3291855999106019
 31
0.0
  0
LINE
  5
11452
  8
0
 10
4187.1276288751041648
 20
117.5243242746751946
 30
0.0
 11
4187.1276288751041648
 21
118.1181804952751975
 31
0.0
  0
LINE
  5
11453
  8
0
 10
4185.7496761192041959
 20
118.1181804952751975
 30
0.0
 11
4185.7496761192041959
 21
117.7828345006751931
 31
0.0
  0
LINE
  5
11454
  8
0
 10
4189.0590344839029058
 20
117.3003872166522967
 30
0.0
 11
4189.0676536250566642
 21
117.3071869939953018
 31
0.0
  0
LINE
  5
11455
  8
0
 10
4185.0280461090778772
 20
115.3631184312236968
 30
0.0
 11
4187.6299837788037621
 21
115.3614595730751944
 31
0.0
  0
LINE
  5
11456
  8
0
 10
4189.6654155947016989
 20
115.3801994623549945
 30
0.0
 11
4187.6969115039037206
 21
115.3606882656397943
 31
0.0
  0
LINE
  5
11457
  8
0
 10
4189.0743790777733011
 20
117.3091631334298057
 30
0.0
 11
4189.6654155923042708
 21
117.304004859675203
 31
0.0
  0
ARC
  5
11458
  8
0
 10
4189.0741843028908988
 20
117.297393482473197
 30
0.0
 40
0.0117712625021447
 50
89.0519039039959779
 51
123.6968315494554957
  0
LINE
  5
11459
  8
0
 10
4187.6969115039037206
 20
117.3291855999106019
 30
0.0
 11
4188.5662139541036595
 21
117.3153010046752058
 31
0.0
  0
LINE
  5
1145A
  8
0
 10
4187.3244740740774432
 20
117.3300394448119022
 30
0.0
 11
4187.6299825649048216
 21
117.3286081157777971
 31
0.0
  0
LINE
  5
1145B
  8
0
 10
4185.7496761192041959
 20
118.1181804952751975
 30
0.0
 11
4187.1276288751041648
 21
118.1181804952751975
 31
0.0
  0
ARC
  5
1145C
  8
0
 10
4187.1076139042834257
 20
118.1378804952751977
 30
0.0
 40
0.0197
 50
270.0
 51
359.9876148309713244
  0
ARC
  5
1145D
  8
0
 10
4188.8557893116967534
 20
108.6070273528494994
 30
0.0
 40
8.6909687578981476
 50
88.9437919463888562
 51
89.9589014408466454
  0
ARC
  5
1145E
  8
0
 10
4187.6630525773725822
 20
16.8867853322954389
 30
0.0
 40
100.4183665072638973
 50
89.3158861083407345
 51
89.4460026009805915
  0
ARC
  5
1145F
  8
0
 10
4187.3466298153844036
 20
117.5630846790041062
 30
0.0
 40
0.23409604450443
 50
251.0647496155355896
 51
264.5691808031783125
  0
ARC
  5
11460
  8
0
 10
4189.6652337872510543
 20
115.3998973072555003
 30
0.0
 40
0.0196986839071558
 50
270.5288143857674754
 51
358.8785689388316769
  0
ARC
  5
11461
  8
0
 10
4189.6652342219613274
 20
117.2843074455382038
 30
0.0
 40
0.0196982491325419
 50
1.121433725568199
 51
89.4724453949348373
  0
LINE
  5
11462
  8
0
 10
4188.5737846769043244
 20
117.3123704997252048
 30
0.0
 11
4188.5815251632366198
 21
117.3056579220319975
 31
0.0
  0
ARC
  5
11463
  8
0
 10
4188.6323921319954025
 20
117.5773510188092956
 30
0.0
 40
0.2768978670003965
 50
260.8413664935853262
 51
270.3307433736309804
  0
ARC
  5
11464
  8
0
 10
4188.5955067522418176
 20
117.3477582019540932
 30
0.0
 40
0.0443612263197065
 50
251.6285675406753057
 51
260.6750258185572875
  0
ARC
  5
11465
  8
0
 10
4189.0196014672019373
 20
117.4977851362639001
 30
0.0
 40
0.2012980414040378
 50
268.972643146010796
 51
281.2969353654457905
  0
ARC
  5
11466
  8
0
 10
4187.3483063777812276
 20
117.5497885255546038
 30
0.0
 40
0.2221418201536181
 50
186.5823192830353889
 51
249.5427059562491934
  0
ARC
  5
11467
  8
0
 10
4185.5108881226560698
 20
117.7983241315864973
 30
0.0
 40
0.2392898576227565
 50
280.2505696618866864
 51
356.2885537652684889
  0
ARC
  5
11468
  8
0
 10
4186.503693166910125
 20
117.9387742495155038
 30
0.0
 40
1.021880306116363
 50
201.5844076516262078
 51
323.4374010790422744
  0
ARC
  5
11469
  8
0
 10
4185.0709157866058376
 20
113.3025403414034002
 30
0.0
 40
2.061023986638407
 50
91.1918486912928614
 51
98.3122210931373957
  0
ARC
  5
1146A
  8
0
 10
4184.8202497649281213
 20
114.9790494296211989
 30
0.0
 40
0.3659324107539239
 50
97.4252772434012968
 51
123.6770183423953995
  0
ARC
  5
1146B
  8
0
 10
4184.8471684935775556
 20
115.0288332386162011
 30
0.0
 40
0.3430940803056038
 50
132.0578705240704096
 51
161.6540586925846981
  0
ARC
  5
1146C
  8
0
 10
4185.9291510216880852
 20
114.6074890446867016
 30
0.0
 40
1.5038751273330371
 50
159.3915177387123947
 51
165.5979803076797054
  0
ARC
  5
1146D
  8
0
 10
4188.0824527266313453
 20
114.1217496749842013
 30
0.0
 40
3.7108941972454939
 50
166.6032172070366073
 51
178.860254673941597
  0
ARC
  5
1146E
  8
0
 10
4279.2641694833955626
 20
100.4117089492335992
 30
0.0
 40
95.6897728971707267
 50
173.1155254531724097
 51
173.3176282175722918
  0
ARC
  5
1146F
  8
0
 10
4183.7214558462947025
 20
111.6072811565113057
 30
0.0
 40
0.5066485227153282
 50
322.473301576834217
 51
353.1285800411683908
  0
ARC
  5
11470
  8
0
 10
4183.74829669027622
 20
111.6166535414978966
 30
0.0
 40
0.491646432959888
 50
284.0731101415250919
 51
319.70063541158612
  0
ARC
  5
11471
  8
0
 10
4183.5876859632908236
 20
112.1175865743677065
 30
0.0
 40
1.017166505544314
 50
272.7796242104541875
 51
285.9877118046319993
  0
ARC
  5
11472
  8
0
 10
4183.4858981670367939
 20
113.4015131037082966
 30
0.0
 40
2.3048554430331518
 50
270.0000372873029164
 51
273.7592196757328225
  0
ARC
  5
11473
  8
0
 10
4188.5659783921419148
 20
117.3034480215224988
 30
0.0
 40
0.0118553236588855
 50
48.8172888504357516
 51
88.8614739796984452
  0
CIRCLE
  5
11474
  8
0
 10
4187.8150218920045518
 20
116.3449369327751981
 30
0.0
 40
0.0393700786999993
  0
LINE
  5
11475
  8
0
 10
4189.047090206703615
 20
117.4356604917751952
 30
0.0
 11
4189.0482800788659006
 21
117.2985404658053028
 31
0.0
  0
LINE
  5
11476
  8
0
 10
4188.5931109741040927
 20
117.4356604919751987
 30
0.0
 11
4188.5919634485999268
 21
117.3034204613529994
 31
0.0
  0
LINE
  5
11477
  8
0
 10
4189.0273977372298759
 20
117.4551731090736979
 30
0.0
 11
4188.61280343735325
 21
117.4551731090735984
 31
0.0
  0
ARC
  5
11478
  8
0
 10
4188.61280967309267
 20
117.4354735237970999
 30
0.0
 40
0.019699586263428
 50
90.0181364809375566
 51
179.4561993233454018
  0
ARC
  5
11479
  8
0
 10
4189.027392868253628
 20
117.4354748968765989
 30
0.0
 40
0.0196982127988915
 50
0.5398439866678566
 51
89.9858377097503563
  0
LINE
  5
1147A
  8
0
 10
4187.6969115039037206
 20
115.4787952004752043
 30
0.0
 11
4187.6496719093556749
 21
115.4787952004752043
 31
0.0
  0
LINE
  5
1147B
  8
0
 10
4187.6969115039037206
 20
117.2110786650752061
 30
0.0
 11
4187.6496719093556749
 21
117.2110786650752061
 31
0.0
  0
LINE
  5
1147C
  8
0
 10
4187.6496719093556749
 20
117.3088624465752048
 30
0.0
 11
4187.6496719093556749
 21
115.3810910858751981
 31
0.0
  0
ARC
  5
1147D
  8
0
 10
4187.6300701945247056
 20
115.3810611203250005
 30
0.0
 40
0.0196017377357674
 50
269.747406469973896
 51
0.0875891847459399
  0
ARC
  5
1147E
  8
0
 10
4187.6299234020943913
 20
117.308859696944495
 30
0.0
 40
0.0197485074538445
 50
0.007977424946417
 51
89.8283523744201631
  0
ARC
  5
1147F
  8
0
 10
4173.2226298128171038
 20
-1182.050254471909966
 30
0.0
 40
1299.6716047896650252
 50
89.4563890375583242
 51
89.5475409662481638
  0
LINE
  5
11480
  8
0
 10
4185.1680638818515945
 20
117.5806201093914041
 30
0.0
 11
4185.1680638818515945
 21
117.5664639459539984
 31
0.0
  0
LINE
  5
11481
  8
0
 10
4184.9318457043527815
 20
117.5799948021913934
 30
0.0
 11
4184.9318457043527815
 21
117.5686029473527014
 31
0.0
  0
ARC
  5
11482
  8
0
 10
4185.0525899668573402
 20
116.5848352436388069
 30
0.0
 40
1.0024578414608429
 50
83.38537011062175
 51
96.9179713184642537
  0
CIRCLE
  5
11483
  8
0
 10
4183.4858997429037117
 20
115.8991792716751945
 30
0.0
 40
0.3090551180999999
  0
CIRCLE
  5
11484
  8
0
 10
4183.4858997429037117
 20
115.8991792716751945
 30
0.0
 40
0.3346456693000004
  0
LINE
  5
11485
  8
0
 10
4189.6849286981032492
 20
117.2846929690565929
 30
0.0
 11
4189.6849286981032492
 21
115.3995117761437967
 31
0.0
  0
LINE
  5
11486
  8
0
 10
4184.264333341566271
 20
111.8818340635238968
 30
0.0
 11
4184.3722927129028903
 21
114.1955630591751998
 31
0.0
  0
LINE
  5
11487
  8
0
 10
4187.1273139038239606
 20
118.1378762368841961
 30
0.0
 11
4187.1274207059541368
 21
118.6319600230751945
 31
0.0
  0
ARC
  5
11488
  8
0
 10
4190.5908293586317086
 20
118.697373245796399
 30
0.0
 40
3.4640708579593849
 50
167.115879470735706
 51
181.0819999110281913
  0
ARC
  5
11489
  8
0
 10
4186.4381992938588155
 20
120.0099788695120964
 30
0.0
 40
0.9453187834668796
 50
325.1497184898955766
 51
9.5709327697924387
  0
ARC
  5
1148A
  8
0
 10
4186.4387941768063683
 20
120.0100791760286967
 30
0.0
 40
0.944715503169821
 50
9.5709327697924387
 51
90.0085926885849261
  0
ARC
  5
1148B
  8
0
 10
4185.769691090023116
 20
118.1378804952751977
 30
0.0
 40
0.0197
 50
180.0123851690285903
 51
270.0
  0
LINE
  5
1148C
  8
0
 10
4185.7499910904844
 20
118.1378762368841961
 30
0.0
 11
4185.7498842883542238
 21
118.6319600230751945
 31
0.0
  0
ARC
  5
1148D
  8
0
 10
4182.286475635676652
 20
118.6973732457962996
 30
0.0
 40
3.4640708579594182
 50
358.9180000889717235
 51
12.8841205292642602
  0
ARC
  5
1148E
  8
0
 10
4186.4391057004486356
 20
120.0099788695120964
 30
0.0
 40
0.9453187834668796
 50
170.4290672302076075
 51
214.8502815101043097
  0
ARC
  5
1148F
  8
0
 10
4186.4385108175010828
 20
120.0100791760286967
 30
0.0
 40
0.944715503169821
 50
89.9914073114150739
 51
170.4290672302076075
  0
ARC
  5
11490
  8
0
 10
4185.6300155400876974
 20
115.2019484854419034
 30
0.0
 40
1.2052728739009191
 50
108.4724305201814047
 51
176.3409810223326986
  0
ARC
  5
11491
  8
0
 10
4225.3695744829792602
 20
112.6606479041939934
 30
0.0
 40
41.0260055846352572
 50
176.3409810223326986
 51
177.855880260239303
  0
ENDSEC
  0
EOF
