  0
SECTION
  2
HEADER
  9
$ACADVER
  1
AC1009
  9
$INSBASE
 10
4182.6558110660116654
 20
116.948452325102906
 30
0.0
  9
$EXTMIN
 10
4176.3008009117729671
 20
114.1867770231241934
 30
-0.0000000000112498
  9
$EXTMAX
 10
4189.0386631357414444
 20
118.5154566520790951
 30
0.0000000000002956
  9
$LIMMIN
 10
0.0
 20
0.0
  9
$LIMMAX
 10
11.6929133858000007
 20
8.2677165353999982
  9
$ORTHOMODE
 70
     0
  9
$REGENMODE
 70
     1
  9
$FILLMODE
 70
     1
  9
$QTEXTMODE
 70
     0
  9
$MIRRTEXT
 70
     0
  9
$DRAGMODE
 70
     2
  9
$LTSCALE
 40
0.6431102362
  9
$OSMODE
 70
  4095
  9
$ATTMODE
 70
     1
  9
$TEXTSIZE
 40
0.2
  9
$TRACEWID
 40
0.05
  9
$TEXTSTYLE
  7
STANDARD
  9
$CLAYER
  8
0
  9
$CELTYPE
  6
BYLAYER
  9
$CECOLOR
 62
   256
  9
$DIMSCALE
 40
1.0
  9
$DIMASZ
 40
0.1875
  9
$DIMEXO
 40
0.0625
  9
$DIMDLI
 40
0.4443307087
  9
$DIMRND
 40
0.0
  9
$DIMDLE
 40
0.0
  9
$DIMEXE
 40
0.125
  9
$DIMTP
 40
0.01
  9
$DIMTM
 40
0.01
  9
$DIMTXT
 40
2.0
  9
$DIMCEN
 40
0.1052362205
  9
$DIMTSZ
 40
0.0
  9
$DIMTOL
 70
     1
  9
$DIMLIM
 70
     0
  9
$DIMTIH
 70
     1
  9
$DIMTOH
 70
     1
  9
$DIMSE1
 70
     0
  9
$DIMSE2
 70
     0
  9
$DIMTAD
 70
     0
  9
$DIMZIN
 70
     0
  9
$DIMBLK
  1

  9
$DIMASO
 70
     1
  9
$DIMSHO
 70
     1
  9
$DIMPOST
  1
\X
  9
$DIMAPOST
  1

  9
$DIMALT
 70
     1
  9
$DIMALTD
 70
     2
  9
$DIMALTF
 40
25.3999999999999986
  9
$DIMLFAC
 40
1.0
  9
$DIMTOFL
 70
     0
  9
$DIMTVP
 40
0.0
  9
$DIMTIX
 70
     0
  9
$DIMSOXD
 70
     0
  9
$DIMSAH
 70
     0
  9
$DIMBLK1
  1

  9
$DIMBLK2
  1

  9
$DIMSTYLE
  2
STANDARD
  9
$DIMCLRD
 70
     0
  9
$DIMCLRE
 70
     0
  9
$DIMCLRT
 70
     0
  9
$DIMTFAC
 40
1.0
  9
$DIMGAP
 40
0.09
  9
$LUNITS
 70
     2
  9
$LUPREC
 70
     4
  9
$SKETCHINC
 40
0.1
  9
$FILLETRAD
 40
0.0
  9
$AUNITS
 70
     0
  9
$AUPREC
 70
     0
  9
$MENU
  1
.
  9
$ELEVATION
 40
0.0
  9
$PELEVATION
 40
0.0
  9
$THICKNESS
 40
0.0
  9
$LIMCHECK
 70
     0
  9
$BLIPMODE
 70
     0
  9
$CHAMFERA
 40
0.0
  9
$CHAMFERB
 40
0.0
  9
$SKPOLY
 70
     0
  9
$TDCREATE
 40
2458060.468368056230247
  9
$TDUPDATE
 40
2459531.411134259775281
  9
$TDINDWG
 40
0.3925880787
  9
$TDUSRTIMER
 40
0.3925880787
  9
$USRTIMER
 70
     1
  9
$ANGBASE
 50
0.0
  9
$ANGDIR
 70
     0
  9
$PDMODE
 70
     0
  9
$PDSIZE
 40
0.3125
  9
$PLINEWID
 40
0.0
  9
$COORDS
 70
     1
  9
$SPLFRAME
 70
     0
  9
$SPLINETYPE
 70
     6
  9
$SPLINESEGS
 70
     8
  9
$ATTDIA
 70
     1
  9
$ATTREQ
 70
     1
  9
$HANDLING
 70
     1
  9
$HANDSEED
  5
11C7B
  9
$SURFTAB1
 70
     6
  9
$SURFTAB2
 70
     6
  9
$SURFTYPE
 70
     6
  9
$SURFU
 70
     6
  9
$SURFV
 70
     6
  9
$UCSNAME
  2

  9
$UCSORG
 10
0.0
 20
0.0
 30
0.0
  9
$UCSXDIR
 10
1.0
 20
0.0
 30
0.0
  9
$UCSYDIR
 10
0.0
 20
1.0
 30
0.0
  9
$PUCSNAME
  2

  9
$PUCSORG
 10
0.0
 20
0.0
 30
0.0
  9
$PUCSXDIR
 10
1.0
 20
0.0
 30
0.0
  9
$PUCSYDIR
 10
0.0
 20
1.0
 30
0.0
  9
$USERI1
 70
     0
  9
$USERI2
 70
     0
  9
$USERI3
 70
     0
  9
$USERI4
 70
     0
  9
$USERI5
 70
     0
  9
$USERR1
 40
0.0
  9
$USERR2
 40
0.0
  9
$USERR3
 40
0.0
  9
$USERR4
 40
0.0
  9
$USERR5
 40
0.0
  9
$WORLDVIEW
 70
     1
  9
$SHADEDGE
 70
     3
  9
$SHADEDIF
 70
    70
  9
$TILEMODE
 70
     1
  9
$MAXACTVP
 70
    64
  9
$PLIMCHECK
 70
     0
  9
$PEXTMIN
 10
1.0000000000000000E+20
 20
1.0000000000000000E+20
 30
1.0000000000000000E+20
  9
$PEXTMAX
 10
-1.0000000000000000E+20
 20
-1.0000000000000000E+20
 30
-1.0000000000000000E+20
  9
$PLIMMIN
 10
0.0
 20
0.0
  9
$PLIMMAX
 10
12.0
 20
9.0
  9
$UNITMODE
 70
     0
  9
$VISRETAIN
 70
     1
  9
$PLINEGEN
 70
     0
  9
$PSLTSCALE
 70
     1
  0
ENDSEC
  0
SECTION
  2
TABLES
  0
TABLE
  2
VPORT
 70
     1
  0
VPORT
  2
*ACTIVE
 70
     0
 10
0.0
 20
0.0
 11
1.0
 21
1.0
 12
-82.3366156324927942
 22
12.0471045390176794
 13
0.0
 23
0.0
 14
1.0
 24
1.0
 15
0.0
 25
0.0
 16
0.0
 26
0.0
 36
122.0237731519760018
 17
4265.00634765625
 27
104.3040122985839986
 37
0.0
 40
6.2652107731284961
 41
2.0410052910052912
 42
50.0
 43
0.0
 44
0.0
 50
0.0
 51
0.0
 71
     0
 72
   100
 73
     1
 74
     1
 75
     0
 76
     0
 77
     0
 78
     0
  0
ENDTAB
  0
TABLE
  2
LTYPE
 70
     2
  0
LTYPE
  2
CONTINUOUS
 70
     0
  3
Solid line
 72
    65
 73
     0
 40
0.0
  0
LTYPE
  2
PHANTOM2
 70
     0
  3
___ _ _ ___ _ _ ___ _ _ ___ _ _
 72
    65
 73
     6
 40
1.25
 49
0.625
 49
-0.125
 49
0.125
 49
-0.125
 49
0.125
 49
-0.125
  0
ENDTAB
  0
TABLE
  2
LAYER
 70
     2
  0
LAYER
  2
0
 70
     0
 62
   255
  6
CONTINUOUS
  0
LAYER
  2
DEFPOINTS
 70
     0
 62
     7
  6
CONTINUOUS
  0
ENDTAB
  0
TABLE
  2
STYLE
 70
     1
  0
STYLE
  2
STANDARD
 70
     0
 40
0.0
 41
0.8
 50
0.0
 71
     0
 42
0.2
  3
txt
  4

  0
ENDTAB
  0
TABLE
  2
VIEW
 70
     0
  0
ENDTAB
  0
TABLE
  2
UCS
 70
     0
  0
ENDTAB
  0
TABLE
  2
APPID
 70
     9
  0
APPID
  2
ACAD
 70
     0
  0
APPID
  2
ACAD_MLEADERVER
 70
     0
  0
APPID
  2
ACAD_EXEMPT_FROM_CAD_STANDARDS
 70
     0
  0
APPID
  2
ACAD_NAV_VCDISPLAY
 70
     0
  0
APPID
  2
ACAECLAYERSTANDARD
 70
     0
  0
APPID
  2
ACCMTRANSPARENCY
 70
     0
  0
APPID
  2
ACAD_DSTYLE_DIMJAG
 70
     0
  0
APPID
  2
ACAD_DSTYLE_DIMTALN
 70
     0
  0
APPID
  2
ACDBATTR
 70
     0
  0
ENDTAB
  0
TABLE
  2
DIMSTYLE
 70
     1
  0
DIMSTYLE
  2
STANDARD
 70
     0
  3

  4

  5

  6

  7

 40
1.0
 41
0.1875
 42
0.0625
 43
0.38
 44
0.125
 45
0.0
 46
0.0
 47
0.01
 48
0.01
140
0.15625
141
0.09
142
0.0
143
25.3999999999999986
144
1.0
145
0.0
146
1.0
147
0.09
 71
     1
 72
     0
 73
     1
 74
     1
 75
     0
 76
     0
 77
     0
 78
     4
170
     0
171
     2
172
     0
173
     0
174
     0
175
     0
176
     0
177
     0
178
     0
  0
ENDTAB
  0
ENDSEC
  0
SECTION
  2
BLOCKS
  0
BLOCK
  8
0
  2
$MODEL_SPACE
 70
     0
 10
0.0
 20
0.0
 30
0.0
  3
$MODEL_SPACE
  1

  0
ENDBLK
  5
21
  8
0
  0
BLOCK
 67
     1
  8
0
  2
$PAPER_SPACE
 70
     0
 10
0.0
 20
0.0
 30
0.0
  3
$PAPER_SPACE
  1

  0
ENDBLK
  5
1D
 67
     1
  8
0
  0
ENDSEC
  0
SECTION
  2
ENTITIES
  0
ATTDEF
  5
FDB2
  8
DEFPOINTS
 10
4182.6508102519992462
 20
116.9469011316672038
 30
0.0
 40
0.001
  1
K-72287D
  3

  2
MODELNUMBER
 70
     0
1001
ACDBATTR
1070
     0
1070
     1
  0
ATTDEF
  5
FDB3
  8
DEFPOINTS
 10
4182.6508102519992462
 20
116.9452344650005955
 30
0.0
 40
0.001
  1
ALEO
  3

  2
TRADENAME
 70
     0
1001
ACDBATTR
1070
     0
1070
     1
  0
ATTDEF
  5
FDB4
  8
DEFPOINTS
 10
4182.6508102519992462
 20
116.9435677983339019
 30
0.0
 40
0.001
  1
BATH AND SHOWER FAUCET
  3

  2
PRODUCT
 70
     0
1001
ACDBATTR
1070
     0
1070
     1
  0
LINE
  5
1197A
  8
0
 10
4178.4447990772114281
 20
115.9641968785799975
 30
0.0
 11
4178.4447990772114281
 21
117.932702371302895
 31
0.0
  0
LINE
  5
1197B
  8
0
 10
4188.0482366968153656
 20
116.3771099629637007
 30
0.0
 11
4188.8345189906167434
 21
116.3842871191025949
 31
0.0
  0
LINE
  5
1197C
  8
0
 10
4178.4448000640368264
 20
116.0816303325663057
 30
0.0
 11
4178.4920433117868015
 21
116.0816303325663057
 31
0.0
  0
LINE
  5
1197D
  8
0
 10
4186.8195816219376866
 20
116.0816303325663057
 30
0.0
 11
4186.8668212164848228
 21
116.0816303325663057
 31
0.0
  0
LINE
  5
1197E
  8
0
 10
4176.4771066418979899
 20
116.3841369113686994
 30
0.0
 11
4177.2823136606139087
 21
116.3771099628636989
 31
0.0
  0
ARC
  5
1197F
  8
0
 10
4176.4772855362152768
 20
116.4046361307885036
 30
0.0
 40
0.0205
 50
180.0
 51
269.4999990530516811
  0
LINE
  5
11980
  8
0
 10
4177.2823136552151482
 20
117.5194942081637066
 30
0.0
 11
4176.4771066418970804
 21
117.5124672596578961
 31
0.0
  0
ARC
  5
11981
  8
0
 10
4176.4772855362152768
 20
117.4919680402381061
 30
0.0
 40
0.0205
 50
90.5000009503355471
 51
180.0
  0
LINE
  5
11982
  8
0
 10
4178.2052851065081995
 20
117.9304614635755968
 30
0.0
 11
4178.4447990772114281
 21
117.932702371302895
 31
0.0
  0
LINE
  5
11983
  8
0
 10
4178.4447990772114281
 20
117.8139137970663057
 30
0.0
 11
4178.4920423249614032
 21
117.8139137970663057
 31
0.0
  0
LINE
  5
11984
  8
0
 10
4186.8195788084112792
 20
117.8139137970663057
 30
0.0
 11
4186.8668229029117356
 21
117.8139137970663057
 31
0.0
  0
LINE
  5
11985
  8
0
 10
4188.8345189906203814
 20
117.5126175311031034
 30
0.0
 11
4188.0293118844119817
 21
117.5196444492028007
 31
0.0
  0
LINE
  5
11986
  8
0
 10
4186.8668229029117356
 20
117.932702371302895
 30
0.0
 11
4187.0895362680494145
 21
117.9307593145329065
 31
0.0
  0
LINE
  5
11987
  8
0
 10
4186.8668229029117356
 20
117.932702371302895
 30
0.0
 11
4186.8668229029117356
 21
115.9641968785799975
 31
0.0
  0
ARC
  5
11988
  8
0
 10
4178.2410358085153348
 20
117.4506941678339018
 30
0.0
 40
0.4810974649249834
 50
86.8104752198201908
 51
86.9450361311214266
  0
ARC
  5
11989
  8
0
 10
4178.2410358085153348
 20
117.4506941678339018
 30
0.0
 40
0.4810974649249834
 50
94.2616193096760924
 51
137.0473742600096898
  0
ARC
  5
1198A
  8
0
 10
4177.2970394506828598
 20
118.680864837171498
 30
0.0
 40
1.1614639843637991
 50
269.2735473954650161
 51
282.533569970633323
  0
ARC
  5
1198B
  8
0
 10
4177.434059937719212
 20
118.0555866184811009
 30
0.0
 40
0.5213553201417795
 50
282.7464938595944091
 51
315.4020233704846987
  0
ARC
  5
1198C
  8
0
 10
4174.57049860875577
 20
120.8131951147068008
 30
0.0
 40
4.4967963864316944
 50
316.0012511027450159
 51
317.55712999821219
  0
ARC
  5
1198D
  8
0
 10
4178.2397686243875796
 20
116.443695828586101
 30
0.0
 40
0.4789204554586622
 50
222.8953213563414977
 51
265.6436768934862016
  0
ARC
  5
1198E
  8
0
 10
4177.2923666189026335
 20
115.1865674822135048
 30
0.0
 40
1.190584923557751
 50
77.5476002226182999
 51
90.4837949101673047
  0
ARC
  5
1198F
  8
0
 10
4177.434059937719212
 20
115.8406375238462971
 30
0.0
 40
0.5213553201417795
 50
44.5979766295153226
 51
77.2535061404055483
  0
ARC
  5
11990
  8
0
 10
4174.57049860875577
 20
113.0830290276206966
 30
0.0
 40
4.4967963864316944
 50
42.4428700017878384
 51
43.9987488972550267
  0
ARC
  5
11991
  8
0
 10
4187.0764923817750969
 20
116.4323713426905016
 30
0.0
 40
0.467766808053604
 50
275.5459663512835959
 51
313.2818338898212005
  0
ARC
  5
11992
  8
0
 10
4188.0282891810402361
 20
115.071055719912593
 30
0.0
 40
1.3062065645131931
 50
89.1249830425005882
 51
101.5069729990978971
  0
ARC
  5
11993
  8
0
 10
4187.8740961760386199
 20
115.8453113948506967
 30
0.0
 40
0.516764488549783
 50
101.8795454810807968
 51
129.681792553133306
  0
ARC
  5
11994
  8
0
 10
4189.4431426093487971
 20
114.2501420988286043
 30
0.0
 40
2.7527785577184152
 50
133.618474994051212
 51
138.0075274072021045
  0
ARC
  5
11995
  8
0
 10
4188.0564233239019813
 20
119.123480541472702
 30
0.0
 40
1.604065223430295
 50
259.7686090742445799
 51
269.0315574428364016
  0
ARC
  5
11996
  8
0
 10
4187.0619286869941789
 20
117.386667410638907
 30
0.0
 40
0.5447918670599782
 50
60.9575358791213517
 51
87.0952656115831303
  0
ARC
  5
11997
  8
0
 10
4186.9544837914181699
 20
117.3325168360746034
 30
0.0
 40
0.6478350400807225
 50
39.7645351586620421
 51
54.9637807564035512
  0
ARC
  5
11998
  8
0
 10
4187.8798533394901824
 20
118.0635667243466997
 30
0.0
 40
0.5298411850025238
 50
239.3467360857794972
 51
258.2000050881312063
  0
ARC
  5
11999
  8
0
 10
4187.9734444122177592
 20
118.177304694671605
 30
0.0
 40
0.6757784805142907
 50
219.5618396523530862
 51
237.4365929927546119
  0
LINE
  5
1199A
  8
0
 10
4178.5117271061108113
 20
117.9319908880029004
 30
0.0
 11
4186.7998950259107005
 21
117.9319558743029006
 31
0.0
  0
LINE
  5
1199B
  8
0
 10
4188.8548400971112642
 20
117.4921183116761938
 30
0.0
 11
4188.8548400971112642
 21
116.4047863385295045
 31
0.0
  0
ARC
  5
1199C
  8
0
 10
4188.8343400971107258
 20
117.4921183116761938
 30
0.0
 40
0.0205
 50
0.0
 51
89.5000013096660183
  0
ARC
  5
1199D
  8
0
 10
4188.8343400971107258
 20
116.4047863385295045
 30
0.0
 40
0.0205
 50
270.4999986829861882
 51
0.0
  0
LINE
  5
1199E
  8
0
 10
4176.4567855362138289
 20
117.4919680402381061
 30
0.0
 11
4176.4567855362138289
 21
116.4046361307885036
 31
0.0
  0
ARC
  5
1199F
  8
0
 10
4178.5125471860428661
 20
115.9847774741625983
 30
0.0
 40
0.0205968723917676
 50
185.4177555489195868
 51
267.72201829362848
  0
ARC
  5
119A0
  8
0
 10
4178.5117271060398707
 20
117.9123059014736015
 30
0.0
 40
0.0196849865293028
 50
89.9999997895268535
 51
179.7382277972681948
  0
ARC
  5
119A1
  8
0
 10
4186.7998281508816945
 20
117.9118864341042041
 30
0.0
 40
0.0200695516182448
 50
10.1548752654018504
 51
89.8090807381029208
  0
LINE
  5
119A2
  8
0
 10
4182.3900629586114519
 20
117.9319745038165053
 30
0.0
 11
4182.3900629586114519
 21
118.0980586250029063
 31
0.0
  0
LINE
  5
119A3
  8
0
 10
4182.9215590216108467
 20
117.9319722584899068
 30
0.0
 11
4182.9215590216108467
 21
118.0980586250029063
 31
0.0
  0
LINE
  5
119A4
  8
0
 10
4182.9648661082110266
 20
118.0980586250029063
 30
0.0
 11
4182.3467558719112276
 21
118.0980586250029063
 31
0.0
  0
LINE
  5
119A5
  8
0
 10
4182.3467558719112276
 20
118.0980586250029063
 30
0.0
 11
4182.3467558719112276
 21
118.4327706219029039
 31
0.0
  0
LINE
  5
119A6
  8
0
 10
4182.9648661082110266
 20
118.0980586250029063
 30
0.0
 11
4182.9648661081118917
 21
118.4327706219029039
 31
0.0
  0
ARC
  5
119A7
  8
0
 10
4182.3861259507357317
 20
118.4327706217273999
 30
0.0
 40
0.0393700788246889
 50
106.5837560935334949
 51
179.9999997446103066
  0
ARC
  5
119A8
  8
0
 10
4182.9254960293146723
 20
118.4327706217034972
 30
0.0
 40
0.0393700788966553
 50
0.0000002901382385
 51
73.416243456758238
  0
ARC
  5
119A9
  8
0
 10
4182.6558109901789066
 20
117.5271924827401051
 30
0.0
 40
0.9842519689627224
 50
73.4162436538018284
 51
106.5837563461981006
  0
LINE
  5
119AA
  8
0
 10
4182.3748890742463118
 20
118.4705030443029017
 30
0.0
 11
4182.9367329059768963
 21
118.4705030443029017
 31
0.0
  0
ARC
  5
119AB
  8
0
 10
4207.0109275484355749
 20
-84.1543360540416359
 30
0.0
 40
201.6742771714052083
 50
97.0791624293041195
 51
97.1213290972319072
  0
ARC
  5
119AC
  8
0
 10
4181.9089418648600258
 20
117.9010720453965035
 30
0.0
 40
0.0315644734113796
 50
101.7369496766456933
 51
181.298715053460711
  0
LINE
  5
119AD
  8
0
 10
4181.8773854997989474
 20
117.9003566393593019
 30
0.0
 11
4181.8849997396819163
 21
117.7067124333391064
 31
0.0
  0
ARC
  5
119AE
  8
0
 10
4183.2845569377977881
 20
118.3476479677183022
 30
0.0
 40
1.539337100842727
 50
204.6056930444621003
 51
223.3134553093995862
  0
ARC
  5
119AF
  8
0
 10
4182.2062365434048843
 20
117.2926345621562945
 30
0.0
 40
0.0417301958965605
 50
170.245405028110099
 51
181.3117302647443978
  0
ARC
  5
119B0
  8
0
 10
4182.20003429076678
 20
117.2956621238823942
 30
0.0
 40
0.0357396267661054
 50
186.3983736476068884
 51
225.908170811927306
  0
ARC
  5
119B1
  8
0
 10
4182.2330211172738927
 20
117.322509850275793
 30
0.0
 40
0.0781357772853974
 50
222.2311171457710941
 51
230.5476526694367863
  0
ARC
  5
119B2
  8
0
 10
4182.654673325119802
 20
115.398239512040405
 30
0.0
 40
2.011818804917227
 50
89.9675997630697992
 51
94.4352456508983664
  0
ARC
  5
119B3
  8
0
 10
4182.7735168152712504
 20
115.1283546654718037
 30
0.0
 40
2.2921654456316878
 50
96.8760471332979165
 51
101.7378213274375014
  0
ARC
  5
119B4
  8
0
 10
4182.4097004671803006
 20
116.9018615233458007
 30
0.0
 40
0.4817541677068355
 50
102.2828301326497069
 51
112.9334280339591032
  0
ARC
  5
119B5
  8
0
 10
4182.2800704984010736
 20
117.2006664022005964
 30
0.0
 40
0.1560834721103029
 50
111.850068949081404
 51
129.9291329347979911
  0
ARC
  5
119B6
  8
0
 10
4182.2109151462909722
 20
117.2825384429063007
 30
0.0
 40
0.0489165390107537
 50
129.3642144317745135
 51
159.455635682501395
  0
ARC
  5
119B7
  8
0
 10
4182.2286643699217166
 20
117.3291786218661059
 30
0.0
 40
0.0256092861116738
 50
161.8932902195591055
 51
197.1846971722490025
  0
LINE
  5
119B8
  8
0
 10
4182.1833709540105701
 20
117.2889925873029
 30
0.0
 11
4182.1833700468123425
 21
117.1170982716470945
 31
0.0
  0
ARC
  5
119B9
  8
0
 10
4182.2138079795931844
 20
117.2883566481192048
 30
0.0
 40
0.0304436683874782
 50
147.913548017911495
 51
178.8030587781910015
  0
ARC
  5
119BA
  8
0
 10
4182.2429992536262944
 20
117.2686487476198067
 30
0.0
 40
0.0656555116567341
 50
126.2263751969049963
 51
146.8740359568527936
  0
ARC
  5
119BB
  8
0
 10
4182.3772350835106408
 20
117.0469959440725063
 30
0.0
 40
0.3245856510517108
 50
102.6314169545553057
 51
122.2151749959640057
  0
ARC
  5
119BC
  8
0
 10
4182.6443350297058714
 20
115.8572820357062056
 30
0.0
 40
1.5439139573104399
 50
89.5740469827467223
 51
102.648883975470298
  0
ARC
  5
119BD
  8
0
 10
4182.2697461897805624
 20
117.0673940672741935
 30
0.0
 40
0.1049177749977434
 50
116.6172113052650019
 51
138.3900958756024977
  0
ARC
  5
119BE
  8
0
 10
4182.212852550428579
 20
117.1169464348266018
 30
0.0
 40
0.0294828945986198
 50
136.9692519533429049
 51
217.7915259754173007
  0
ARC
  5
119BF
  8
0
 10
4182.2682119991086438
 20
117.1634148790463996
 30
0.0
 40
0.1017443382704218
 50
219.3672402798599137
 51
243.4535685638342954
  0
LINE
  5
119C0
  8
0
 10
4182.2227401239106257
 20
117.1611926242028972
 30
0.0
 11
4182.2227401239106257
 21
116.9512237342028982
 31
0.0
  0
LINE
  5
119C1
  8
0
 10
4182.2227401239106257
 20
116.9512237342028982
 30
0.0
 11
4182.2356170015118551
 21
116.9390822129029033
 31
0.0
  0
ARC
  5
119C2
  8
0
 10
4182.3112842987702606
 20
117.0235695166754937
 30
0.0
 40
0.1134180072704766
 50
228.1521990674937115
 51
243.0884364235448061
  0
ARC
  5
119C3
  8
0
 10
4182.4186342888424406
 20
117.2443833841942933
 30
0.0
 40
0.358932079861328
 50
243.7619160524619133
 51
256.4718969900897036
  0
ARC
  5
119C4
  8
0
 10
4182.5783111360287876
 20
117.8853963216545964
 30
0.0
 40
1.0195260505982831
 50
256.1740743793328079
 51
264.7694948994225115
  0
ARC
  5
119C5
  8
0
 10
4182.6530110085277556
 20
118.5748154876601035
 30
0.0
 40
1.712923195685901
 50
264.3835075778777082
 51
270.0936595102339766
  0
ARC
  5
119C6
  8
0
 10
4182.6498518653561405
 20
115.4522763843989992
 30
0.0
 40
1.6132980047096499
 50
89.7883630467206189
 51
98.2952653029987147
  0
ARC
  5
119C7
  8
0
 10
4182.519063468587774
 20
116.3385504346473027
 30
0.0
 40
0.7174286666878404
 50
98.1712090812336271
 51
108.0479461609725007
  0
ARC
  5
119C8
  8
0
 10
4182.3540550517063821
 20
116.8370296974844962
 30
0.0
 40
0.1923697306634416
 50
107.3169103220051994
 51
127.3588502322660929
  0
ARC
  5
119C9
  8
0
 10
4182.2693035762949876
 20
116.9519892351442962
 30
0.0
 40
0.0496241839334493
 50
130.1231820803101868
 51
150.0782988681596066
  0
ARC
  5
119CA
  8
0
 10
4182.2502954701722047
 20
116.9631960902554937
 30
0.0
 40
0.0275605218464264
 50
150.559616003055595
 51
178.8895974612460122
  0
ARC
  5
119CB
  8
0
 10
4182.2496510333457991
 20
116.964081071188005
 30
0.0
 40
0.0269131969105124
 50
180.7470269994693126
 51
210.1526212968798859
  0
ARC
  5
119CC
  8
0
 10
4182.2674465625141238
 20
116.9741504529305018
 30
0.0
 40
0.0473592906645791
 50
209.872081268228186
 51
227.7716586929635127
  0
ARC
  5
119CD
  8
0
 10
4182.0562294804367411
 20
116.4782756040279992
 30
0.0
 40
0.5081422647691717
 50
258.6476238170325246
 51
269.9645285543072077
  0
ARC
  5
119CE
  8
0
 10
4181.9740777538781913
 20
116.0552990666586055
 30
0.0
 40
0.0773179539852466
 50
226.5193554850602027
 51
256.6350527324946142
  0
ARC
  5
119CF
  8
0
 10
4181.9651366896869149
 20
116.0401109495319929
 30
0.0
 40
0.0602753677072155
 50
176.5487558646863135
 51
222.7491672989764879
  0
ARC
  5
119D0
  8
0
 10
4182.1330387668949697
 20
116.0258934733313936
 30
0.0
 40
0.2287652751665559
 50
154.9499317872057986
 51
175.5258045585989919
  0
ARC
  5
119D1
  8
0
 10
4182.7163458323930172
 20
115.7683756529195023
 30
0.0
 40
0.8663490895811984
 50
146.6213633957293894
 51
155.8548831642891912
  0
ARC
  5
119D2
  8
0
 10
4183.0185812336558229
 20
115.5917118508781982
 30
0.0
 40
1.2160713725318231
 50
141.0112868379661961
 51
147.5051446629412908
  0
ARC
  5
119D3
  8
0
 10
4182.6519038254646148
 20
115.8972984152370032
 30
0.0
 40
0.7388304784611348
 50
123.1199792889247959
 51
141.5403211653276117
  0
ARC
  5
119D4
  8
0
 10
4182.6557695364272149
 20
115.8717364827862042
 30
0.0
 40
0.7624270174715498
 50
106.8697182868468047
 51
122.3136584668497022
  0
ARC
  5
119D5
  8
0
 10
4182.6683004491724205
 20
115.8430516807128043
 30
0.0
 40
0.7935223306197098
 50
90.9018687660548608
 51
107.1345246417763946
  0
LINE
  5
119D6
  8
0
 10
4178.2210303284264228
 20
115.9641968785799975
 30
0.0
 11
4178.4447990772114281
 21
115.9641968785799975
 31
0.0
  0
LINE
  5
119D7
  8
0
 10
4178.5117285055248431
 20
115.9641968785799975
 30
0.0
 11
4182.0091906186953565
 21
115.9641968785799975
 31
0.0
  0
LINE
  5
119D8
  8
0
 10
4183.3023664228448979
 20
115.9641968785799975
 30
0.0
 11
4186.8195833083645994
 21
115.9641968785799975
 31
0.0
  0
LINE
  5
119D9
  8
0
 10
4186.8668229029117356
 20
115.9641968785799975
 30
0.0
 11
4187.0846370853923872
 21
115.9641968785799975
 31
0.0
  0
LINE
  5
119DA
  8
0
 10
4178.2033903308883964
 20
115.9661590002484957
 30
0.0
 11
4178.2210303284264228
 21
115.9641968785799975
 31
0.0
  0
LINE
  5
119DB
  8
0
 10
4187.1216993739008103
 20
115.9667941583488044
 30
0.0
 11
4187.0846370853923872
 21
115.9641968785799975
 31
0.0
  0
ARC
  5
119DC
  8
0
 10
4183.4026801153631823
 20
117.9010720453965035
 30
0.0
 40
0.0315644734113796
 50
358.7012849465393174
 51
78.263050323354264
  0
LINE
  5
119DD
  8
0
 10
4183.4342364804242607
 20
117.9003566393593019
 30
0.0
 11
4183.4269327086813064
 21
117.7073908107887945
 31
0.0
  0
ARC
  5
119DE
  8
0
 10
4182.02706504242542
 20
118.3476479677176059
 30
0.0
 40
1.5393371008417149
 50
316.6865446905986232
 51
335.422075633683221
  0
ARC
  5
119DF
  8
0
 10
4183.1053854368183238
 20
117.2926345621562945
 30
0.0
 40
0.0417301958965605
 50
358.6882697352555169
 51
9.7545949718898743
  0
ARC
  5
119E0
  8
0
 10
4183.1115876894564281
 20
117.2956621238823942
 30
0.0
 40
0.0357396267661054
 50
314.0918291880727224
 51
353.6016263523931116
  0
ARC
  5
119E1
  8
0
 10
4183.0786008629493153
 20
117.322509850275793
 30
0.0
 40
0.0781357772853974
 50
309.4523473305632137
 51
317.7688828542288775
  0
ARC
  5
119E2
  8
0
 10
4182.6569486551015871
 20
115.398239512040405
 30
0.0
 40
2.011818804917227
 50
85.5647543491016762
 51
90.0324002369301866
  0
ARC
  5
119E3
  8
0
 10
4182.5381051649519577
 20
115.1283546654720027
 30
0.0
 40
2.2921654456315359
 50
78.262178672562456
 51
83.1239528667020693
  0
ARC
  5
119E4
  8
0
 10
4182.901921513041998
 20
116.9018615233458007
 30
0.0
 40
0.4817541677068355
 50
67.0665719660405699
 51
77.7171698673503073
  0
ARC
  5
119E5
  8
0
 10
4183.0315514818221345
 20
117.2006664022005964
 30
0.0
 40
0.1560834721103029
 50
50.0708670652020302
 51
68.1499310509185676
  0
ARC
  5
119E6
  8
0
 10
4183.1007068339313264
 20
117.2825384429063007
 30
0.0
 40
0.0489165390107537
 50
20.5443643174985588
 51
50.6357855682254865
  0
ARC
  5
119E7
  8
0
 10
4183.082957610300582
 20
117.3291786218661059
 30
0.0
 40
0.0256092861116738
 50
342.8153028277509975
 51
18.1067097804408803
  0
LINE
  5
119E8
  8
0
 10
4183.1282510262117285
 20
117.2889925873029
 30
0.0
 11
4183.1282519334099561
 21
117.1170982716470945
 31
0.0
  0
ARC
  5
119E9
  8
0
 10
4183.0978140006300237
 20
117.2883566481192048
 30
0.0
 40
0.0304436683874782
 50
1.196941221808993
 51
32.0864519820885334
  0
ARC
  5
119EA
  8
0
 10
4183.0686227265960042
 20
117.2686487476198067
 30
0.0
 40
0.0656555116567341
 50
33.1259640431471993
 51
53.7736248030949611
  0
ARC
  5
119EB
  8
0
 10
4182.9343868967107483
 20
117.0469959440725063
 30
0.0
 40
0.3245856510517108
 50
57.7848250040359872
 51
77.3685830454447085
  0
ARC
  5
119EC
  8
0
 10
4182.6672872913613901
 20
115.8572840989056942
 30
0.0
 40
1.5439118695474101
 50
77.3511116002909347
 51
90.4258306693708249
  0
ARC
  5
119ED
  8
0
 10
4183.0418757904417362
 20
117.0673940672741935
 30
0.0
 40
0.1049177749977434
 50
41.6099041243974312
 51
63.3827886947350123
  0
ARC
  5
119EE
  8
0
 10
4183.0987694297928101
 20
117.1169464348266018
 30
0.0
 40
0.0294828945986198
 50
322.2084740245826993
 51
43.0307480466570382
  0
ARC
  5
119EF
  8
0
 10
4183.0434099811127453
 20
117.1634148790463996
 30
0.0
 40
0.1017443382704218
 50
296.5464314361656761
 51
320.6327597201402
  0
LINE
  5
119F0
  8
0
 10
4183.0888818563116729
 20
117.1611926242028972
 30
0.0
 11
4183.0888818563116729
 21
116.9512237342028982
 31
0.0
  0
LINE
  5
119F1
  8
0
 10
4183.0888818563116729
 20
116.9512237342028982
 30
0.0
 11
4183.076004978711353
 21
116.9390822129029033
 31
0.0
  0
ARC
  5
119F2
  8
0
 10
4183.0003376814529474
 20
117.0235695166754937
 30
0.0
 40
0.1134180072704766
 50
296.9115635764551939
 51
311.8478009325062885
  0
ARC
  5
119F3
  8
0
 10
4182.892987691379858
 20
117.2443833841942933
 30
0.0
 40
0.358932079861328
 50
283.5281030099102964
 51
296.2380839475380867
  0
ARC
  5
119F4
  8
0
 10
4182.7333108441926015
 20
117.8853963216545964
 30
0.0
 40
1.0195260505982831
 50
275.2305051005774885
 51
283.8259256206671921
  0
ARC
  5
119F5
  8
0
 10
4182.6586109789177499
 20
118.5748153895982995
 30
0.0
 40
1.7129230973879439
 50
269.906345320336527
 51
275.6164925027065919
  0
ARC
  5
119F6
  8
0
 10
4182.6617701148661581
 20
115.4522763843989992
 30
0.0
 40
1.6132980047096499
 50
81.7047346970012569
 51
90.2116369532793811
  0
ARC
  5
119F7
  8
0
 10
4182.7925585116354341
 20
116.3385504346473027
 30
0.0
 40
0.7174286666878404
 50
71.9520538390275135
 51
81.8287909187663871
  0
ARC
  5
119F8
  8
0
 10
4182.957566928516826
 20
116.8370296974844962
 30
0.0
 40
0.1923697306634416
 50
52.6411497677338502
 51
72.6830896779950564
  0
ARC
  5
119F9
  8
0
 10
4183.0423184039282205
 20
116.9519892351442962
 30
0.0
 40
0.0496241839334493
 50
29.9217011318403401
 51
49.8768179196897918
  0
ARC
  5
119FA
  8
0
 10
4183.0613265100500939
 20
116.9631960902554937
 30
0.0
 40
0.0275605218464264
 50
1.1104025387539731
 51
29.4403839969444014
  0
ARC
  5
119FB
  8
0
 10
4183.06197094687559
 20
116.964081071188005
 30
0.0
 40
0.0269131969105124
 50
329.8473787031201141
 51
359.2529730005300053
  0
ARC
  5
119FC
  8
0
 10
4183.0441754177090843
 20
116.9741504529305018
 30
0.0
 40
0.0473592906645791
 50
312.2283413070364873
 51
330.1279187317717856
  0
ARC
  5
119FD
  8
0
 10
4183.2660743288852245
 20
116.4150502188482932
 30
0.0
 40
0.4440556198763397
 50
267.1451122125488951
 51
281.6068985332371994
  0
ARC
  5
119FE
  8
0
 10
4183.3375442262449724
 20
116.0552990666586055
 30
0.0
 40
0.0773179539852466
 50
283.3649472675053858
 51
313.4806445149396836
  0
ARC
  5
119FF
  8
0
 10
4183.3464852904362488
 20
116.0401109495319929
 30
0.0
 40
0.0602753677072155
 50
317.2508327010228868
 51
3.4512441353136878
  0
ARC
  5
11A00
  8
0
 10
4183.1785832132272844
 20
116.0258934733313936
 30
0.0
 40
0.2287652751665559
 50
4.4741954414009886
 51
25.0500682127941516
  0
ARC
  5
11A01
  8
0
 10
4182.5952761477283275
 20
115.7683756529195023
 30
0.0
 40
0.8663490895811984
 50
24.1451168357108017
 51
33.3786366042705609
  0
ARC
  5
11A02
  8
0
 10
4182.2930407464673408
 20
115.5917118508780987
 30
0.0
 40
1.2160713725318999
 50
32.4948553370593274
 51
38.9887131620337826
  0
ARC
  5
11A03
  8
0
 10
4182.6597181546585489
 20
115.8972984152370032
 30
0.0
 40
0.7388304784611348
 50
38.4596788346723315
 51
56.8800207110751472
  0
ARC
  5
11A04
  8
0
 10
4182.6558524436959488
 20
115.8717364827862042
 30
0.0
 40
0.7624270174715498
 50
57.686341533150248
 51
73.1302817131531526
  0
ARC
  5
11A05
  8
0
 10
4182.647398593784601
 20
115.8687401842961009
 30
0.0
 40
0.7677816071085138
 50
72.5914401778934888
 51
89.3722508031621885
  0
LINE
  5
11A06
  8
0
 10
4182.2030550845111065
 20
115.9359610411662942
 30
0.0
 11
4183.1085668956111476
 21
115.9359610411662942
 31
0.0
  0
LINE
  5
11A07
  8
0
 10
4183.1085668956111476
 20
115.9359610411662942
 30
0.0
 11
4183.2069920924113831
 21
116.0343862379663022
 31
0.0
  0
LINE
  5
11A08
  8
0
 10
4183.2069920924113831
 20
116.0343862379663022
 30
0.0
 11
4183.2069920924113831
 21
116.3936467938573998
 31
0.0
  0
LINE
  5
11A09
  8
0
 10
4182.2030550845111065
 20
115.9359610411662942
 30
0.0
 11
4182.1046298877117806
 21
116.0343862379663022
 31
0.0
  0
LINE
  5
11A0A
  8
0
 10
4182.1046298877117806
 20
116.0343862379663022
 30
0.0
 11
4182.1046298877117806
 21
116.3936467938573998
 31
0.0
  0
LINE
  5
11A0B
  8
0
 10
4182.1046298877117806
 20
116.0343862379663022
 30
0.0
 11
4183.2069920924113831
 21
116.0343862379663022
 31
0.0
  0
LINE
  5
11A0C
  8
0
 10
4183.0691968168111998
 20
115.9359610411662942
 30
0.0
 11
4183.0691968168111998
 21
115.920628911122904
 31
0.0
  0
LINE
  5
11A0D
  8
0
 10
4178.4920423249614032
 20
117.9123958376678019
 30
0.0
 11
4178.4920423249614032
 21
115.9828327828403047
 31
0.0
  0
LINE
  5
11A0E
  8
0
 10
4186.8195833083645994
 20
117.9154248878678999
 30
0.0
 11
4186.8195833083645994
 21
115.9641968785799975
 31
0.0
  0
LINE
  5
11A0F
  8
0
 10
4184.6833871449616709
 20
114.191718446766302
 30
0.0
 11
4186.5337509244618559
 21
114.191718446766302
 31
0.0
  0
LINE
  5
11A10
  8
0
 10
4184.6636983159887677
 20
114.2114184467663023
 30
0.0
 11
4184.6636983159887677
 21
115.9641968785799975
 31
0.0
  0
LINE
  5
11A11
  8
0
 10
4186.5534294763347134
 20
114.2114184467663023
 30
0.0
 11
4186.5534294763347134
 21
115.9641968785799975
 31
0.0
  0
LINE
  5
11A12
  8
0
 10
4183.3023664228448979
 20
115.9641968785799975
 30
0.0
 11
4183.1544888896623888
 21
115.9818824717662977
 31
0.0
  0
ARC
  5
11A13
  8
0
 10
4184.6833792512561558
 20
114.2113993896768989
 30
0.0
 40
0.0196809444936091
 50
179.9445203981948112
 51
270.0229804005297751
  0
ARC
  5
11A14
  8
0
 10
4186.5337660706600218
 20
114.2113818806062966
 30
0.0
 40
0.0196634396734336
 50
269.9558666541087746
 51
0.1065473731249596
  0
LINE
  5
11A15
  8
0
 10
4178.7778756209108906
 20
114.1921111313663033
 30
0.0
 11
4180.6282394004110756
 21
114.1921111313663033
 31
0.0
  0
LINE
  5
11A16
  8
0
 10
4178.7581926556877079
 20
114.2118111313663036
 30
0.0
 11
4178.7581926556877079
 21
115.9641968785799975
 31
0.0
  0
LINE
  5
11A17
  8
0
 10
4180.6479238160336536
 20
114.2118111313663036
 30
0.0
 11
4180.6479238160336536
 21
115.9641968785799975
 31
0.0
  0
ARC
  5
11A18
  8
0
 10
4178.7778635880704314
 20
114.2117820815177964
 30
0.0
 40
0.0196709538317759
 50
179.9153861915299046
 51
270.0350481764886013
  0
ARC
  5
11A19
  8
0
 10
4180.6282504097125639
 20
114.2117845525609994
 30
0.0
 40
0.0196734242751538
 50
269.9679371246090795
 51
0.0774066480851022
  0
ARC
  5
11A1A
  8
0
 10
4181.6690500241002155
 20
117.9298841180922039
 30
0.0
 40
1.124867617318666
 50
179.929126700444499
 51
191.4433044009583966
  0
ARC
  5
11A1B
  8
0
 10
4183.0590620351713369
 20
118.6649906030056059
 30
0.0
 40
2.6703834515656819
 50
201.0298417990975111
 51
245.9870768819170053
  0
LINE
  5
11A1C
  8
0
 10
4181.8849997396819163
 20
117.7067124333391064
 30
0.0
 11
4180.5665430827993987
 21
117.7067124333391064
 31
0.0
  0
ARC
  5
11A1D
  8
0
 10
4183.6425721079231153
 20
117.9298841180922039
 30
0.0
 40
1.124867617318666
 50
348.556695599041575
 51
0.105963498324048
  0
ARC
  5
11A1E
  8
0
 10
4182.2525600968510844
 20
118.6649906030056059
 30
0.0
 40
2.6703834515656819
 50
293.8622912205483999
 51
338.9701582009025174
  0
LINE
  5
11A1F
  8
0
 10
4183.4266223923414145
 20
117.7067124333391064
 30
0.0
 11
4184.7450790492239321
 21
117.7067124333391064
 31
0.0
  0
LINE
  5
11A21
  8
0
 10
4182.2817958055611598
 20
115.542260253766301
 30
0.0
 11
4183.0691973803614019
 21
115.542260253766301
 31
0.0
  0
LINE
  5
11A22
  8
0
 10
4182.242425726761212
 20
115.5816303325663057
 30
0.0
 11
4182.6558115535608522
 21
115.5816303325663057
 31
0.0
  0
LINE
  5
11A23
  8
0
 10
4182.242425726761212
 20
115.6358983327663026
 30
0.0
 11
4182.242425726761212
 21
115.5816303325663057
 31
0.0
  0
LINE
  5
11A24
  8
0
 10
4182.242425726761212
 20
115.7414956068662946
 30
0.0
 11
4182.242425726761212
 21
115.7780276313662995
 31
0.0
  0
LINE
  5
11A25
  8
0
 10
4182.242425726761212
 20
115.8134614868450001
 30
0.0
 11
4182.242425726761212
 21
115.8581526501328938
 31
0.0
  0
LINE
  5
11A26
  8
0
 10
4182.242425726761212
 20
115.8848876486523949
 30
0.0
 11
4182.242425726761212
 21
115.9359610411662942
 31
0.0
  0
LINE
  5
11A27
  8
0
 10
4182.242425726761212
 20
115.6358983327663026
 30
0.0
 11
4182.6563607563393816
 21
115.6530627585269997
 31
0.0
  0
LINE
  5
11A28
  8
0
 10
4182.242425726761212
 20
115.6706394028907994
 30
0.0
 11
4182.6558115535608522
 21
115.6884807035832949
 31
0.0
  0
LINE
  5
11A29
  8
0
 10
4182.242425726761212
 20
115.6706394028907994
 30
0.0
 11
4182.2726186859908921
 21
115.6529167770022042
 31
0.0
  0
LINE
  5
11A2A
  8
0
 10
4182.2726186859908921
 20
115.6529167770022042
 30
0.0
 11
4182.242425726761212
 21
115.6358983327663026
 31
0.0
  0
LINE
  5
11A2B
  8
0
 10
4182.242425726761212
 20
115.7073072783891945
 30
0.0
 11
4182.6563554421263689
 21
115.7244799489343023
 31
0.0
  0
LINE
  5
11A2C
  8
0
 10
4182.242425726761212
 20
115.7414956068662946
 30
0.0
 11
4182.6552629189818617
 21
115.7598829603119981
 31
0.0
  0
LINE
  5
11A2D
  8
0
 10
4182.242425726761212
 20
115.7414956068662946
 30
0.0
 11
4182.2726562096077032
 21
115.7243175963835
 31
0.0
  0
LINE
  5
11A2E
  8
0
 10
4182.2726562096077032
 20
115.7243175963835
 30
0.0
 11
4182.242425726761212
 21
115.7073072783891945
 31
0.0
  0
LINE
  5
11A2F
  8
0
 10
4182.242425726761212
 20
115.8134614868460943
 30
0.0
 11
4182.2726162288608975
 21
115.7957484667662982
 31
0.0
  0
LINE
  5
11A30
  8
0
 10
4182.2726162288608975
 20
115.7957484667662982
 30
0.0
 11
4182.242425726761212
 21
115.7780276313662995
 31
0.0
  0
LINE
  5
11A31
  8
0
 10
4182.242425726761212
 20
115.7780276313662995
 30
0.0
 11
4182.6563606738218368
 21
115.7958973980171038
 31
0.0
  0
LINE
  5
11A32
  8
0
 10
4182.6558115535608522
 20
115.8313153642978932
 30
0.0
 11
4182.242425726763031
 21
115.8134614868450996
 31
0.0
  0
LINE
  5
11A33
  8
0
 10
4182.242425726761212
 20
115.8848876486523949
 30
0.0
 11
4182.6558115535608522
 21
115.9027326939386029
 31
0.0
  0
LINE
  5
11A34
  8
0
 10
4182.6567850914561859
 20
115.8673264112786967
 30
0.0
 11
4182.242425726761212
 21
115.8501490770267992
 31
0.0
  0
LINE
  5
11A35
  8
0
 10
4182.2736811211616441
 20
115.8677432948663011
 30
0.0
 11
4182.242425726761212
 21
115.8848876486523949
 31
0.0
  0
LINE
  5
11A36
  8
0
 10
4182.2736791275092401
 20
115.867744401689194
 30
0.0
 11
4182.242425726761212
 21
115.8501490770267992
 31
0.0
  0
LINE
  5
11A37
  8
0
 10
4182.242425726761212
 20
115.9215265891704973
 30
0.0
 11
4182.2680938738612895
 21
115.9359610411662942
 31
0.0
  0
LINE
  5
11A38
  8
0
 10
4182.242425726761212
 20
115.9215265891704973
 30
0.0
 11
4182.6558109900615818
 21
115.9359610411662942
 31
0.0
  0
LINE
  5
11A39
  8
0
 10
4182.2817958055611598
 20
115.542260253766301
 30
0.0
 11
4182.242425726761212
 21
115.5816303325663057
 31
0.0
  0
LINE
  5
11A3A
  8
0
 10
4183.0691973803614019
 20
115.599473753866306
 30
0.0
 11
4183.0691973803614019
 21
115.542260253766301
 31
0.0
  0
LINE
  5
11A3B
  8
0
 10
4183.0691973803614019
 20
115.6349248581663005
 30
0.0
 11
4183.0691973803614019
 21
115.6709001292663004
 31
0.0
  0
LINE
  5
11A3C
  8
0
 10
4183.0691973803614019
 20
115.7063370282663044
 30
0.0
 11
4183.0691973803614019
 21
115.742860337466297
 31
0.0
  0
LINE
  5
11A3D
  8
0
 10
4183.068902406746929
 20
115.7775903859336069
 30
0.0
 11
4183.068750589361116
 21
115.8142631523662942
 31
0.0
  0
LINE
  5
11A3E
  8
0
 10
4183.0691973803614019
 20
115.8491728080662995
 30
0.0
 11
4183.0691973803614019
 21
115.8851433508663007
 31
0.0
  0
LINE
  5
11A3F
  8
0
 10
4183.0691973803614019
 20
115.9206292419662958
 30
0.0
 11
4183.0691973803614019
 21
115.9359610411662942
 31
0.0
  0
LINE
  5
11A40
  8
0
 10
4183.0691973803614019
 20
115.599473753866306
 30
0.0
 11
4182.6559131152216651
 21
115.5816303325663057
 31
0.0
  0
LINE
  5
11A41
  8
0
 10
4182.6558115535608522
 20
115.6170725959418064
 30
0.0
 11
4183.0691973803614019
 21
115.6349248581663005
 31
0.0
  0
LINE
  5
11A42
  8
0
 10
4183.0389728575219124
 20
115.6172119745140066
 30
0.0
 11
4183.0691973803614019
 21
115.6349248581663005
 31
0.0
  0
LINE
  5
11A43
  8
0
 10
4183.0389728575219124
 20
115.6172119745140066
 30
0.0
 11
4183.0691973803614019
 21
115.599473753866306
 31
0.0
  0
LINE
  5
11A44
  8
0
 10
4183.0390003500524472
 20
115.6886093152553059
 30
0.0
 11
4183.0691973803614019
 21
115.6709001292663004
 31
0.0
  0
LINE
  5
11A45
  8
0
 10
4183.0390003500524472
 20
115.6886093152553059
 30
0.0
 11
4183.0691973803614019
 21
115.7063370282663044
 31
0.0
  0
LINE
  5
11A46
  8
0
 10
4183.0389521054466968
 20
115.7600372456819002
 30
0.0
 11
4183.0691973803614019
 21
115.7777632627662996
 31
0.0
  0
LINE
  5
11A47
  8
0
 10
4183.0389521054466968
 20
115.7600372456819002
 30
0.0
 11
4183.0691973803614019
 21
115.742860337466297
 31
0.0
  0
LINE
  5
11A48
  8
0
 10
4183.038994939445729
 20
115.831442459742803
 30
0.0
 11
4183.0691973803614019
 21
115.8491728080662995
 31
0.0
  0
LINE
  5
11A49
  8
0
 10
4183.038994939445729
 20
115.831442459742803
 30
0.0
 11
4183.068750589361116
 21
115.8142631523662942
 31
0.0
  0
LINE
  5
11A4A
  8
0
 10
4183.0389538900317348
 20
115.9028741943912024
 30
0.0
 11
4183.0691973803614019
 21
115.9206292419662958
 31
0.0
  0
LINE
  5
11A4B
  8
0
 10
4183.0389538900317348
 20
115.9028741943913019
 30
0.0
 11
4183.068713539161763
 21
115.8856971340663051
 31
0.0
  0
LINE
  5
11A4C
  8
0
 10
4182.6567850914561859
 20
115.8673264112786967
 30
0.0
 11
4183.0691973803614019
 21
115.8851433508663007
 31
0.0
  0
LINE
  5
11A4D
  8
0
 10
4183.0691973803614019
 20
115.9206292419662958
 30
0.0
 11
4182.6558115535608522
 21
115.9027326939386029
 31
0.0
  0
LINE
  5
11A4E
  8
0
 10
4182.6558115535608522
 20
115.8313153642978932
 30
0.0
 11
4183.0691973803614019
 21
115.8491728080662995
 31
0.0
  0
LINE
  5
11A4F
  8
0
 10
4183.068750589361116
 20
115.8142631523662942
 30
0.0
 11
4182.6563606738218368
 21
115.7958973980171038
 31
0.0
  0
LINE
  5
11A50
  8
0
 10
4182.6558115535608522
 20
115.7598980454579021
 30
0.0
 11
4183.0691973803614019
 21
115.7777632627662996
 31
0.0
  0
LINE
  5
11A51
  8
0
 10
4183.0691973803614019
 20
115.742860337466297
 30
0.0
 11
4182.6558115535608522
 21
115.7244573405297956
 31
0.0
  0
LINE
  5
11A52
  8
0
 10
4182.6568000121596924
 20
115.6885078819634032
 30
0.0
 11
4183.0691973803614019
 21
115.7063370282663044
 31
0.0
  0
LINE
  5
11A53
  8
0
 10
4182.6558115535608522
 20
115.6530399416654973
 30
0.0
 11
4183.0691973803614019
 21
115.6709001292663004
 31
0.0
  0
LINE
  5
11A54
  8
0
 10
4182.242425726761212
 20
115.7073072783891945
 30
0.0
 11
4182.242425726761212
 21
115.6706394028907994
 31
0.0
  0
LINE
  5
11A55
  8
0
 10
4182.2877007704264543
 20
117.0175933223687963
 30
0.0
 11
4182.2877031777607044
 21
116.980269705266295
 31
0.0
  0
ARC
  5
11A56
  8
0
 10
4182.3311881639174317
 20
116.9820734998455976
 30
0.0
 40
0.0435223456440815
 50
182.374174797769399
 51
228.5493181858579135
  0
ARC
  5
11A57
  8
0
 10
4182.5533086319146605
 20
117.4838229399650942
 30
0.0
 40
0.595745909836923
 50
247.3908382842774927
 51
260.6402439110240721
  0
ARC
  5
11A58
  8
0
 10
4182.6130157774841791
 20
117.7708870448110048
 30
0.0
 40
0.8887826719327273
 50
259.8520543285430904
 51
269.1207509546671872
  0
ARC
  5
11A59
  8
0
 10
4182.6870958775552936
 20
119.7993717389461068
 30
0.0
 40
2.9184812619774898
 50
268.2776436448893946
 51
269.3858127231899857
  0
ARC
  5
11A5A
  8
0
 10
4182.3729073501872335
 20
117.0253457446551977
 30
0.0
 40
0.1036063188080772
 50
227.0978001869085006
 51
242.0070099201685991
  0
ARC
  5
11A5B
  8
0
 10
4182.654444224249346
 20
118.1791425307038992
 30
0.0
 40
1.2707206164792939
 50
263.9335729175705865
 51
270.0616518004792965
  0
ARC
  5
11A5C
  8
0
 10
4182.5984306436630504
 20
117.652087628340098
 30
0.0
 40
0.7406976063035301
 50
254.7497732847938039
 51
263.9335729175705865
  0
ARC
  5
11A5D
  8
0
 10
4182.4506568282222361
 20
117.1100680006976944
 30
0.0
 40
0.1788948141426712
 50
235.0933140033529867
 51
254.7497732847938039
  0
ARC
  5
11A5E
  8
0
 10
4182.3603339871742719
 20
116.9806254369371032
 30
0.0
 40
0.0210544107984779
 50
197.5807344531272065
 51
235.0933140033525035
  0
ARC
  5
11A5F
  8
0
 10
4182.3709652954366902
 20
116.965257012710893
 30
0.0
 40
0.0320268861809451
 50
127.0308046093607999
 51
163.651269581545904
  0
ARC
  5
11A60
  8
0
 10
4182.4330926316288242
 20
116.8829034124249944
 30
0.0
 40
0.1351865749273625
 50
106.5554547119723026
 51
127.0308046093607999
  0
ARC
  5
11A61
  8
0
 10
4182.5552780348771194
 20
116.5162738282187007
 30
0.0
 40
0.5215866701052696
 50
98.5333379315072335
 51
107.9453478318853996
  0
ARC
  5
11A62
  8
0
 10
4182.6485857047127865
 20
115.8944130100086056
 30
0.0
 40
1.1504087422967191
 50
92.8960741821902189
 51
98.5333379315072335
  0
ARC
  5
11A63
  8
0
 10
4182.6554455897012303
 20
115.758813005378002
 30
0.0
 40
1.286182153824317
 50
89.9836973442187542
 51
92.8960741821902189
  0
LINE
  5
11A64
  8
0
 10
4182.6721911906606692
 20
117.036387162766303
 30
0.0
 11
4182.6394319164619446
 21
117.036387162766303
 31
0.0
  0
LINE
  5
11A65
  8
0
 10
4182.6394319164619446
 20
117.036387162766303
 30
0.0
 11
4182.6177326152592286
 21
117.0444421371167039
 31
0.0
  0
LINE
  5
11A66
  8
0
 10
4182.6721911906606692
 20
117.0225008174662946
 30
0.0
 11
4182.6394319164619446
 21
117.0225008174662946
 31
0.0
  0
LINE
  5
11A67
  8
0
 10
4182.6721911906606692
 20
117.0086144721663004
 30
0.0
 11
4182.6394319164619446
 21
117.0086144721663004
 31
0.0
  0
LINE
  5
11A68
  8
0
 10
4182.6210479581613981
 20
117.0155576448663055
 30
0.0
 11
4182.6394319164619446
 21
117.0086144721663004
 31
0.0
  0
LINE
  5
11A69
  8
0
 10
4182.6394319164619446
 20
117.0225008174662946
 30
0.0
 11
4182.6210485660612903
 21
117.0294448758663037
 31
0.0
  0
LINE
  5
11A6A
  8
0
 10
4182.6210058984606803
 20
117.0293407199662994
 30
0.0
 11
4182.6394319164619446
 21
117.036387162766303
 31
0.0
  0
LINE
  5
11A6B
  8
0
 10
4182.6210479581613981
 20
117.0155576448663055
 30
0.0
 11
4182.6394319164619446
 21
117.0225008174662946
 31
0.0
  0
LINE
  5
11A6C
  8
0
 10
4182.672859297762443
 20
116.9948661141662996
 30
0.0
 11
4182.6387638093619898
 21
116.9948661141662996
 31
0.0
  0
LINE
  5
11A6D
  8
0
 10
4182.6387638093619898
 20
116.9948661141662996
 30
0.0
 11
4182.6210475036614298
 21
117.0016720907663057
 31
0.0
  0
LINE
  5
11A6E
  8
0
 10
4182.6210475036614298
 20
117.0016720907663057
 30
0.0
 11
4182.6394319164619446
 21
117.0086144721663004
 31
0.0
  0
LINE
  5
11A6F
  8
0
 10
4182.6721911906606692
 20
116.9808417816662995
 30
0.0
 11
4182.6394319164619446
 21
116.9808417816662995
 31
0.0
  0
LINE
  5
11A70
  8
0
 10
4182.6394319164619446
 20
116.9808417816662995
 30
0.0
 11
4182.6210479581613981
 21
116.9877849543663046
 31
0.0
  0
LINE
  5
11A71
  8
0
 10
4182.6210479581613981
 20
116.9877849543663046
 30
0.0
 11
4182.6387638093619898
 21
116.9948661141662996
 31
0.0
  0
LINE
  5
11A72
  8
0
 10
4182.6721951735762559
 20
116.9669547856311027
 30
0.0
 11
4182.6394313365617563
 21
116.9669560871662952
 31
0.0
  0
LINE
  5
11A73
  8
0
 10
4182.6394313365617563
 20
116.9669560871662952
 30
0.0
 11
4182.6210058984606803
 21
116.9737953388662959
 31
0.0
  0
LINE
  5
11A74
  8
0
 10
4182.6210058984606803
 20
116.9737953388662959
 30
0.0
 11
4182.6394319164619446
 21
116.9808417816662995
 31
0.0
  0
LINE
  5
11A75
  8
0
 10
4182.6210058984606803
 20
116.9599089936663034
 30
0.0
 11
4182.6394739761617529
 21
116.9529658209662983
 31
0.0
  0
LINE
  5
11A76
  8
0
 10
4182.6394739761617529
 20
116.9529658209662983
 30
0.0
 11
4182.6727079004858751
 21
116.9531758933612053
 31
0.0
  0
LINE
  5
11A77
  8
0
 10
4182.6394313365617563
 20
116.9669560871662952
 30
0.0
 11
4182.6210058984606803
 21
116.9599089936663034
 31
0.0
  0
LINE
  5
11A78
  8
0
 10
4182.6210058984606803
 20
116.946022648366295
 30
0.0
 11
4182.6394323441618326
 21
116.9391837722663041
 31
0.0
  0
LINE
  5
11A79
  8
0
 10
4182.6394323441618326
 20
116.9391837722663041
 30
0.0
 11
4182.6721907629616908
 21
116.9391837722663041
 31
0.0
  0
LINE
  5
11A7A
  8
0
 10
4182.6721911906506648
 20
116.9252964006662978
 30
0.0
 11
4182.6394319164719491
 21
116.9252964006662978
 31
0.0
  0
LINE
  5
11A7B
  8
0
 10
4182.6394319164719491
 20
116.9252964006662978
 30
0.0
 11
4182.6210058984606803
 21
116.9321363031663026
 31
0.0
  0
LINE
  5
11A7C
  8
0
 10
4182.6210058984606803
 20
116.9321363031663026
 30
0.0
 11
4182.6394323441618326
 21
116.9391837722663041
 31
0.0
  0
LINE
  5
11A7D
  8
0
 10
4182.6690402306139731
 20
116.9173530200915962
 30
0.0
 11
4182.6425845692283474
 21
116.9173850917799058
 31
0.0
  0
LINE
  5
11A7E
  8
0
 10
4182.6425845948997448
 20
116.9252964006662978
 30
0.0
 11
4182.6425828196761358
 21
116.9170903069096994
 31
0.0
  0
LINE
  5
11A7F
  8
0
 10
4182.6210475036614298
 20
116.9183540191663013
 30
0.0
 11
4182.6338078567614502
 21
116.9130358485662953
 31
0.0
  0
LINE
  5
11A80
  8
0
 10
4182.6210475036614298
 20
116.9183540191663013
 30
0.0
 11
4182.6394319164719491
 21
116.9252964006662978
 31
0.0
  0
LINE
  5
11A81
  8
0
 10
4182.6210058984606803
 20
116.946022648366295
 30
0.0
 11
4182.6394739761617529
 21
116.9529658209662983
 31
0.0
  0
LINE
  5
11A82
  8
0
 10
4182.6211641202689862
 20
117.029401226849501
 30
0.0
 11
4182.5864709918278095
 21
117.0294439900662979
 31
0.0
  0
LINE
  5
11A83
  8
0
 10
4182.5864709918278095
 20
117.0294439900662979
 30
0.0
 11
4182.5703156893614505
 21
117.0366698150162961
 31
0.0
  0
LINE
  5
11A84
  8
0
 10
4182.6210479581613981
 20
117.0155576448663055
 30
0.0
 11
4182.5864709918278095
 21
117.0155576447663037
 31
0.0
  0
LINE
  5
11A85
  8
0
 10
4182.6210475036614298
 20
117.0016720907663057
 30
0.0
 11
4182.5864709918278095
 21
117.0016712994662953
 31
0.0
  0
LINE
  5
11A86
  8
0
 10
4182.568087033529082
 20
117.0086144721663004
 30
0.0
 11
4182.5864709918278095
 21
117.0016712994662953
 31
0.0
  0
LINE
  5
11A87
  8
0
 10
4182.5864709918278095
 20
117.0155576447663037
 30
0.0
 11
4182.5680876414289742
 21
117.0225017031662986
 31
0.0
  0
LINE
  5
11A88
  8
0
 10
4182.5680449738292737
 20
117.0223975472662943
 30
0.0
 11
4182.5864709918278095
 21
117.0294439900662979
 31
0.0
  0
LINE
  5
11A89
  8
0
 10
4182.568087033529082
 20
117.0086144721663004
 30
0.0
 11
4182.5864709918278095
 21
117.0155576447663037
 31
0.0
  0
LINE
  5
11A8A
  8
0
 10
4182.5858028847287642
 20
116.9879229414662944
 30
0.0
 11
4182.5680865790291136
 21
116.9947289180663006
 31
0.0
  0
LINE
  5
11A8B
  8
0
 10
4182.5680865790291136
 20
116.9947289180663006
 30
0.0
 11
4182.5864709918278095
 21
117.0016712994662953
 31
0.0
  0
LINE
  5
11A8C
  8
0
 10
4182.5864709918278095
 20
116.9738986089662944
 30
0.0
 11
4182.568087033529082
 21
116.9808417816662995
 31
0.0
  0
LINE
  5
11A8D
  8
0
 10
4182.568087033529082
 20
116.9808417816662995
 30
0.0
 11
4182.5858028847287642
 21
116.9879229414662944
 31
0.0
  0
LINE
  5
11A8E
  8
0
 10
4182.6210058984606803
 20
116.9599089936663034
 30
0.0
 11
4182.5864704119294402
 21
116.9600129144663043
 31
0.0
  0
LINE
  5
11A8F
  8
0
 10
4182.5864704119294402
 20
116.9600129144663043
 30
0.0
 11
4182.5680449738292737
 21
116.966852166166305
 31
0.0
  0
LINE
  5
11A90
  8
0
 10
4182.5680449738292737
 20
116.966852166166305
 30
0.0
 11
4182.5864709918278095
 21
116.9738986089662944
 31
0.0
  0
LINE
  5
11A91
  8
0
 10
4182.5680449738292737
 20
116.9529658209662983
 30
0.0
 11
4182.5865130515294368
 21
116.9460226482662932
 31
0.0
  0
LINE
  5
11A92
  8
0
 10
4182.5865130515294368
 20
116.9460226482662932
 30
0.0
 11
4182.6210058984606803
 21
116.946022648366295
 31
0.0
  0
LINE
  5
11A93
  8
0
 10
4182.5864704119294402
 20
116.9600129144663043
 30
0.0
 11
4182.5680449738292737
 21
116.9529658209662983
 31
0.0
  0
LINE
  5
11A94
  8
0
 10
4182.5680449738292737
 20
116.9390794756663041
 30
0.0
 11
4182.5864714195286069
 21
116.932240599566299
 31
0.0
  0
LINE
  5
11A95
  8
0
 10
4182.5864714195286069
 20
116.932240599566299
 30
0.0
 11
4182.6210058984606803
 21
116.9321363031663026
 31
0.0
  0
LINE
  5
11A96
  8
0
 10
4182.6210475036614298
 20
116.9183540191663013
 30
0.0
 11
4182.5864709918387234
 21
116.9183532279663069
 31
0.0
  0
LINE
  5
11A97
  8
0
 10
4182.5864709918387234
 20
116.9183532279663069
 30
0.0
 11
4182.5680449738292737
 21
116.925193130466198
 31
0.0
  0
LINE
  5
11A98
  8
0
 10
4182.5680449738292737
 20
116.925193130466198
 30
0.0
 11
4182.5864714195286069
 21
116.932240599566299
 31
0.0
  0
LINE
  5
11A99
  8
0
 10
4182.5896236702674287
 20
116.9183532279663069
 30
0.0
 11
4182.5896218797333859
 21
116.9100763587503025
 31
0.0
  0
LINE
  5
11A9A
  8
0
 10
4182.5679719019772165
 20
116.9113675417464009
 30
0.0
 11
4182.5864709918387234
 21
116.9183532279663069
 31
0.0
  0
LINE
  5
11A9B
  8
0
 10
4182.5680449738292737
 20
116.9390794756663041
 30
0.0
 11
4182.5865130515294368
 21
116.9460226482662932
 31
0.0
  0
LINE
  5
11A9C
  8
0
 10
4182.5864709918278095
 20
116.9738986089662944
 30
0.0
 11
4182.6210058984606803
 21
116.9737953388662959
 31
0.0
  0
LINE
  5
11A9D
  8
0
 10
4182.5858028847287642
 20
116.9879229414662944
 30
0.0
 11
4182.6210479581613981
 21
116.9877849543663046
 31
0.0
  0
LINE
  5
11A9E
  8
0
 10
4182.5703156893614505
 20
117.0366698150162961
 30
0.0
 11
4182.5867566474107662
 21
117.0431590402632054
 31
0.0
  0
LINE
  5
11A9F
  8
0
 10
4182.5371454514106517
 20
117.036387162766303
 30
0.0
 11
4182.530729530663848
 21
117.0387688098328027
 31
0.0
  0
LINE
  5
11AA0
  8
0
 10
4182.5187614931119242
 20
117.0155576448663055
 30
0.0
 11
4182.5371454514106517
 21
117.0086144721663004
 31
0.0
  0
LINE
  5
11AA1
  8
0
 10
4182.5371454514106517
 20
117.0225008174662946
 30
0.0
 11
4182.5188776552186027
 21
117.029401226849501
 31
0.0
  0
LINE
  5
11AA2
  8
0
 10
4182.5188776552186027
 20
117.029401226849501
 30
0.0
 11
4182.5371454514106517
 21
117.036387162766303
 31
0.0
  0
LINE
  5
11AA3
  8
0
 10
4182.5187614931119242
 20
117.0155576448663055
 30
0.0
 11
4182.5371454514106517
 21
117.0225008174662946
 31
0.0
  0
LINE
  5
11AA4
  8
0
 10
4182.5364773443116064
 20
116.9948661141662996
 30
0.0
 11
4182.5187610386101369
 21
117.0016720907663057
 31
0.0
  0
LINE
  5
11AA5
  8
0
 10
4182.5187610386101369
 20
117.0016720907663057
 30
0.0
 11
4182.5371454514106517
 21
117.0086144721663004
 31
0.0
  0
LINE
  5
11AA6
  8
0
 10
4182.5371454514106517
 20
116.9808417816662995
 30
0.0
 11
4182.5187614931119242
 21
116.9877849543663046
 31
0.0
  0
LINE
  5
11AA7
  8
0
 10
4182.5187614931119242
 20
116.9877849543663046
 30
0.0
 11
4182.5364773443116064
 21
116.9948661141662996
 31
0.0
  0
LINE
  5
11AA8
  8
0
 10
4182.5371448715122824
 20
116.9669560871662952
 30
0.0
 11
4182.5187194334112064
 21
116.9737953388662959
 31
0.0
  0
LINE
  5
11AA9
  8
0
 10
4182.5187194334112064
 20
116.9737953388662959
 30
0.0
 11
4182.5371454514106517
 21
116.9808417816662995
 31
0.0
  0
LINE
  5
11AAA
  8
0
 10
4182.5187194334112064
 20
116.9599089936663034
 30
0.0
 11
4182.5371875111113695
 21
116.9529658209662983
 31
0.0
  0
LINE
  5
11AAB
  8
0
 10
4182.5371448715122824
 20
116.9669560871662952
 30
0.0
 11
4182.5187194334112064
 21
116.9599089936663034
 31
0.0
  0
LINE
  5
11AAC
  8
0
 10
4182.5187194334112064
 20
116.946022648366295
 30
0.0
 11
4182.5371458791123587
 21
116.9391837722663041
 31
0.0
  0
LINE
  5
11AAD
  8
0
 10
4182.5371454514215657
 20
116.9252964006662978
 30
0.0
 11
4182.5187194334112064
 21
116.9321363031663026
 31
0.0
  0
LINE
  5
11AAE
  8
0
 10
4182.5187194334112064
 20
116.9321363031663026
 30
0.0
 11
4182.5371458791123587
 21
116.9391837722663041
 31
0.0
  0
LINE
  5
11AAF
  8
0
 10
4182.5187610386101369
 20
116.9183540191663013
 30
0.0
 11
4182.5272888513281941
 21
116.9147998571050948
 31
0.0
  0
LINE
  5
11AB0
  8
0
 10
4182.5187610386101369
 20
116.9183540191663013
 30
0.0
 11
4182.5371454514215657
 21
116.9252964006662978
 31
0.0
  0
LINE
  5
11AB1
  8
0
 10
4182.5187194334112064
 20
116.946022648366295
 30
0.0
 11
4182.5371875111113695
 21
116.9529658209662983
 31
0.0
  0
LINE
  5
11AB2
  8
0
 10
4182.5188776552186027
 20
117.029401226849501
 30
0.0
 11
4182.4841845267792451
 21
117.0294439900662979
 31
0.0
  0
LINE
  5
11AB3
  8
0
 10
4182.4841845267792451
 20
117.0294439900662979
 30
0.0
 11
4182.4781589573958627
 21
117.0321278240774063
 31
0.0
  0
LINE
  5
11AB4
  8
0
 10
4182.5187614931119242
 20
117.0155576448663055
 30
0.0
 11
4182.4841845267792451
 21
117.0155576447663037
 31
0.0
  0
LINE
  5
11AB5
  8
0
 10
4182.5187610386101369
 20
117.0016720907663057
 30
0.0
 11
4182.4841845267792451
 21
117.0016712994662953
 31
0.0
  0
LINE
  5
11AB6
  8
0
 10
4182.4658005684786986
 20
117.0086144721663004
 30
0.0
 11
4182.4841845267792451
 21
117.0016712994662953
 31
0.0
  0
LINE
  5
11AB7
  8
0
 10
4182.4841845267792451
 20
117.0155576447663037
 30
0.0
 11
4182.4658011763804097
 21
117.0225017031662986
 31
0.0
  0
LINE
  5
11AB8
  8
0
 10
4182.4657585087779808
 20
117.0223975472662943
 30
0.0
 11
4182.4841845267792451
 21
117.0294439900662979
 31
0.0
  0
LINE
  5
11AB9
  8
0
 10
4182.4658005684786986
 20
117.0086144721663004
 30
0.0
 11
4182.4841845267792451
 21
117.0155576447663037
 31
0.0
  0
LINE
  5
11ABA
  8
0
 10
4182.4835164196783808
 20
116.9879229414662944
 30
0.0
 11
4182.4658001139787302
 21
116.9947289180663006
 31
0.0
  0
LINE
  5
11ABB
  8
0
 10
4182.4658001139787302
 20
116.9947289180663006
 30
0.0
 11
4182.4841845267792451
 21
117.0016712994662953
 31
0.0
  0
LINE
  5
11ABC
  8
0
 10
4182.4841845267792451
 20
116.9738986089662944
 30
0.0
 11
4182.4658005684786986
 21
116.9808417816662995
 31
0.0
  0
LINE
  5
11ABD
  8
0
 10
4182.4658005684786986
 20
116.9808417816662995
 30
0.0
 11
4182.4835164196783808
 21
116.9879229414662944
 31
0.0
  0
LINE
  5
11ABE
  8
0
 10
4182.5187194334112064
 20
116.9599089936663034
 30
0.0
 11
4182.4841839468781473
 21
116.9600129144663043
 31
0.0
  0
LINE
  5
11ABF
  8
0
 10
4182.4841839468781473
 20
116.9600129144663043
 30
0.0
 11
4182.4657585087779808
 21
116.966852166166305
 31
0.0
  0
LINE
  5
11AC0
  8
0
 10
4182.4657585087779808
 20
116.966852166166305
 30
0.0
 11
4182.4841845267792451
 21
116.9738986089662944
 31
0.0
  0
LINE
  5
11AC1
  8
0
 10
4182.4657585087779808
 20
116.9529658209662983
 30
0.0
 11
4182.4842265864790534
 21
116.9460226482662932
 31
0.0
  0
LINE
  5
11AC2
  8
0
 10
4182.4842265864790534
 20
116.9460226482662932
 30
0.0
 11
4182.5187194334112064
 21
116.946022648366295
 31
0.0
  0
LINE
  5
11AC3
  8
0
 10
4182.4841839468781473
 20
116.9600129144663043
 30
0.0
 11
4182.4657585087779808
 21
116.9529658209662983
 31
0.0
  0
LINE
  5
11AC4
  8
0
 10
4182.4657585087779808
 20
116.9390794756663041
 30
0.0
 11
4182.4841849544782235
 21
116.932240599566299
 31
0.0
  0
LINE
  5
11AC5
  8
0
 10
4182.4841849544782235
 20
116.932240599566299
 30
0.0
 11
4182.5187194334112064
 21
116.9321363031663026
 31
0.0
  0
LINE
  5
11AC6
  8
0
 10
4182.5187610386101369
 20
116.9183540191663013
 30
0.0
 11
4182.4971034138507093
 21
116.9183535235838036
 31
0.0
  0
LINE
  5
11AC7
  8
0
 10
4182.4750784690877481
 20
116.9217334779366979
 30
0.0
 11
4182.4657585087779808
 21
116.925193130466198
 31
0.0
  0
LINE
  5
11AC8
  8
0
 10
4182.4657585087779808
 20
116.925193130466198
 30
0.0
 11
4182.4841849544782235
 21
116.932240599566299
 31
0.0
  0
LINE
  5
11AC9
  8
0
 10
4182.4657585087779808
 20
116.9390794756663041
 30
0.0
 11
4182.4842265864790534
 21
116.9460226482662932
 31
0.0
  0
LINE
  5
11ACA
  8
0
 10
4182.4841845267792451
 20
116.9738986089662944
 30
0.0
 11
4182.5187194334112064
 21
116.9737953388662959
 31
0.0
  0
LINE
  5
11ACB
  8
0
 10
4182.4835164196783808
 20
116.9879229414662944
 30
0.0
 11
4182.5187614931119242
 21
116.9877849543663046
 31
0.0
  0
LINE
  5
11ACC
  8
0
 10
4182.4164750281106535
 20
117.0155576448663055
 30
0.0
 11
4182.4348589864112
 21
117.0086144721663004
 31
0.0
  0
LINE
  5
11ACD
  8
0
 10
4182.4348589864112
 20
117.0225008174662946
 30
0.0
 11
4182.4328032232497208
 21
117.0232773537964022
 31
0.0
  0
LINE
  5
11ACE
  8
0
 10
4182.4164750281106535
 20
117.0155576448663055
 30
0.0
 11
4182.4348589864112
 21
117.0225008174662946
 31
0.0
  0
LINE
  5
11ACF
  8
0
 10
4182.4341908793121547
 20
116.9948661141662996
 30
0.0
 11
4182.4164745736115947
 21
117.0016720907663057
 31
0.0
  0
LINE
  5
11AD0
  8
0
 10
4182.4164745736115947
 20
117.0016720907663057
 30
0.0
 11
4182.4348589864112
 21
117.0086144721663004
 31
0.0
  0
LINE
  5
11AD1
  8
0
 10
4182.4348589864112
 20
116.9808417816662995
 30
0.0
 11
4182.4164750281106535
 21
116.9877849543663046
 31
0.0
  0
LINE
  5
11AD2
  8
0
 10
4182.4164750281106535
 20
116.9877849543663046
 30
0.0
 11
4182.4341908793121547
 21
116.9948661141662996
 31
0.0
  0
LINE
  5
11AD3
  8
0
 10
4182.4348584065110117
 20
116.9669560871662952
 30
0.0
 11
4182.4164329684117547
 21
116.9737953388662959
 31
0.0
  0
LINE
  5
11AD4
  8
0
 10
4182.4164329684117547
 20
116.9737953388662959
 30
0.0
 11
4182.4348589864112
 21
116.9808417816662995
 31
0.0
  0
LINE
  5
11AD5
  8
0
 10
4182.4164329684117547
 20
116.9599089936663034
 30
0.0
 11
4182.4349010461119178
 21
116.9529658209662983
 31
0.0
  0
LINE
  5
11AD6
  8
0
 10
4182.4348584065110117
 20
116.9669560871662952
 30
0.0
 11
4182.4164329684117547
 21
116.9599089936663034
 31
0.0
  0
LINE
  5
11AD7
  8
0
 10
4182.4164329684117547
 20
116.946022648366295
 30
0.0
 11
4182.434859414111088
 21
116.9391837722663041
 31
0.0
  0
LINE
  5
11AD8
  8
0
 10
4182.4195280572566844
 20
116.9333200660773997
 30
0.0
 11
4182.434859414111088
 21
116.9391837722663041
 31
0.0
  0
LINE
  5
11AD9
  8
0
 10
4182.4164329684117547
 20
116.946022648366295
 30
0.0
 11
4182.4349010461119178
 21
116.9529658209662983
 31
0.0
  0
LINE
  5
11ADA
  8
0
 10
4182.4164750281106535
 20
117.0155576448663055
 30
0.0
 11
4182.4043862693633855
 21
117.0155576448313042
 31
0.0
  0
LINE
  5
11ADB
  8
0
 10
4182.4164745736115947
 20
117.0016720907663057
 30
0.0
 11
4182.3818980617788839
 21
117.0016712994662953
 31
0.0
  0
LINE
  5
11ADC
  8
0
 10
4182.3741895102193666
 20
117.0045826313934043
 30
0.0
 11
4182.3818980617788839
 21
117.0016712994662953
 31
0.0
  0
LINE
  5
11ADD
  8
0
 10
4182.3812299546798386
 20
116.9879229414662944
 30
0.0
 11
4182.363513648978369
 21
116.9947289180663006
 31
0.0
  0
LINE
  5
11ADE
  8
0
 10
4182.363513648978369
 20
116.9947289180663006
 30
0.0
 11
4182.3818980617788839
 21
117.0016712994662953
 31
0.0
  0
LINE
  5
11ADF
  8
0
 10
4182.3818980617788839
 20
116.9738986089662944
 30
0.0
 11
4182.3635141034792468
 21
116.9808417816662995
 31
0.0
  0
LINE
  5
11AE0
  8
0
 10
4182.3635141034792468
 20
116.9808417816662995
 30
0.0
 11
4182.3812299546798386
 21
116.9879229414662944
 31
0.0
  0
LINE
  5
11AE1
  8
0
 10
4182.4164329684117547
 20
116.9599089936663034
 30
0.0
 11
4182.381897481879605
 21
116.9600129144663043
 31
0.0
  0
LINE
  5
11AE2
  8
0
 10
4182.381897481879605
 20
116.9600129144663043
 30
0.0
 11
4182.3634720437794385
 21
116.966852166166305
 31
0.0
  0
LINE
  5
11AE3
  8
0
 10
4182.3634720437794385
 20
116.966852166166305
 30
0.0
 11
4182.3818980617788839
 21
116.9738986089662944
 31
0.0
  0
LINE
  5
11AE4
  8
0
 10
4182.369066523237052
 20
116.9508625464578984
 30
0.0
 11
4182.3819401214786922
 21
116.9460226482662932
 31
0.0
  0
LINE
  5
11AE5
  8
0
 10
4182.3819401214786922
 20
116.9460226482662932
 30
0.0
 11
4182.4164329684117547
 21
116.946022648366295
 31
0.0
  0
LINE
  5
11AE6
  8
0
 10
4182.381897481879605
 20
116.9600129144663043
 30
0.0
 11
4182.364422545612797
 21
116.9533293550795037
 31
0.0
  0
LINE
  5
11AE7
  8
0
 10
4182.38052814816092
 20
116.9454918093448015
 30
0.0
 11
4182.3819401214786922
 21
116.9460226482662932
 31
0.0
  0
LINE
  5
11AE8
  8
0
 10
4182.3818980617788839
 20
116.9738986089662944
 30
0.0
 11
4182.4164329684117547
 21
116.9737953388662959
 31
0.0
  0
LINE
  5
11AE9
  8
0
 10
4182.3812299546798386
 20
116.9879229414662944
 30
0.0
 11
4182.4164750281106535
 21
116.9877849543663046
 31
0.0
  0
LINE
  5
11AEA
  8
0
 10
4182.4348589864112
 20
117.0225008174662946
 30
0.0
 11
4182.4659167305871961
 21
117.0224580541494959
 31
0.0
  0
LINE
  5
11AEB
  8
0
 10
4182.4348589864112
 20
117.0086144721663004
 30
0.0
 11
4182.4658005684786986
 21
117.0086144721663004
 31
0.0
  0
LINE
  5
11AEC
  8
0
 10
4182.4341908793121547
 20
116.9948661141662996
 30
0.0
 11
4182.4658001139787302
 21
116.9947289180663006
 31
0.0
  0
LINE
  5
11AED
  8
0
 10
4182.4348589864112
 20
116.9808417816662995
 30
0.0
 11
4182.4658005684786986
 21
116.9808417816662995
 31
0.0
  0
LINE
  5
11AEE
  8
0
 10
4182.4348584065110117
 20
116.9669560871662952
 30
0.0
 11
4182.4657585087779808
 21
116.966852166166305
 31
0.0
  0
LINE
  5
11AEF
  8
0
 10
4182.4349010461119178
 20
116.9529658209662983
 30
0.0
 11
4182.4657585087779808
 21
116.9529658209662983
 31
0.0
  0
LINE
  5
11AF0
  8
0
 10
4182.4657585087779808
 20
116.9390794756663041
 30
0.0
 11
4182.434859414111088
 21
116.9391837722663041
 31
0.0
  0
LINE
  5
11AF1
  8
0
 10
4182.5371454514106517
 20
116.9808417816662995
 30
0.0
 11
4182.568087033529082
 21
116.9808417816662995
 31
0.0
  0
LINE
  5
11AF2
  8
0
 10
4182.5364773443116064
 20
116.9948661141662996
 30
0.0
 11
4182.5680865790291136
 21
116.9947289180663006
 31
0.0
  0
LINE
  5
11AF3
  8
0
 10
4182.5371454514106517
 20
117.0086144721663004
 30
0.0
 11
4182.568087033529082
 21
117.0086144721663004
 31
0.0
  0
LINE
  5
11AF4
  8
0
 10
4182.5371454514106517
 20
117.0225008174662946
 30
0.0
 11
4182.56820319563667
 21
117.0224580541494959
 31
0.0
  0
LINE
  5
11AF5
  8
0
 10
4182.5371454514106517
 20
117.036387162766303
 30
0.0
 11
4182.5703156893614505
 21
117.0366698150162961
 31
0.0
  0
LINE
  5
11AF6
  8
0
 10
4182.5371448715122824
 20
116.9669560871662952
 30
0.0
 11
4182.5680449738292737
 21
116.966852166166305
 31
0.0
  0
LINE
  5
11AF7
  8
0
 10
4182.5371875111113695
 20
116.9529658209662983
 30
0.0
 11
4182.5680449738292737
 21
116.9529658209662983
 31
0.0
  0
LINE
  5
11AF8
  8
0
 10
4182.5371458791123587
 20
116.9391837722663041
 30
0.0
 11
4182.5680449738292737
 21
116.9390794756663041
 31
0.0
  0
LINE
  5
11AF9
  8
0
 10
4182.5371454514215657
 20
116.9252964006662978
 30
0.0
 11
4182.5680449738292737
 21
116.925193130466198
 31
0.0
  0
ARC
  5
11AFA
  8
0
 10
4182.6364317521602061
 20
116.9188791802299932
 30
0.0
 40
0.0064059112814381
 50
245.6626754845632945
 51
343.7843420587229275
  0
LINE
  5
11AFB
  8
0
 10
4182.3635141034792468
 20
116.9808417816662995
 30
0.0
 11
4182.342986076248053
 21
116.9808417723158982
 31
0.0
  0
LINE
  5
11AFC
  8
0
 10
4182.3634720437794385
 20
116.966852166166305
 30
0.0
 11
4182.3443036956923606
 21
116.9669756029070982
 31
0.0
  0
LINE
  5
11AFD
  8
0
 10
4182.3635157082517253
 20
116.9947281269662938
 30
0.0
 11
4182.3571278815252299
 21
116.9947281269662938
 31
0.0
  0
ARC
  5
11AFE
  8
0
 10
4182.4228708087948689
 20
116.8467356603187994
 30
0.0
 40
0.1717453204628067
 50
108.561050563461194
 51
124.0109161930872972
  0
ARC
  5
11AFF
  8
0
 10
4182.5478794654518424
 20
116.4744429516682942
 30
0.0
 40
0.5644653545240664
 50
104.9797393913397059
 51
108.561050563461194
  0
ARC
  5
11B00
  8
0
 10
4182.5873372506011947
 20
116.2641354276993013
 30
0.0
 40
0.7779945830961023
 50
96.3700345090998667
 51
103.7834398862421068
  0
ARC
  5
11B01
  8
0
 10
4182.6471919626246745
 20
115.7769279078454048
 30
0.0
 40
1.2688465728504219
 50
92.0920461425868382
 51
96.6152266859276949
  0
ARC
  5
11B02
  8
0
 10
4182.6404691025181819
 20
116.4036940001665954
 30
0.0
 40
0.642456135468081
 50
88.6315933192111345
 51
93.5335378245137576
  0
ARC
  5
11B03
  8
0
 10
4182.4381224883636605
 20
117.0873035114067022
 30
0.0
 40
0.1702465390966177
 50
233.0524580555897103
 51
257.2932295543736245
  0
ARC
  5
11B04
  8
0
 10
4182.5943083664060396
 20
117.6538350210643955
 30
0.0
 40
0.757765873392531
 50
255.1948789589509943
 51
265.0227272855648266
  0
ARC
  5
11B05
  8
0
 10
4182.6541075623308643
 20
118.2119908817222012
 30
0.0
 40
1.3190523557897831
 50
264.5384945903928724
 51
270.0740164198213051
  0
ARC
  5
11B06
  8
0
 10
4182.3513353984635614
 20
116.9724453764657
 30
0.0
 40
0.026289155825095
 50
183.797314918917607
 51
233.7492548627249107
  0
ARC
  5
11B07
  8
0
 10
4182.3835094756686885
 20
116.9745808618787066
 30
0.0
 40
0.0585340242844763
 50
165.6373869890196033
 51
183.797314918917607
  0
ARC
  5
11B08
  8
0
 10
4182.358116491799592
 20
116.9972102429857017
 30
0.0
 40
0.051100756174601
 50
208.1809000109830947
 51
244.0931458920240971
  0
ARC
  5
11B09
  8
0
 10
4182.3513188884880947
 20
116.9541967379943941
 30
0.0
 40
0.0426523168797873
 50
125.0813887168110057
 51
153.7257627225613135
  0
LINE
  5
11B0A
  8
0
 10
4183.0239223366970691
 20
117.0175933223687963
 30
0.0
 11
4183.0239199293619095
 21
116.980269705266295
 31
0.0
  0
ARC
  5
11B0B
  8
0
 10
4182.9804349432060917
 20
116.9820734998455976
 30
0.0
 40
0.0435223456440815
 50
311.4506818141430813
 51
357.6258252022321926
  0
ARC
  5
11B0C
  8
0
 10
4182.7583144752070439
 20
117.4838229399650942
 30
0.0
 40
0.595745909836923
 50
279.3597560889759848
 51
292.6091617157225073
  0
ARC
  5
11B0D
  8
0
 10
4182.6986073296384347
 20
117.7708870448110048
 30
0.0
 40
0.8887826719327273
 50
270.8792490453328128
 51
280.1479456714570233
  0
ARC
  5
11B0E
  8
0
 10
4182.6245272295691393
 20
119.7993717389547044
 30
0.0
 40
2.9184812619860252
 50
270.6141872768100143
 51
271.7223563551104917
  0
ARC
  5
11B0F
  8
0
 10
4182.9387157569335614
 20
117.0253457446551977
 30
0.0
 40
0.1036063188080772
 50
297.9929900798778135
 51
312.9021998130921247
  0
ARC
  5
11B10
  8
0
 10
4182.6571788828741774
 20
118.1791425307038992
 30
0.0
 40
1.2707206164792939
 50
269.9383481995207035
 51
276.0664270824294135
  0
ARC
  5
11B11
  8
0
 10
4182.7131924634586539
 20
117.652087628340098
 30
0.0
 40
0.7406976063035301
 50
276.0664270824294135
 51
285.2502267152063951
  0
ARC
  5
11B12
  8
0
 10
4182.8609662789012873
 20
117.1100680006976944
 30
0.0
 40
0.1788948141426712
 50
285.2502267152063951
 51
304.9066859966475249
  0
ARC
  5
11B13
  8
0
 10
4182.9512891199492515
 20
116.9806254369371032
 30
0.0
 40
0.0210544107984779
 50
304.9066859966479228
 51
342.4192655468743283
  0
ARC
  5
11B14
  8
0
 10
4182.9406578116850142
 20
116.965257012710893
 30
0.0
 40
0.0320268861809451
 50
16.3487304184556699
 51
52.9691953906396904
  0
ARC
  5
11B15
  8
0
 10
4182.8785304754937897
 20
116.8829034124249944
 30
0.0
 40
0.1351865749273625
 50
52.9691953906396904
 51
73.444545288027939
  0
ARC
  5
11B16
  8
0
 10
4182.756345072244585
 20
116.5162738282187007
 30
0.0
 40
0.5215866701052696
 50
72.0546521681147851
 51
81.4666620684928944
  0
ARC
  5
11B17
  8
0
 10
4182.6630374024089178
 20
115.8944130100086056
 30
0.0
 40
1.1504087422967191
 50
81.4666620684928944
 51
87.1039258178097953
  0
ARC
  5
11B18
  8
0
 10
4182.656177517422293
 20
115.758813005378002
 30
0.0
 40
1.286182153824317
 50
87.1039258178097953
 51
90.0163026557812316
  0
LINE
  5
11B19
  8
0
 10
4182.6721911906606692
 20
117.036387162766303
 30
0.0
 11
4182.6938904918633853
 21
117.0444421371167039
 31
0.0
  0
LINE
  5
11B1A
  8
0
 10
4182.6905751489612157
 20
117.0155576448663055
 30
0.0
 11
4182.6721911906606692
 21
117.0086144721663004
 31
0.0
  0
LINE
  5
11B1B
  8
0
 10
4182.6721911906606692
 20
117.0225008174662946
 30
0.0
 11
4182.6905745410613235
 21
117.0294448758663037
 31
0.0
  0
LINE
  5
11B1C
  8
0
 10
4182.6906172086619335
 20
117.0293407199662994
 30
0.0
 11
4182.6721911906606692
 21
117.036387162766303
 31
0.0
  0
LINE
  5
11B1D
  8
0
 10
4182.6905751489612157
 20
117.0155576448663055
 30
0.0
 11
4182.6721911906606692
 21
117.0225008174662946
 31
0.0
  0
LINE
  5
11B1E
  8
0
 10
4182.672859297762443
 20
116.9948661141662996
 30
0.0
 11
4182.6905756034611841
 21
117.0016720907663057
 31
0.0
  0
LINE
  5
11B1F
  8
0
 10
4182.6905756034611841
 20
117.0016720907663057
 30
0.0
 11
4182.6721911906606692
 21
117.0086144721663004
 31
0.0
  0
LINE
  5
11B20
  8
0
 10
4182.6721911906606692
 20
116.9808417816662995
 30
0.0
 11
4182.6905751489612157
 21
116.9877849543663046
 31
0.0
  0
LINE
  5
11B21
  8
0
 10
4182.6905751489612157
 20
116.9877849543663046
 30
0.0
 11
4182.672859297762443
 21
116.9948661141662996
 31
0.0
  0
LINE
  5
11B22
  8
0
 10
4182.672191770561767
 20
116.9669560871662952
 30
0.0
 11
4182.6906172086619335
 21
116.9737953388662959
 31
0.0
  0
LINE
  5
11B23
  8
0
 10
4182.6906172086619335
 20
116.9737953388662959
 30
0.0
 11
4182.6721911906606692
 21
116.9808417816662995
 31
0.0
  0
LINE
  5
11B24
  8
0
 10
4182.6906172086619335
 20
116.9599089936663034
 30
0.0
 11
4182.6721491309608609
 21
116.9529658209662983
 31
0.0
  0
LINE
  5
11B25
  8
0
 10
4182.672191770561767
 20
116.9669560871662952
 30
0.0
 11
4182.6906172086619335
 21
116.9599089936663034
 31
0.0
  0
LINE
  5
11B26
  8
0
 10
4182.6906172086619335
 20
116.946022648366295
 30
0.0
 11
4182.6721907629616908
 21
116.9391837722663041
 31
0.0
  0
LINE
  5
11B27
  8
0
 10
4182.6721911906506648
 20
116.9252964006662978
 30
0.0
 11
4182.6906172086619335
 21
116.9321363031663026
 31
0.0
  0
LINE
  5
11B28
  8
0
 10
4182.6906172086619335
 20
116.9321363031663026
 30
0.0
 11
4182.6721907629616908
 21
116.9391837722663041
 31
0.0
  0
LINE
  5
11B29
  8
0
 10
4182.6690385122219595
 20
116.9252964006662978
 30
0.0
 11
4182.6690402874455685
 21
116.9170903069096994
 31
0.0
  0
LINE
  5
11B2A
  8
0
 10
4182.6905756034611841
 20
116.9183540191663013
 30
0.0
 11
4182.6778152503611636
 21
116.9130358485662953
 31
0.0
  0
LINE
  5
11B2B
  8
0
 10
4182.6905756034611841
 20
116.9183540191663013
 30
0.0
 11
4182.6721911906506648
 21
116.9252964006662978
 31
0.0
  0
LINE
  5
11B2C
  8
0
 10
4182.6906172086619335
 20
116.946022648366295
 30
0.0
 11
4182.6721491309608609
 21
116.9529658209662983
 31
0.0
  0
LINE
  5
11B2D
  8
0
 10
4182.6904589868527182
 20
117.029401226849501
 30
0.0
 11
4182.7251521152938949
 21
117.0294439900662979
 31
0.0
  0
LINE
  5
11B2E
  8
0
 10
4182.7251521152938949
 20
117.0294439900662979
 30
0.0
 11
4182.7413074177611634
 21
117.0366698150162961
 31
0.0
  0
LINE
  5
11B2F
  8
0
 10
4182.6905751489612157
 20
117.0155576448663055
 30
0.0
 11
4182.7251521152938949
 21
117.0155576447663037
 31
0.0
  0
LINE
  5
11B30
  8
0
 10
4182.6905756034611841
 20
117.0016720907663057
 30
0.0
 11
4182.7251521152938949
 21
117.0016712994662953
 31
0.0
  0
LINE
  5
11B31
  8
0
 10
4182.7435360735926224
 20
117.0086144721663004
 30
0.0
 11
4182.7251521152938949
 21
117.0016712994662953
 31
0.0
  0
LINE
  5
11B32
  8
0
 10
4182.7251521152938949
 20
117.0155576447663037
 30
0.0
 11
4182.7435354656927302
 21
117.0225017031662986
 31
0.0
  0
LINE
  5
11B33
  8
0
 10
4182.7435781332942497
 20
117.0223975472662943
 30
0.0
 11
4182.7251521152938949
 21
117.0294439900662979
 31
0.0
  0
LINE
  5
11B34
  8
0
 10
4182.7435360735926224
 20
117.0086144721663004
 30
0.0
 11
4182.7251521152938949
 21
117.0155576447663037
 31
0.0
  0
LINE
  5
11B35
  8
0
 10
4182.7258202223929402
 20
116.9879229414662944
 30
0.0
 11
4182.7435365280925907
 21
116.9947289180663006
 31
0.0
  0
LINE
  5
11B36
  8
0
 10
4182.7435365280925907
 20
116.9947289180663006
 30
0.0
 11
4182.7251521152938949
 21
117.0016712994662953
 31
0.0
  0
LINE
  5
11B37
  8
0
 10
4182.7251521152938949
 20
116.9738986089662944
 30
0.0
 11
4182.7435360735926224
 21
116.9808417816662995
 31
0.0
  0
LINE
  5
11B38
  8
0
 10
4182.7435360735926224
 20
116.9808417816662995
 30
0.0
 11
4182.7258202223929402
 21
116.9879229414662944
 31
0.0
  0
LINE
  5
11B39
  8
0
 10
4182.6906172086619335
 20
116.9599089936663034
 30
0.0
 11
4182.7251526951931737
 21
116.9600129144663043
 31
0.0
  0
LINE
  5
11B3A
  8
0
 10
4182.7251526951931737
 20
116.9600129144663043
 30
0.0
 11
4182.7435781332942497
 21
116.966852166166305
 31
0.0
  0
LINE
  5
11B3B
  8
0
 10
4182.7435781332942497
 20
116.966852166166305
 30
0.0
 11
4182.7251521152938949
 21
116.9738986089662944
 31
0.0
  0
LINE
  5
11B3C
  8
0
 10
4182.7435781332942497
 20
116.9529658209662983
 30
0.0
 11
4182.7251100555940866
 21
116.9460226482662932
 31
0.0
  0
LINE
  5
11B3D
  8
0
 10
4182.7251100555940866
 20
116.9460226482662932
 30
0.0
 11
4182.6906172086619335
 21
116.946022648366295
 31
0.0
  0
LINE
  5
11B3E
  8
0
 10
4182.7251526951931737
 20
116.9600129144663043
 30
0.0
 11
4182.7435781332942497
 21
116.9529658209662983
 31
0.0
  0
LINE
  5
11B3F
  8
0
 10
4182.7435781332942497
 20
116.9390794756663041
 30
0.0
 11
4182.7251516875940069
 21
116.932240599566299
 31
0.0
  0
LINE
  5
11B40
  8
0
 10
4182.7251516875940069
 20
116.932240599566299
 30
0.0
 11
4182.6906172086619335
 21
116.9321363031663026
 31
0.0
  0
LINE
  5
11B41
  8
0
 10
4182.6905756034611841
 20
116.9183540191663013
 30
0.0
 11
4182.725152115282981
 21
116.9183532279663069
 31
0.0
  0
LINE
  5
11B42
  8
0
 10
4182.725152115282981
 20
116.9183532279663069
 30
0.0
 11
4182.7435781332942497
 21
116.9251931304662975
 31
0.0
  0
LINE
  5
11B43
  8
0
 10
4182.7435781332942497
 20
116.9251931304662975
 30
0.0
 11
4182.7251516875940069
 21
116.932240599566299
 31
0.0
  0
LINE
  5
11B44
  8
0
 10
4182.7219994368551852
 20
116.9183532279663069
 30
0.0
 11
4182.7220012273901375
 21
116.9100763587503025
 31
0.0
  0
LINE
  5
11B45
  8
0
 10
4182.7436512051463069
 20
116.9113675417464009
 30
0.0
 11
4182.725152115282981
 21
116.9183532279663069
 31
0.0
  0
LINE
  5
11B46
  8
0
 10
4182.7435781332942497
 20
116.9390794756663041
 30
0.0
 11
4182.7251100555940866
 21
116.9460226482662932
 31
0.0
  0
LINE
  5
11B47
  8
0
 10
4182.7251521152938949
 20
116.9738986089662944
 30
0.0
 11
4182.6906172086619335
 21
116.9737953388662959
 31
0.0
  0
LINE
  5
11B48
  8
0
 10
4182.7258202223929402
 20
116.9879229414662944
 30
0.0
 11
4182.6905751489612157
 21
116.9877849543663046
 31
0.0
  0
LINE
  5
11B49
  8
0
 10
4182.7413074177611634
 20
117.0366698150162961
 30
0.0
 11
4182.7248664597127572
 21
117.0431590402632054
 31
0.0
  0
LINE
  5
11B4A
  8
0
 10
4182.7744776557110526
 20
117.036387162766303
 30
0.0
 11
4182.7808935764587659
 21
117.0387688098328027
 31
0.0
  0
LINE
  5
11B4B
  8
0
 10
4182.7928616140115992
 20
117.0155576448663055
 30
0.0
 11
4182.7744776557110526
 21
117.0086144721663004
 31
0.0
  0
LINE
  5
11B4C
  8
0
 10
4182.7744776557110526
 20
117.0225008174662946
 30
0.0
 11
4182.7927454519031016
 21
117.029401226849501
 31
0.0
  0
LINE
  5
11B4D
  8
0
 10
4182.7927454519031016
 20
117.029401226849501
 30
0.0
 11
4182.7744776557110526
 21
117.036387162766303
 31
0.0
  0
LINE
  5
11B4E
  8
0
 10
4182.7928616140115992
 20
117.0155576448663055
 30
0.0
 11
4182.7744776557110526
 21
117.0225008174662946
 31
0.0
  0
LINE
  5
11B4F
  8
0
 10
4182.7751457628110074
 20
116.9948661141662996
 30
0.0
 11
4182.792862068510658
 21
117.0016720907663057
 31
0.0
  0
LINE
  5
11B50
  8
0
 10
4182.792862068510658
 20
117.0016720907663057
 30
0.0
 11
4182.7744776557110526
 21
117.0086144721663004
 31
0.0
  0
LINE
  5
11B51
  8
0
 10
4182.7744776557110526
 20
116.9808417816662995
 30
0.0
 11
4182.7928616140115992
 21
116.9877849543663046
 31
0.0
  0
LINE
  5
11B52
  8
0
 10
4182.7928616140115992
 20
116.9877849543663046
 30
0.0
 11
4182.7751457628110074
 21
116.9948661141662996
 31
0.0
  0
LINE
  5
11B53
  8
0
 10
4182.774478235611241
 20
116.9669560871662952
 30
0.0
 11
4182.7929036737114075
 21
116.9737953388662959
 31
0.0
  0
LINE
  5
11B54
  8
0
 10
4182.7929036737114075
 20
116.9737953388662959
 30
0.0
 11
4182.7744776557110526
 21
116.9808417816662995
 31
0.0
  0
LINE
  5
11B55
  8
0
 10
4182.7929036737114075
 20
116.9599089936663034
 30
0.0
 11
4182.7744355960112443
 21
116.9529658209662983
 31
0.0
  0
LINE
  5
11B56
  8
0
 10
4182.774478235611241
 20
116.9669560871662952
 30
0.0
 11
4182.7929036737114075
 21
116.9599089936663034
 31
0.0
  0
LINE
  5
11B57
  8
0
 10
4182.7929036737114075
 20
116.946022648366295
 30
0.0
 11
4182.7744772280111647
 21
116.9391837722663041
 31
0.0
  0
LINE
  5
11B58
  8
0
 10
4182.7744776557001387
 20
116.9252964006662978
 30
0.0
 11
4182.7929036737114075
 21
116.9321363031663026
 31
0.0
  0
LINE
  5
11B59
  8
0
 10
4182.7929036737114075
 20
116.9321363031663026
 30
0.0
 11
4182.7744772280111647
 21
116.9391837722663041
 31
0.0
  0
LINE
  5
11B5A
  8
0
 10
4182.792862068510658
 20
116.9183540191663013
 30
0.0
 11
4182.7843342557953292
 21
116.9147998571050948
 31
0.0
  0
LINE
  5
11B5B
  8
0
 10
4182.792862068510658
 20
116.9183540191663013
 30
0.0
 11
4182.7744776557001387
 21
116.9252964006662978
 31
0.0
  0
LINE
  5
11B5C
  8
0
 10
4182.7929036737114075
 20
116.946022648366295
 30
0.0
 11
4182.7744355960112443
 21
116.9529658209662983
 31
0.0
  0
LINE
  5
11B5D
  8
0
 10
4182.7927454519031016
 20
117.029401226849501
 30
0.0
 11
4182.8274385803451878
 21
117.0294439900662979
 31
0.0
  0
LINE
  5
11B5E
  8
0
 10
4182.8274385803451878
 20
117.0294439900662979
 30
0.0
 11
4182.8334641497267512
 21
117.0321278240774063
 31
0.0
  0
LINE
  5
11B5F
  8
0
 10
4182.7928616140115992
 20
117.0155576448663055
 30
0.0
 11
4182.8274385803451878
 21
117.0155576447663037
 31
0.0
  0
LINE
  5
11B60
  8
0
 10
4182.792862068510658
 20
117.0016720907663057
 30
0.0
 11
4182.8274385803451878
 21
117.0016712994662953
 31
0.0
  0
LINE
  5
11B61
  8
0
 10
4182.8458225386439153
 20
117.0086144721663004
 30
0.0
 11
4182.8274385803451878
 21
117.0016712994662953
 31
0.0
  0
LINE
  5
11B62
  8
0
 10
4182.8274385803451878
 20
117.0155576447663037
 30
0.0
 11
4182.8458219307440231
 21
117.0225017031662986
 31
0.0
  0
LINE
  5
11B63
  8
0
 10
4182.8458645983437236
 20
117.0223975472662943
 30
0.0
 11
4182.8274385803451878
 21
117.0294439900662979
 31
0.0
  0
LINE
  5
11B64
  8
0
 10
4182.8458225386439153
 20
117.0086144721663004
 30
0.0
 11
4182.8274385803451878
 21
117.0155576447663037
 31
0.0
  0
LINE
  5
11B65
  8
0
 10
4182.8281066874433236
 20
116.9879229414662944
 30
0.0
 11
4182.8458229931438837
 21
116.9947289180663006
 31
0.0
  0
LINE
  5
11B66
  8
0
 10
4182.8458229931438837
 20
116.9947289180663006
 30
0.0
 11
4182.8274385803451878
 21
117.0016712994662953
 31
0.0
  0
LINE
  5
11B67
  8
0
 10
4182.8274385803451878
 20
116.9738986089662944
 30
0.0
 11
4182.8458225386439153
 21
116.9808417816662995
 31
0.0
  0
LINE
  5
11B68
  8
0
 10
4182.8458225386439153
 20
116.9808417816662995
 30
0.0
 11
4182.8281066874433236
 21
116.9879229414662944
 31
0.0
  0
LINE
  5
11B69
  8
0
 10
4182.7929036737114075
 20
116.9599089936663034
 30
0.0
 11
4182.8274391602426476
 21
116.9600129144663043
 31
0.0
  0
LINE
  5
11B6A
  8
0
 10
4182.8274391602426476
 20
116.9600129144663043
 30
0.0
 11
4182.8458645983437236
 21
116.966852166166305
 31
0.0
  0
LINE
  5
11B6B
  8
0
 10
4182.8458645983437236
 20
116.966852166166305
 30
0.0
 11
4182.8274385803451878
 21
116.9738986089662944
 31
0.0
  0
LINE
  5
11B6C
  8
0
 10
4182.8458645983437236
 20
116.9529658209662983
 30
0.0
 11
4182.827396520642651
 21
116.9460226482662932
 31
0.0
  0
LINE
  5
11B6D
  8
0
 10
4182.827396520642651
 20
116.9460226482662932
 30
0.0
 11
4182.7929036737114075
 21
116.946022648366295
 31
0.0
  0
LINE
  5
11B6E
  8
0
 10
4182.8274391602426476
 20
116.9600129144663043
 30
0.0
 11
4182.8458645983437236
 21
116.9529658209662983
 31
0.0
  0
LINE
  5
11B6F
  8
0
 10
4182.8458645983437236
 20
116.9390794756663041
 30
0.0
 11
4182.8274381526425714
 21
116.932240599566299
 31
0.0
  0
LINE
  5
11B70
  8
0
 10
4182.8274381526425714
 20
116.932240599566299
 30
0.0
 11
4182.7929036737114075
 21
116.9321363031663026
 31
0.0
  0
LINE
  5
11B71
  8
0
 10
4182.792862068510658
 20
116.9183540191663013
 30
0.0
 11
4182.814519693270995
 21
116.9183535235838036
 31
0.0
  0
LINE
  5
11B72
  8
0
 10
4182.8365446380348658
 20
116.9217334779366979
 30
0.0
 11
4182.8458645983437236
 21
116.9251931304662975
 31
0.0
  0
LINE
  5
11B73
  8
0
 10
4182.8458645983437236
 20
116.9251931304662975
 30
0.0
 11
4182.8274381526425714
 21
116.932240599566299
 31
0.0
  0
LINE
  5
11B74
  8
0
 10
4182.8458645983437236
 20
116.9390794756663041
 30
0.0
 11
4182.827396520642651
 21
116.9460226482662932
 31
0.0
  0
LINE
  5
11B75
  8
0
 10
4182.8274385803451878
 20
116.9738986089662944
 30
0.0
 11
4182.7929036737114075
 21
116.9737953388662959
 31
0.0
  0
LINE
  5
11B76
  8
0
 10
4182.8281066874433236
 20
116.9879229414662944
 30
0.0
 11
4182.7928616140115992
 21
116.9877849543663046
 31
0.0
  0
LINE
  5
11B77
  8
0
 10
4182.8951480790110509
 20
117.0155576448663055
 30
0.0
 11
4182.8767641207114139
 21
117.0086144721663004
 31
0.0
  0
LINE
  5
11B78
  8
0
 10
4182.8767641207114139
 20
117.0225008174662946
 30
0.0
 11
4182.8788198838738026
 21
117.0232773537964022
 31
0.0
  0
LINE
  5
11B79
  8
0
 10
4182.8951480790110509
 20
117.0155576448663055
 30
0.0
 11
4182.8767641207114139
 21
117.0225008174662946
 31
0.0
  0
LINE
  5
11B7A
  8
0
 10
4182.8774322278113686
 20
116.9948661141662996
 30
0.0
 11
4182.8951485335110192
 21
117.0016720907663057
 31
0.0
  0
LINE
  5
11B7B
  8
0
 10
4182.8951485335110192
 20
117.0016720907663057
 30
0.0
 11
4182.8767641207114139
 21
117.0086144721663004
 31
0.0
  0
LINE
  5
11B7C
  8
0
 10
4182.8767641207114139
 20
116.9808417816662995
 30
0.0
 11
4182.8951480790110509
 21
116.9877849543663046
 31
0.0
  0
LINE
  5
11B7D
  8
0
 10
4182.8951480790110509
 20
116.9877849543663046
 30
0.0
 11
4182.8774322278113686
 21
116.9948661141662996
 31
0.0
  0
LINE
  5
11B7E
  8
0
 10
4182.8767647006106927
 20
116.9669560871662952
 30
0.0
 11
4182.8951901387117687
 21
116.9737953388662959
 31
0.0
  0
LINE
  5
11B7F
  8
0
 10
4182.8951901387117687
 20
116.9737953388662959
 30
0.0
 11
4182.8767641207114139
 21
116.9808417816662995
 31
0.0
  0
LINE
  5
11B80
  8
0
 10
4182.8951901387117687
 20
116.9599089936663034
 30
0.0
 11
4182.8767220610116055
 21
116.9529658209662983
 31
0.0
  0
LINE
  5
11B81
  8
0
 10
4182.8767647006106927
 20
116.9669560871662952
 30
0.0
 11
4182.8951901387117687
 21
116.9599089936663034
 31
0.0
  0
LINE
  5
11B82
  8
0
 10
4182.8951901387117687
 20
116.946022648366295
 30
0.0
 11
4182.8767636930124354
 21
116.9391837722663041
 31
0.0
  0
LINE
  5
11B83
  8
0
 10
4182.8920950498659295
 20
116.9333200660773997
 30
0.0
 11
4182.8767636930124354
 21
116.9391837722663041
 31
0.0
  0
LINE
  5
11B84
  8
0
 10
4182.8951901387117687
 20
116.946022648366295
 30
0.0
 11
4182.8767220610116055
 21
116.9529658209662983
 31
0.0
  0
LINE
  5
11B85
  8
0
 10
4182.8951480790110509
 20
117.0155576448663055
 30
0.0
 11
4182.9072368377610474
 21
117.0155576448313042
 31
0.0
  0
LINE
  5
11B86
  8
0
 10
4182.8951485335110192
 20
117.0016720907663057
 30
0.0
 11
4182.9297250453428205
 21
117.0016712994662953
 31
0.0
  0
LINE
  5
11B87
  8
0
 10
4182.9374335969041567
 20
117.0045826313935038
 30
0.0
 11
4182.9297250453428205
 21
117.0016712994662953
 31
0.0
  0
LINE
  5
11B88
  8
0
 10
4182.9303931524427753
 20
116.9879229414662944
 30
0.0
 11
4182.9481094581442449
 21
116.9947289180663006
 31
0.0
  0
LINE
  5
11B89
  8
0
 10
4182.9481094581442449
 20
116.9947289180663006
 30
0.0
 11
4182.9297250453428205
 21
117.0016712994662953
 31
0.0
  0
LINE
  5
11B8A
  8
0
 10
4182.9297250453428205
 20
116.9738986089662944
 30
0.0
 11
4182.9481090036442765
 21
116.9808417816662995
 31
0.0
  0
LINE
  5
11B8B
  8
0
 10
4182.9481090036442765
 20
116.9808417816662995
 30
0.0
 11
4182.9303931524427753
 21
116.9879229414662944
 31
0.0
  0
LINE
  5
11B8C
  8
0
 10
4182.8951901387117687
 20
116.9599089936663034
 30
0.0
 11
4182.9297256252439183
 21
116.9600129144663043
 31
0.0
  0
LINE
  5
11B8D
  8
0
 10
4182.9297256252439183
 20
116.9600129144663043
 30
0.0
 11
4182.9481510633440848
 21
116.966852166166305
 31
0.0
  0
LINE
  5
11B8E
  8
0
 10
4182.9481510633440848
 20
116.966852166166305
 30
0.0
 11
4182.9297250453428205
 21
116.9738986089662944
 31
0.0
  0
LINE
  5
11B8F
  8
0
 10
4182.9425565838846524
 20
116.9508625464578984
 30
0.0
 11
4182.9296829856430122
 21
116.9460226482662932
 31
0.0
  0
LINE
  5
11B90
  8
0
 10
4182.9296829856430122
 20
116.9460226482662932
 30
0.0
 11
4182.8951901387117687
 21
116.946022648366295
 31
0.0
  0
LINE
  5
11B91
  8
0
 10
4182.9297256252439183
 20
116.9600129144663043
 30
0.0
 11
4182.9472005615089074
 21
116.9533293550795037
 31
0.0
  0
LINE
  5
11B92
  8
0
 10
4182.9310949589607844
 20
116.9454918093448015
 30
0.0
 11
4182.9296829856430122
 21
116.9460226482662932
 31
0.0
  0
LINE
  5
11B93
  8
0
 10
4182.9297250453428205
 20
116.9738986089662944
 30
0.0
 11
4182.8951901387117687
 21
116.9737953388662959
 31
0.0
  0
LINE
  5
11B94
  8
0
 10
4182.9303931524427753
 20
116.9879229414662944
 30
0.0
 11
4182.8951480790110509
 21
116.9877849543663046
 31
0.0
  0
LINE
  5
11B95
  8
0
 10
4182.8767641207114139
 20
117.0225008174662946
 30
0.0
 11
4182.8457063765354178
 21
117.0224580541494959
 31
0.0
  0
LINE
  5
11B96
  8
0
 10
4182.8767641207114139
 20
117.0086144721663004
 30
0.0
 11
4182.8458225386439153
 21
117.0086144721663004
 31
0.0
  0
LINE
  5
11B97
  8
0
 10
4182.8774322278113686
 20
116.9948661141662996
 30
0.0
 11
4182.8458229931438837
 21
116.9947289180663006
 31
0.0
  0
LINE
  5
11B98
  8
0
 10
4182.8767641207114139
 20
116.9808417816662995
 30
0.0
 11
4182.8458225386439153
 21
116.9808417816662995
 31
0.0
  0
LINE
  5
11B99
  8
0
 10
4182.8767647006106927
 20
116.9669560871662952
 30
0.0
 11
4182.8458645983437236
 21
116.966852166166305
 31
0.0
  0
LINE
  5
11B9A
  8
0
 10
4182.8767220610116055
 20
116.9529658209662983
 30
0.0
 11
4182.8458645983437236
 21
116.9529658209662983
 31
0.0
  0
LINE
  5
11B9B
  8
0
 10
4182.8458645983437236
 20
116.9390794756663041
 30
0.0
 11
4182.8767636930124354
 21
116.9391837722663041
 31
0.0
  0
LINE
  5
11B9C
  8
0
 10
4182.7744776557110526
 20
116.9808417816662995
 30
0.0
 11
4182.7435360735926224
 21
116.9808417816662995
 31
0.0
  0
LINE
  5
11B9D
  8
0
 10
4182.7751457628110074
 20
116.9948661141662996
 30
0.0
 11
4182.7435365280925907
 21
116.9947289180663006
 31
0.0
  0
LINE
  5
11B9E
  8
0
 10
4182.7744776557110526
 20
117.0086144721663004
 30
0.0
 11
4182.7435360735926224
 21
117.0086144721663004
 31
0.0
  0
LINE
  5
11B9F
  8
0
 10
4182.7744776557110526
 20
117.0225008174662946
 30
0.0
 11
4182.7434199114859439
 21
117.0224580541494959
 31
0.0
  0
LINE
  5
11BA0
  8
0
 10
4182.7744776557110526
 20
117.036387162766303
 30
0.0
 11
4182.7413074177611634
 21
117.0366698150162961
 31
0.0
  0
LINE
  5
11BA1
  8
0
 10
4182.774478235611241
 20
116.9669560871662952
 30
0.0
 11
4182.7435781332942497
 21
116.966852166166305
 31
0.0
  0
LINE
  5
11BA2
  8
0
 10
4182.7744355960112443
 20
116.9529658209662983
 30
0.0
 11
4182.7435781332942497
 21
116.9529658209662983
 31
0.0
  0
LINE
  5
11BA3
  8
0
 10
4182.7744772280111647
 20
116.9391837722663041
 30
0.0
 11
4182.7435781332942497
 21
116.9390794756663041
 31
0.0
  0
LINE
  5
11BA4
  8
0
 10
4182.7744776557001387
 20
116.9252964006662978
 30
0.0
 11
4182.7435781332942497
 21
116.9251931304662975
 31
0.0
  0
ARC
  5
11BA5
  8
0
 10
4182.6751913549633173
 20
116.9188791802299932
 30
0.0
 40
0.0064059112814381
 50
196.2156579412778967
 51
294.3373245154371034
  0
LINE
  5
11BA6
  8
0
 10
4182.9481090036442765
 20
116.9808417816662995
 30
0.0
 11
4182.9686370308745609
 21
116.9808417723158982
 31
0.0
  0
LINE
  5
11BA7
  8
0
 10
4182.9481510633440848
 20
116.966852166166305
 30
0.0
 11
4182.9673194114320722
 21
116.9669756029070982
 31
0.0
  0
LINE
  5
11BA8
  8
0
 10
4182.9481073988699791
 20
116.9947281269662938
 30
0.0
 11
4182.954495225597384
 21
116.9947281269662938
 31
0.0
  0
ARC
  5
11BA9
  8
0
 10
4182.8887522983268354
 20
116.8467356603187994
 30
0.0
 40
0.1717453204628067
 50
55.9890838069131931
 51
71.4389494365387634
  0
ARC
  5
11BAA
  8
0
 10
4182.7637436416707715
 20
116.4744429516682942
 30
0.0
 40
0.5644653545240664
 50
71.4389494365387634
 51
75.0202606086604646
  0
ARC
  5
11BAB
  8
0
 10
4182.7242858565214192
 20
116.2641354276993013
 30
0.0
 40
0.7779945830961023
 50
76.2165601137581064
 51
83.6299654909001475
  0
ARC
  5
11BAC
  8
0
 10
4182.6644311444970299
 20
115.7769279078454048
 30
0.0
 40
1.2688465728504219
 50
83.384773314124061
 51
87.9079538574132044
  0
ARC
  5
11BAD
  8
0
 10
4182.671154004604432
 20
116.4036940001665954
 30
0.0
 40
0.642456135468081
 50
86.4664621754862281
 51
91.3684066807888513
  0
ARC
  5
11BAE
  8
0
 10
4182.8735006187589534
 20
117.0873035114067022
 30
0.0
 40
0.1702465390966177
 50
282.7067704456266029
 51
306.9475419444112845
  0
ARC
  5
11BAF
  8
0
 10
4182.7173147407156648
 20
117.6538350210643955
 30
0.0
 40
0.757765873392531
 50
274.9772727144351734
 51
284.8051210410491763
  0
ARC
  5
11BB0
  8
0
 10
4182.6575155447908401
 20
118.2119908817222012
 30
0.0
 40
1.3190523557897831
 50
269.9259835801785812
 51
275.4615054096070139
  0
ARC
  5
11BB1
  8
0
 10
4182.9602877086581429
 20
116.9724453764657
 30
0.0
 40
0.026289155825095
 50
306.2507451372756009
 51
356.2026850810839278
  0
ARC
  5
11BB2
  8
0
 10
4182.9281136314530158
 20
116.9745808618787066
 30
0.0
 40
0.0585340242844763
 50
356.2026850810839278
 51
14.3626130109811605
  0
ARC
  5
11BB3
  8
0
 10
4182.9535066153221123
 20
116.9972102429857017
 30
0.0
 40
0.051100756174601
 50
295.9068541079761872
 51
331.8190999890175021
  0
ARC
  5
11BB4
  8
0
 10
4182.9603042186354287
 20
116.9541967379943941
 30
0.0
 40
0.0426523168797873
 50
26.2742372774394717
 51
54.9186112831894775
  0
LINE
  5
11BB5
  8
0
 10
4182.6558115535608522
 20
115.6170725959418064
 30
0.0
 11
4182.6558115535608522
 21
115.5816246796663052
 31
0.0
  0
ENDSEC
  0
EOF
