  0
SECTION
  2
HEADER
  9
$ACADVER
  1
AC1009
  9
$INSBASE
 10
4147.8713131840186179
 20
147.4816644544825124
 30
0.0
  9
$EXTMIN
 10
4138.8571617837296799
 20
146.2255924388555002
 30
-0.0000000000000058
  9
$EXTMAX
 10
4148.0359081136348323
 20
149.0493745056710111
 30
0.0000000000000104
  9
$LIMMIN
 10
0.0
 20
0.0
  9
$LIMMAX
 10
11.6929133858000007
 20
8.2677165353999982
  9
$ORTHOMODE
 70
     0
  9
$REGENMODE
 70
     1
  9
$FILLMODE
 70
     1
  9
$QTEXTMODE
 70
     0
  9
$MIRRTEXT
 70
     0
  9
$DRAGMODE
 70
     2
  9
$LTSCALE
 40
0.6431102362
  9
$OSMODE
 70
   575
  9
$ATTMODE
 70
     1
  9
$TEXTSIZE
 40
0.2
  9
$TRACEWID
 40
0.05
  9
$TEXTSTYLE
  7
STANDARD
  9
$CLAYER
  8
0
  9
$CELTYPE
  6
BYLAYER
  9
$CECOLOR
 62
   256
  9
$DIMSCALE
 40
1.0
  9
$DIMASZ
 40
0.1875
  9
$DIMEXO
 40
0.0625
  9
$DIMDLI
 40
0.4443307087
  9
$DIMRND
 40
0.0
  9
$DIMDLE
 40
0.0
  9
$DIMEXE
 40
0.125
  9
$DIMTP
 40
0.01
  9
$DIMTM
 40
0.01
  9
$DIMTXT
 40
2.0
  9
$DIMCEN
 40
0.1052362205
  9
$DIMTSZ
 40
0.0
  9
$DIMTOL
 70
     1
  9
$DIMLIM
 70
     0
  9
$DIMTIH
 70
     1
  9
$DIMTOH
 70
     1
  9
$DIMSE1
 70
     0
  9
$DIMSE2
 70
     0
  9
$DIMTAD
 70
     0
  9
$DIMZIN
 70
     0
  9
$DIMBLK
  1

  9
$DIMASO
 70
     1
  9
$DIMSHO
 70
     1
  9
$DIMPOST
  1
\X
  9
$DIMAPOST
  1

  9
$DIMALT
 70
     1
  9
$DIMALTD
 70
     2
  9
$DIMALTF
 40
25.3999999999999986
  9
$DIMLFAC
 40
1.0
  9
$DIMTOFL
 70
     0
  9
$DIMTVP
 40
0.0
  9
$DIMTIX
 70
     0
  9
$DIMSOXD
 70
     0
  9
$DIMSAH
 70
     0
  9
$DIMBLK1
  1

  9
$DIMBLK2
  1

  9
$DIMSTYLE
  2
STANDARD
  9
$DIMCLRD
 70
     0
  9
$DIMCLRE
 70
     0
  9
$DIMCLRT
 70
     0
  9
$DIMTFAC
 40
1.0
  9
$DIMGAP
 40
0.09
  9
$LUNITS
 70
     2
  9
$LUPREC
 70
     4
  9
$SKETCHINC
 40
0.1
  9
$FILLETRAD
 40
0.0
  9
$AUNITS
 70
     0
  9
$AUPREC
 70
     0
  9
$MENU
  1
.
  9
$ELEVATION
 40
0.0
  9
$PELEVATION
 40
0.0
  9
$THICKNESS
 40
0.0
  9
$LIMCHECK
 70
     0
  9
$BLIPMODE
 70
     0
  9
$CHAMFERA
 40
0.0
  9
$CHAMFERB
 40
0.0
  9
$SKPOLY
 70
     0
  9
$TDCREATE
 40
2458060.468368056230247
  9
$TDUPDATE
 40
2459494.5243518520146608
  9
$TDINDWG
 40
0.4064538194
  9
$TDUSRTIMER
 40
0.4064538194
  9
$USRTIMER
 70
     1
  9
$ANGBASE
 50
0.0
  9
$ANGDIR
 70
     0
  9
$PDMODE
 70
     0
  9
$PDSIZE
 40
0.3125
  9
$PLINEWID
 40
0.0
  9
$COORDS
 70
     0
  9
$SPLFRAME
 70
     0
  9
$SPLINETYPE
 70
     6
  9
$SPLINESEGS
 70
     8
  9
$ATTDIA
 70
     1
  9
$ATTREQ
 70
     1
  9
$HANDLING
 70
     1
  9
$HANDSEED
  5
1625A
  9
$SURFTAB1
 70
     6
  9
$SURFTAB2
 70
     6
  9
$SURFTYPE
 70
     6
  9
$SURFU
 70
     6
  9
$SURFV
 70
     6
  9
$UCSNAME
  2

  9
$UCSORG
 10
0.0
 20
0.0
 30
0.0
  9
$UCSXDIR
 10
1.0
 20
0.0
 30
0.0
  9
$UCSYDIR
 10
0.0
 20
1.0
 30
0.0
  9
$PUCSNAME
  2

  9
$PUCSORG
 10
0.0
 20
0.0
 30
0.0
  9
$PUCSXDIR
 10
1.0
 20
0.0
 30
0.0
  9
$PUCSYDIR
 10
0.0
 20
1.0
 30
0.0
  9
$USERI1
 70
     0
  9
$USERI2
 70
     0
  9
$USERI3
 70
     0
  9
$USERI4
 70
     0
  9
$USERI5
 70
     0
  9
$USERR1
 40
0.0
  9
$USERR2
 40
0.0
  9
$USERR3
 40
0.0
  9
$USERR4
 40
0.0
  9
$USERR5
 40
0.0
  9
$WORLDVIEW
 70
     1
  9
$SHADEDGE
 70
     3
  9
$SHADEDIF
 70
    70
  9
$TILEMODE
 70
     1
  9
$MAXACTVP
 70
    64
  9
$PLIMCHECK
 70
     0
  9
$PEXTMIN
 10
1.0000000000000000E+20
 20
1.0000000000000000E+20
 30
1.0000000000000000E+20
  9
$PEXTMAX
 10
-1.0000000000000000E+20
 20
-1.0000000000000000E+20
 30
-1.0000000000000000E+20
  9
$PLIMMIN
 10
0.0
 20
0.0
  9
$PLIMMAX
 10
12.0
 20
9.0
  9
$UNITMODE
 70
     0
  9
$VISRETAIN
 70
     1
  9
$PLINEGEN
 70
     0
  9
$PSLTSCALE
 70
     1
  0
ENDSEC
  0
SECTION
  2
TABLES
  0
TABLE
  2
VPORT
 70
     1
  0
VPORT
  2
*ACTIVE
 70
     0
 10
0.0
 20
0.0
 11
1.0
 21
1.0
 12
232.0811785033702108
 22
15.0578783697242198
 13
0.0
 23
0.0
 14
1.0
 24
1.0
 15
0.0
 25
0.0
 16
0.0
 26
0.0
 36
60.4960186965801583
 17
3911.3653564453120453
 27
132.5796051025390057
 37
0.0
 40
3.6166938948926761
 41
2.5476973684210522
 42
50.0
 43
0.0
 44
0.0
 50
0.0
 51
0.0
 71
     0
 72
   100
 73
     1
 74
     1
 75
     1
 76
     0
 77
     0
 78
     0
  0
ENDTAB
  0
TABLE
  2
LTYPE
 70
     2
  0
LTYPE
  2
CONTINUOUS
 70
     0
  3
Solid line
 72
    65
 73
     0
 40
0.0
  0
LTYPE
  2
PHANTOM2
 70
     0
  3
___ _ _ ___ _ _ ___ _ _ ___ _ _
 72
    65
 73
     6
 40
1.25
 49
0.625
 49
-0.125
 49
0.125
 49
-0.125
 49
0.125
 49
-0.125
  0
ENDTAB
  0
TABLE
  2
LAYER
 70
     2
  0
LAYER
  2
0
 70
     0
 62
   255
  6
CONTINUOUS
  0
LAYER
  2
DEFPOINTS
 70
     0
 62
     7
  6
CONTINUOUS
  0
ENDTAB
  0
TABLE
  2
STYLE
 70
     1
  0
STYLE
  2
STANDARD
 70
     0
 40
0.0
 41
0.8
 50
0.0
 71
     0
 42
0.2
  3
txt
  4

  0
ENDTAB
  0
TABLE
  2
VIEW
 70
     0
  0
ENDTAB
  0
TABLE
  2
UCS
 70
     0
  0
ENDTAB
  0
TABLE
  2
APPID
 70
    11
  0
APPID
  2
ACAD
 70
     0
  0
APPID
  2
ACAD_MLEADERVER
 70
     0
  0
APPID
  2
ACAD_EXEMPT_FROM_CAD_STANDARDS
 70
     0
  0
APPID
  2
ACAD_NAV_VCDISPLAY
 70
     0
  0
APPID
  2
ACAECLAYERSTANDARD
 70
     0
  0
APPID
  2
ACCMTRANSPARENCY
 70
     0
  0
APPID
  2
ACAD_DSTYLE_DIMJAG
 70
     0
  0
APPID
  2
ACAD_DSTYLE_DIMTALN
 70
     0
  0
APPID
  2
ACDBATTR
 70
     0
  0
APPID
  2
ACADANNOTATIVE
 70
     0
  0
APPID
  2
DCO15
 70
     0
  0
ENDTAB
  0
TABLE
  2
DIMSTYLE
 70
     1
  0
DIMSTYLE
  2
STANDARD
 70
     0
  3

  4

  5

  6

  7

 40
1.0
 41
0.1875
 42
0.0625
 43
0.38
 44
0.125
 45
0.0
 46
0.0
 47
0.01
 48
0.01
140
0.15625
141
0.09
142
0.0
143
25.3999999999999986
144
1.0
145
0.0
146
1.0
147
0.09
 71
     1
 72
     0
 73
     1
 74
     1
 75
     0
 76
     0
 77
     0
 78
     4
170
     0
171
     2
172
     0
173
     0
174
     0
175
     0
176
     0
177
     0
178
     0
  0
ENDTAB
  0
ENDSEC
  0
SECTION
  2
BLOCKS
  0
BLOCK
  8
0
  2
$MODEL_SPACE
 70
     0
 10
0.0
 20
0.0
 30
0.0
  3
$MODEL_SPACE
  1

  0
ENDBLK
  5
21
  8
0
  0
BLOCK
 67
     1
  8
0
  2
$PAPER_SPACE
 70
     0
 10
0.0
 20
0.0
 30
0.0
  3
$PAPER_SPACE
  1

  0
ENDBLK
  5
1D
 67
     1
  8
0
  0
ENDSEC
  0
SECTION
  2
ENTITIES
  0
ATTDEF
  5
13E9C
  8
DEFPOINTS
 10
4147.8714814026634485
 20
147.4850193594851078
 30
0.0
 40
0.001
  1
K-72286D
  3

  2
MODELNUMBER
 70
     0
1001
ACDBATTR
1070
     0
1070
     1
  0
ATTDEF
  5
13E9D
  8
DEFPOINTS
 10
4147.8714246163463031
 20
147.4833526928184142
 30
0.0
 40
0.001
  1
ALEO
  3

  2
TRADENAME
 70
     0
1001
ACDBATTR
1070
     0
1070
     1
  0
ATTDEF
  5
13E9E
  8
DEFPOINTS
 10
4147.8714814026634485
 20
147.4816860261516922
 30
0.0
 40
0.001
  1
BATH AND SHOWER FAUCET
  3

  2
PRODUCT
 70
     0
1001
ACDBATTR
1070
     0
1070
     1
  0
LINE
  5
1603A
  8
0
 10
4145.1938182839194269
 20
146.7928577947288034
 30
0.0
 11
4146.0386360187194441
 21
146.7928577947288034
 31
0.0
  0
LINE
  5
1603B
  8
0
 10
4146.0976912512187482
 20
146.8420460563287975
 30
0.0
 11
4146.6311557037179227
 21
146.8420460563287975
 31
0.0
  0
LINE
  5
1603C
  8
0
 10
4147.2994163884195586
 20
146.3008474496288045
 30
0.0
 11
4147.8713131840186179
 21
146.2907147137397033
 31
0.0
  0
LINE
  5
1603D
  8
0
 10
4146.6311557037179227
 20
146.7337783397287865
 30
0.0
 11
4147.1833674600184168
 21
146.7241394477287884
 31
0.0
  0
LINE
  5
1603E
  8
0
 10
4146.078006097420257
 20
147.0585814893287875
 30
0.0
 11
4146.0386360187194441
 21
147.0585814893287875
 31
0.0
  0
LINE
  5
1603F
  8
0
 10
4146.0976912512187482
 20
147.2357468437288048
 30
0.0
 11
4146.4913919242189877
 21
147.235746843678811
 31
0.0
  0
LINE
  5
16040
  8
0
 10
4145.1253519159199641
 20
147.3240537594288071
 30
0.0
 11
4145.1323036962903643
 21
147.3240537593383976
 31
0.0
  0
LINE
  5
16041
  8
0
 10
4145.1323142200626535
 20
147.6395658554299928
 30
0.0
 11
4145.1253519159199641
 21
147.6395659122287896
 31
0.0
  0
LINE
  5
16042
  8
0
 10
4146.4913919241616895
 20
147.7278728280033988
 30
0.0
 11
4146.0976912512187482
 21
147.7278728279287918
 31
0.0
  0
LINE
  5
16043
  8
0
 10
4146.078006097420257
 20
147.9050381822287932
 30
0.0
 11
4146.0386360187194441
 21
147.9050381822287932
 31
0.0
  0
LINE
  5
16044
  8
0
 10
4146.6311557037179227
 20
148.2298413318287942
 30
0.0
 11
4147.1833674600184168
 21
148.2394802239288083
 31
0.0
  0
LINE
  5
16045
  8
0
 10
4147.2994163884195586
 20
148.6627722220287922
 30
0.0
 11
4147.8713131840186179
 21
148.6726141952252931
 31
0.0
  0
LINE
  5
16046
  8
0
 10
4146.0976912512187482
 20
148.1215736153287992
 30
0.0
 11
4146.6311557037179227
 21
148.1215736153287992
 31
0.0
  0
LINE
  5
16047
  8
0
 10
4146.0780060974193475
 20
146.8617312065287877
 30
0.0
 11
4146.0976912512187482
 21
146.8420460563287975
 31
0.0
  0
LINE
  5
16048
  8
0
 10
4145.1135415077187645
 20
147.6277553383498002
 30
0.0
 11
4145.1135415156186355
 21
147.3358643333288001
 31
0.0
  0
LINE
  5
16049
  8
0
 10
4146.0386360187194441
 20
146.7928577947288034
 30
0.0
 11
4146.0386360187194441
 21
148.1707618769287933
 31
0.0
  0
LINE
  5
1604A
  8
0
 10
4146.0780060974193475
 20
148.101888465028793
 30
0.0
 11
4146.0780060974193475
 21
146.8617312065287877
 31
0.0
  0
LINE
  5
1604B
  8
0
 10
4146.0976912512187482
 20
148.1215736153287992
 30
0.0
 11
4146.0976912512187482
 21
147.7278728279287918
 31
0.0
  0
LINE
  5
1604C
  8
0
 10
4146.0976912512187482
 20
147.2357468437288048
 30
0.0
 11
4146.0976912512187482
 21
146.8420460563287975
 31
0.0
  0
LINE
  5
1604D
  8
0
 10
4145.220717443266949
 20
147.3099207429270052
 30
0.0
 11
4145.2208975692674358
 21
147.3103941312270138
 31
0.0
  0
LINE
  5
1604E
  8
0
 10
4146.0780060974193475
 20
148.101888465028793
 30
0.0
 11
4146.0976912512187482
 21
148.1215736153287992
 31
0.0
  0
LINE
  5
1604F
  8
0
 10
4146.6311557037179227
 20
148.2298413318287942
 30
0.0
 11
4146.6311557037179227
 21
146.7337783397287865
 31
0.0
  0
LINE
  5
16050
  8
0
 10
4147.2413919242189877
 20
148.6037260982288046
 30
0.0
 11
4147.2413919242189877
 21
146.3598998916287997
 31
0.0
  0
LINE
  5
16051
  8
0
 10
4147.8713131840186179
 20
146.2907147137397033
 30
0.0
 11
4147.8713131840186179
 21
148.6726141952252931
 31
0.0
  0
ARC
  5
16052
  8
0
 10
4144.050448809180125
 20
147.483802759423213
 30
0.0
 40
1.179125262671223
 50
351.5423418821220025
 51
359.9008956724571249
  0
ARC
  5
16053
  8
0
 10
4144.2744200119868765
 20
147.4741143644338024
 30
0.0
 40
0.9605332275332784
 50
350.1861767186520069
 51
351.4069185945427876
  0
ARC
  5
16054
  8
0
 10
4144.0735706357318122
 20
147.4809247855608874
 30
0.0
 40
1.1560019762985241
 50
0.0415565051604482
 51
8.4972813486236802
  0
ARC
  5
16055
  8
0
 10
4144.1909416944236
 20
147.4825488505807982
 30
0.0
 40
1.0439806698877709
 50
8.2873359265892752
 51
9.4021431517357783
  0
ARC
  5
16056
  8
0
 10
4144.2658239699330807
 20
147.4818554584435901
 30
0.0
 40
0.9838822535647616
 50
8.8842176205054582
 51
88.3522830999863089
  0
ARC
  5
16057
  8
0
 10
4144.2658239699330807
 20
147.4818554584435901
 30
0.0
 40
0.9838822535647616
 50
91.6477169000137053
 51
351.2176833858779901
  0
ARC
  5
16058
  8
0
 10
4145.1323126738188876
 20
147.6513776610287891
 30
0.0
 40
0.0118118057
 50
270.0075003955632269
 51
9.4816894136053111
  0
ARC
  5
16059
  8
0
 10
4145.1323022350197789
 20
147.3122420398287886
 30
0.0
 40
0.0118117196
 50
350.5168481946943189
 51
89.9929117328707662
  0
ARC
  5
1605A
  8
0
 10
4146.7714227844180641
 20
149.8962264052742057
 30
0.0
 40
4.462859280544734
 50
220.8879157399771884
 51
223.2452475541340107
  0
ARC
  5
1605B
  8
0
 10
4147.1823368061186557
 20
148.2985263476288083
 30
0.0
 40
0.0590551181
 50
271.0000000001841727
 51
0.0
  0
ARC
  5
1605C
  8
0
 10
4147.1823368061186557
 20
146.6650933239288008
 30
0.0
 40
0.0590551181
 50
0.0
 51
88.9999999998158273
  0
ARC
  5
1605D
  8
0
 10
4147.3004470425703403
 20
146.3598935739136948
 30
0.0
 40
0.0590551186892444
 50
179.9938704989926066
 51
268.9999997659095925
  0
ARC
  5
1605E
  8
0
 10
4147.3004470423193197
 20
148.6037260982288046
 30
0.0
 40
0.0590551181
 50
91.0000000001841869
 51
180.0
  0
LINE
  5
1605F
  8
0
 10
4145.2208975819667103
 20
147.6530965237269868
 30
0.0
 11
4145.2192560809671704
 21
147.6569497258271042
 31
0.0
  0
LINE
  5
16060
  8
0
 10
4145.2192561260671937
 20
147.3065412483269938
 30
0.0
 11
4145.220717443266949
 21
147.3099207429270052
 31
0.0
  0
LINE
  5
16061
  8
0
 10
4145.2167508785305472
 20
147.3103788046230136
 30
0.0
 11
4145.2167705761657999
 21
147.3075918544271019
 31
0.0
  0
LINE
  5
16062
  8
0
 10
4145.216770229467329
 20
147.6559010021269955
 30
0.0
 11
4145.2167567777669319
 21
147.653053147826995
 31
0.0
  0
LINE
  5
16063
  8
0
 10
4145.2167567777669319
 20
147.653053147826995
 30
0.0
 11
4145.2168830346672621
 21
147.6517385076269875
 31
0.0
  0
LINE
  5
16064
  8
0
 10
4146.0976912512187482
 20
147.7278728279287918
 30
0.0
 11
4146.0780060974193475
 21
147.6708750307930131
 31
0.0
  0
LINE
  5
16065
  8
0
 10
4146.0976912512187482
 20
147.2357468437288048
 30
0.0
 11
4146.0780060974193475
 21
147.2927299539288128
 31
0.0
  0
ARC
  5
16066
  8
0
 10
4145.2149179497109799
 20
146.1307840345446039
 30
0.0
 40
0.6624098880760798
 50
91.825344615302285
 51
120.4624501589808006
  0
LINE
  5
16067
  8
0
 10
4145.1938182839194269
 20
148.1707618769287933
 30
0.0
 11
4146.0386360187194441
 21
148.1707618769287933
 31
0.0
  0
ARC
  5
16068
  8
0
 10
4145.2103662410881952
 20
148.775249557012188
 30
0.0
 40
0.6047141392914895
 50
245.9115016826067972
 51
268.4319095317486017
  0
ARC
  5
16069
  8
0
 10
4139.9893058205134366
 20
148.6831834564355006
 30
0.0
 40
1.0046770567083421
 50
194.8469303595327062
 51
227.4192213642961917
  0
ARC
  5
1606A
  8
0
 10
4139.0486162400329704
 20
148.4338308912317075
 30
0.0
 40
0.0315
 50
90.0007694972661056
 51
194.8694660542259101
  0
ARC
  5
1606B
  8
0
 10
4141.6069377598332721
 20
145.6856604158045059
 30
0.0
 40
2.181787170178215
 50
43.9483324594455169
 51
56.5785712501301035
  0
ARC
  5
1606C
  8
0
 10
4142.0235530961990662
 20
146.2774142090389091
 30
0.0
 40
1.458578645096988
 50
57.4345883478183907
 51
87.5742891524768652
  0
ARC
  5
1606D
  8
0
 10
4140.9913431331287939
 20
133.6176713942593892
 30
0.0
 40
14.1593364553805792
 50
85.5689427485768732
 51
90.3802801140147665
  0
ARC
  5
1606E
  8
0
 10
4140.84898736951709
 20
145.5955493238089105
 30
0.0
 40
2.1816831251274751
 50
88.7293585000650751
 51
104.7489120358144987
  0
ARC
  5
1606F
  8
0
 10
4144.5137712063669824
 20
134.1369114717475099
 30
0.0
 40
13.9076755732026491
 50
88.7123207823858593
 51
93.4770172488827029
  0
ARC
  5
16070
  8
0
 10
4144.514043578285964
 20
134.1318929309800012
 30
0.0
 40
13.8536995487272296
 50
88.7199619813916343
 51
93.4766868099433736
  0
ARC
  5
16071
  8
0
 10
4144.5140817047067685
 20
134.131059631658303
 30
0.0
 40
13.8457336404308293
 50
88.7209434135471184
 51
93.4767000065451441
  0
ARC
  5
16072
  8
0
 10
4143.6881074002549212
 20
147.5387675247687866
 30
0.0
 40
0.4805485468604762
 50
92.1241032519315581
 51
103.5039452071355015
  0
ARC
  5
16073
  8
0
 10
4143.6884381744721395
 20
147.5369801899607864
 30
0.0
 40
0.4233642680697905
 50
91.9649282775801424
 51
103.5248729906450933
  0
ARC
  5
16074
  8
0
 10
4143.6884818013431868
 20
147.5367811577218049
 30
0.0
 40
0.4147673817215621
 50
91.9401011864332389
 51
103.4866663753934972
  0
ARC
  5
16075
  8
0
 10
4143.6533232513911571
 20
147.6774756177671009
 30
0.0
 40
0.3375557116459117
 50
103.2608039100311004
 51
127.9640937868409054
  0
ARC
  5
16076
  8
0
 10
4143.6533232513911571
 20
147.6774756177671009
 30
0.0
 40
0.2785557116459117
 50
103.2608039100311004
 51
127.9640937868409054
  0
ARC
  5
16077
  8
0
 10
4143.6533327500637824
 20
147.6774602909715952
 30
0.0
 40
0.2697736385186037
 50
103.1955427078012946
 51
127.9636817973025984
  0
ARC
  5
16078
  8
0
 10
4143.6152321101735652
 20
147.7377423980391882
 30
0.0
 40
0.2667021822641244
 50
129.4773743071258139
 51
154.7096018209811064
  0
ARC
  5
16079
  8
0
 10
4143.6156508814801782
 20
147.7375113019733135
 30
0.0
 40
0.2081746061665734
 50
129.9547447589146998
 51
154.7542436603038993
  0
ARC
  5
1607A
  8
0
 10
4143.6157558571076152
 20
147.7374468169435886
 30
0.0
 40
0.1994970593719327
 50
130.0537541367770018
 51
154.7495122569756063
  0
ARC
  5
1607B
  8
0
 10
4144.1696449164983278
 20
147.5120843151190115
 30
0.0
 40
0.8650022055157668
 50
156.883978135446398
 51
173.7747101745125917
  0
ARC
  5
1607C
  8
0
 10
4144.1721366716610646
 20
147.5115918363061098
 30
0.0
 40
0.808537430009745
 50
157.0934594978135124
 51
173.8113382399610032
  0
ARC
  5
1607D
  8
0
 10
4144.1722461086510521
 20
147.5116081992765942
 30
0.0
 40
0.7998391894468666
 50
157.1231108989371137
 51
173.7552587808613112
  0
ARC
  5
1607E
  8
0
 10
4144.328798231635119
 20
147.4818371076426047
 30
0.0
 40
1.026576910231904
 50
173.0597031277679889
 51
184.9980907525001044
  0
ARC
  5
1607F
  8
0
 10
4144.3287981684989063
 20
147.4818371120082929
 30
0.0
 40
0.9675768470322216
 50
173.0597029438617085
 51
184.9982615045296939
  0
ARC
  5
16080
  8
0
 10
4144.3293613370460662
 20
147.4818569123430052
 30
0.0
 40
0.9593395996040239
 50
173.0096144730030119
 51
184.9965091186377038
  0
ARC
  5
16081
  8
0
 10
4144.3349197629204355
 20
147.4828576318720081
 30
0.0
 40
1.032764188782076
 50
185.0249044433890901
 51
194.2617418118576893
  0
ARC
  5
16082
  8
0
 10
4144.3343109476772952
 20
147.4827793933652913
 30
0.0
 40
0.9731508677067097
 50
185.0252501960588916
 51
194.2527744485969947
  0
ARC
  5
16083
  8
0
 10
4144.3343110965588494
 20
147.482779424863196
 30
0.0
 40
0.9643510197606161
 50
185.025497565552314
 51
194.2527740617587142
  0
ARC
  5
16084
  8
0
 10
4143.8485376532426017
 20
147.3408395067465051
 30
0.0
 40
0.5266872716161385
 50
192.3228167758958023
 51
206.5025885723632939
  0
ARC
  5
16085
  8
0
 10
4143.8509867641059827
 20
147.3418769566573019
 30
0.0
 40
0.4703419942897399
 50
192.111850054889203
 51
206.4825547132471115
  0
ARC
  5
16086
  8
0
 10
4143.8513449161491735
 20
147.3420286708197864
 30
0.0
 40
0.4619302200125153
 50
192.0801518929922054
 51
206.4792068422765112
  0
ARC
  5
16087
  8
0
 10
4143.6088682322897512
 20
147.2206455531917868
 30
0.0
 40
0.2585692922479815
 50
206.3666190674742893
 51
236.1744207839610965
  0
ARC
  5
16088
  8
0
 10
4143.6088922462404298
 20
147.2206626186504934
 30
0.0
 40
0.1995985990905757
 50
206.3277551308009095
 51
236.0521718696091966
  0
ARC
  5
16089
  8
0
 10
4143.6088967854848306
 20
147.2206658526166905
 30
0.0
 40
0.1908041445043424
 50
206.3199575745053949
 51
236.0293098001025953
  0
ARC
  5
1608A
  8
0
 10
4143.6541878469270159
 20
147.2922423192578094
 30
0.0
 40
0.3432823128872107
 50
236.5427654704704992
 51
251.3897807484624991
  0
ARC
  5
1608B
  8
0
 10
4143.6541982466351328
 20
147.2922583142662063
 30
0.0
 40
0.2843012496618068
 50
236.5355137993996948
 51
251.4316809749469996
  0
ARC
  5
1608C
  8
0
 10
4143.6541833173541818
 20
147.2922321957790075
 30
0.0
 40
0.2754712285976185
 50
236.535121206580186
 51
251.3858116264474063
  0
ARC
  5
1608D
  8
0
 10
4143.6761239372972341
 20
147.3527815388673048
 30
0.0
 40
0.4076591039974123
 50
251.1832721605391043
 51
266.9506000834566066
  0
ARC
  5
1608E
  8
0
 10
4143.6761264045208009
 20
147.3527908281149053
 30
0.0
 40
0.3486686925667253
 50
251.1833823100560892
 51
266.9281000020060901
  0
ARC
  5
1608F
  8
0
 10
4143.6761273431766313
 20
147.3528103952299944
 30
0.0
 40
0.3398880826142096
 50
251.1397080459398126
 51
266.952479022309717
  0
ARC
  5
16090
  8
0
 10
4144.6521568035650489
 20
165.6411578971375889
 30
0.0
 40
18.7220619037050504
 50
266.9451983836876821
 51
270.2349836609075169
  0
ARC
  5
16091
  8
0
 10
4144.5429625954893709
 20
163.4452498992754954
 30
0.0
 40
16.4644573397499983
 50
266.9169278191325247
 51
271.1288564870529854
  0
ARC
  5
16092
  8
0
 10
4144.5429613971882645
 20
163.4435024815064139
 30
0.0
 40
16.4539121287818908
 50
266.9171019532304854
 51
271.1283533475138938
  0
ARC
  5
16093
  8
0
 10
4144.7128609814562878
 20
149.0253278266388861
 30
0.0
 40
2.1061357586490539
 50
270.4374276760403859
 51
274.2640558300972771
  0
ARC
  5
16094
  8
0
 10
4144.854589267863048
 20
147.3002888592496049
 30
0.0
 40
0.3755614320727532
 50
272.2690902278617955
 51
299.1790819634682066
  0
ARC
  5
16095
  8
0
 10
4144.8546185300720026
 20
147.3002180769009897
 30
0.0
 40
0.31648536557677
 50
272.3016332283395968
 51
299.1804492501660775
  0
ARC
  5
16096
  8
0
 10
4144.8546185300720026
 20
147.3002180769009897
 30
0.0
 40
0.30768536557677
 50
272.3016332283395968
 51
299.1804492501660775
  0
ARC
  5
16097
  8
0
 10
4144.8792440563292985
 20
147.223246859997289
 30
0.0
 40
0.2967094401755177
 50
302.2770194558154913
 51
330.0521749563753815
  0
ARC
  5
16098
  8
0
 10
4144.877302837418938
 20
147.2248439216837994
 30
0.0
 40
0.2402153992830368
 50
303.2252984704842902
 51
329.5957695003219214
  0
ARC
  5
16099
  8
0
 10
4144.8772932924721317
 20
147.2246992230311946
 30
0.0
 40
0.2313225886221141
 50
303.4006612059907866
 51
330.0127914841226016
  0
ARC
  5
1609A
  8
0
 10
4144.5421112305439237
 20
147.3976599960778913
 30
0.0
 40
0.6761155736116872
 50
331.5077782181401744
 51
352.1722845820896168
  0
ARC
  5
1609B
  8
0
 10
4144.5421112305439237
 20
147.3976599960778913
 30
0.0
 40
0.6171155736116872
 50
331.5077782181401744
 51
352.1722845820896168
  0
ARC
  5
1609C
  8
0
 10
4144.5463407486413416
 20
147.39568585119099
 30
0.0
 40
0.6036814401415387
 50
331.6563405015281774
 51
351.8683220805182259
  0
ARC
  5
1609D
  8
0
 10
4144.512858715065704
 20
147.5605287257029943
 30
0.0
 40
0.7058490024936411
 50
7.7044256278163674
 51
24.9888177095456285
  0
ARC
  5
1609E
  8
0
 10
4144.512613626023267
 20
147.5604763735273082
 30
0.0
 40
0.6470988978402282
 50
7.7061227118802362
 51
24.9151739982171705
  0
ARC
  5
1609F
  8
0
 10
4144.5201795551965915
 20
147.5632871991209925
 30
0.0
 40
0.6302479270510782
 50
8.2132870180964836
 51
25.0500702660827983
  0
ARC
  5
160A0
  8
0
 10
4144.8308374253610964
 20
147.7035421114127871
 30
0.0
 40
0.3572523651569932
 50
25.7428491731087306
 51
43.9925895111307383
  0
ARC
  5
160A1
  8
0
 10
4144.8308892807590382
 20
147.7035724195945079
 30
0.0
 40
0.2981924924728747
 50
25.7420828072757786
 51
44.0180163703675333
  0
ARC
  5
160A2
  8
0
 10
4144.8306382283653875
 20
147.7033658427716034
 30
0.0
 40
0.289716577801477
 50
25.9496923358235492
 51
44.0128945304963821
  0
ARC
  5
160A3
  8
0
 10
4144.8946755532488169
 20
147.7571514713224872
 30
0.0
 40
0.2741508813977775
 50
45.1989035186199786
 51
75.274038324584339
  0
ARC
  5
160A4
  8
0
 10
4144.8945712683489546
 20
147.7568945342979987
 30
0.0
 40
0.2154256925609718
 50
45.5891532295238591
 51
75.2534532823503639
  0
ARC
  5
160A5
  8
0
 10
4144.8945511204947252
 20
147.7568452934779089
 30
0.0
 40
0.2066784402603178
 50
45.6616038739869126
 51
75.2511114493506312
  0
ARC
  5
160A6
  8
0
 10
4144.8232849335881838
 20
147.5019586068162027
 30
0.0
 40
0.5391247446368718
 50
74.8301664820251915
 51
89.6785755126885959
  0
ARC
  5
160A7
  8
0
 10
4144.8226773203377888
 20
147.498852121752094
 30
0.0
 40
0.483283945853164
 50
74.7978657833547516
 51
89.8999010999686305
  0
ARC
  5
160A8
  8
0
 10
4144.822590999354361
 20
147.4984158681787108
 30
0.0
 40
0.4749278609603377
 50
74.7929951016720764
 51
89.9331995217101507
  0
ARC
  5
160A9
  8
0
 10
4144.1215589309513234
 20
147.4816429244241931
 30
0.0
 40
1.1044915005096601
 50
350.8273810361844198
 51
9.0385168119081545
  0
ARC
  5
160AA
  8
0
 10
4144.1202303105037572
 20
147.4816436346895046
 30
0.0
 40
1.0468201556943011
 50
350.7631414691971941
 51
9.1022463469152992
  0
ARC
  5
160AB
  8
0
 10
4145.1253505814847813
 20
147.6277568384433039
 30
0.0
 40
0.0118090738608992
 50
89.9935255330212556
 51
180.0072783212075933
  0
ARC
  5
160AC
  8
0
 10
4145.1253505445192786
 20
147.3358627883499139
 30
0.0
 40
0.0118090290007135
 50
179.9925039753042881
 51
270.0066538451148972
  0
ARC
  5
160AD
  8
0
 10
4145.2277316454355969
 20
147.3075396525159135
 30
0.0
 40
0.0109611935737796
 50
179.7271318602437873
 51
194.9495168605375
  0
ARC
  5
160AE
  8
0
 10
4145.2116129997020835
 20
147.310006991477394
 30
0.0
 40
0.0083921842335742
 50
319.2878794341062871
 51
335.6082862633097079
  0
ARC
  5
160AF
  8
0
 10
4145.2176027682771746
 20
147.3048316754999973
 30
0.0
 40
0.0004765845361941
 50
194.5411696614457071
 51
321.2107846015488235
  0
ARC
  5
160B0
  8
0
 10
4145.228566283390137
 20
147.6558984872067981
 30
0.0
 40
0.0117960541916091
 50
166.4209323179325111
 51
179.9877845323487122
  0
ARC
  5
160B1
  8
0
 10
4145.2121055163097481
 20
147.6538241535529039
 30
0.0
 40
0.0078038309152596
 50
23.6105453092490585
 51
40.6823014255274487
  0
ARC
  5
160B2
  8
0
 10
4145.2176427138301733
 20
147.6584819365546082
 30
0.0
 40
0.0005737702345953
 50
48.4286756885905803
 51
161.0729039631503952
  0
LINE
  5
160B3
  8
0
 10
4143.6403188450885864
 20
148.2404077681287902
 30
0.0
 11
4139.0874601141313178
 21
148.2404077681287902
 31
0.0
  0
ARC
  5
160B4
  8
0
 10
4145.7789229236313986
 20
147.4818098358803127
 30
0.0
 40
0.7537632737212476
 50
340.946797585501713
 51
19.0532023951112599
  0
LINE
  5
160B5
  8
0
 10
4146.4913919242189877
 20
147.7278728278407129
 30
0.0
 11
4146.4913919242189877
 21
147.235746843678811
 31
0.0
  0
LINE
  5
160B6
  8
0
 10
4139.3095121997412207
 20
147.943415505363987
 30
0.0
 11
4140.2935666574194329
 21
147.7053476769787892
 31
0.0
  0
LINE
  5
160B7
  8
0
 10
4140.2607586747189998
 20
147.7112594722788117
 30
0.0
 11
4139.3423703277194363
 21
147.9334409964787937
 31
0.0
  0
LINE
  5
160B8
  8
0
 10
4139.3696195327283931
 20
147.9288740111176139
 30
0.0
 11
4139.3691566545048772
 21
147.9269607020231945
 31
0.0
  0
LINE
  5
160B9
  8
0
 10
4140.234435226115238
 20
147.7196530757605046
 30
0.0
 11
4140.2339723479099121
 21
147.7177397667398964
 31
0.0
  0
LINE
  5
160BA
  8
0
 10
4139.3423703277194363
 20
147.9334409964787937
 30
0.0
 11
4139.2729386014179909
 21
147.6464446380788047
 31
0.0
  0
LINE
  5
160BB
  8
0
 10
4139.2729386014179909
 20
147.6464446380788047
 30
0.0
 11
4139.301939033047347
 21
147.5989318991846062
 31
0.0
  0
LINE
  5
160BC
  8
0
 10
4139.301939033047347
 20
147.5989318991846062
 30
0.0
 11
4140.1438032037185621
 21
147.3952520906312031
 31
0.0
  0
LINE
  5
160BD
  8
0
 10
4140.1438032037185621
 20
147.3952520906312031
 30
0.0
 11
4140.1913269484202829
 21
147.4242631138787942
 31
0.0
  0
LINE
  5
160BE
  8
0
 10
4140.1913269484202829
 20
147.4242631138787942
 30
0.0
 11
4140.2607586747189998
 21
147.7112594722788117
 31
0.0
  0
LINE
  5
160BF
  8
0
 10
4139.2729386014179909
 20
147.6464446380788047
 30
0.0
 11
4139.548614617217936
 21
147.5797515908788
 31
0.0
  0
LINE
  5
160C0
  8
0
 10
4139.548614617217936
 20
147.5797515908788
 30
0.0
 11
4139.5763873077194148
 21
147.6945501342788134
 31
0.0
  0
LINE
  5
160C1
  8
0
 10
4139.5763873077194148
 20
147.6945501342788134
 30
0.0
 11
4139.943423623119088
 21
147.6057547043787963
 31
0.0
  0
LINE
  5
160C2
  8
0
 10
4139.943423623119088
 20
147.6057547043787963
 30
0.0
 11
4139.9156509326203377
 21
147.4909561610787989
 31
0.0
  0
LINE
  5
160C3
  8
0
 10
4139.9156509326203377
 20
147.4909561610787989
 30
0.0
 11
4140.1913269484202829
 21
147.4242631138787942
 31
0.0
  0
ARC
  5
160C4
  8
0
 10
4139.8339659732373548
 20
147.9562818672071955
 30
0.0
 40
0.4724409437941847
 50
232.8435356345410128
 51
279.9564643634137155
  0
LINE
  5
160C5
  8
0
 10
4143.5538867636178111
 20
148.4653308912288026
 30
0.0
 11
4143.5538867636178111
 21
148.6314161350788083
 31
0.0
  0
LINE
  5
160C6
  8
0
 10
4144.0853828266190249
 20
148.4653308912288026
 30
0.0
 11
4144.0853828266190249
 21
148.6314161350788083
 31
0.0
  0
LINE
  5
160C7
  8
0
 10
4144.1286899132192048
 20
148.6314161350788083
 30
0.0
 11
4143.5105796769194058
 21
148.6314161350788083
 31
0.0
  0
LINE
  5
160C8
  8
0
 10
4143.5105796769194058
 20
148.6314161350788083
 30
0.0
 11
4143.5105796769194058
 21
148.9661281319787918
 31
0.0
  0
LINE
  5
160C9
  8
0
 10
4144.1286899132192048
 20
148.6314161350788083
 30
0.0
 11
4144.1286899131191603
 21
148.9661281319787918
 31
0.0
  0
ARC
  5
160CA
  8
0
 10
4143.5499497557430004
 20
148.9661281318032877
 30
0.0
 40
0.0393700788246889
 50
106.5837560935334949
 51
179.9999997446095108
  0
ARC
  5
160CB
  8
0
 10
4144.0893198343228505
 20
148.9661281317794135
 30
0.0
 40
0.0393700788966553
 50
0.0000002901382385
 51
73.416243456758238
  0
ARC
  5
160CC
  8
0
 10
4143.8196347951861753
 20
148.0605499928161066
 30
0.0
 40
0.9842519689626922
 50
73.416243653801601
 51
106.583756346198399
  0
LINE
  5
160CD
  8
0
 10
4143.538712879252671
 20
149.0038605543788037
 30
0.0
 11
4144.1005567109832555
 21
149.0038605543788037
 31
0.0
  0
ARC
  5
160CE
  8
0
 10
4145.355939315579235
 20
147.3514338179955985
 30
0.0
 40
0.0196893610995932
 50
270.5117897790333927
 51
359.9955270105937188
  0
ARC
  5
160CF
  8
0
 10
4145.3559393157365776
 20
147.6121858537981097
 30
0.0
 40
0.0196893609621628
 50
0.00517681040007
 51
89.488210676532205
  0
LINE
  5
160D0
  8
0
 10
4145.3561151868170782
 20
147.6318744292788097
 30
0.0
 11
4145.2195173938198423
 21
147.6330648422000138
 31
0.0
  0
LINE
  5
160D1
  8
0
 10
4145.3561151868207162
 20
147.331745242378787
 30
0.0
 11
4145.2195730972462115
 21
147.3305553149278921
 31
0.0
  0
LINE
  5
160D2
  8
0
 10
4145.3756286766192716
 20
147.6121876327788129
 30
0.0
 11
4145.3756286766192716
 21
147.3514322808788108
 31
0.0
  0
ARC
  5
160D3
  8
0
 10
4145.0938559012392943
 20
148.5305436444251086
 30
0.0
 40
0.333827851413525
 50
236.873289401763401
 51
247.0251477295450968
  0
ARC
  5
160D4
  8
0
 10
4144.1170185996361397
 20
147.0945898293144012
 30
0.0
 40
1.402961949461538
 50
55.5120652718050991
 51
62.8266336904743383
  0
ARC
  5
160D5
  8
0
 10
4144.2918259464267976
 20
147.5008818341200083
 30
0.0
 40
0.9621499683450162
 50
61.0378505181301918
 51
83.8323797883961106
  0
ARC
  5
160D6
  8
0
 10
4144.2570444856191898
 20
147.3915471890531137
 30
0.0
 40
1.0748311629648779
 50
82.6151081458106944
 51
87.4702845766659749
  0
ARC
  5
160D7
  8
0
 10
4143.6123138210559773
 20
148.6873412611631977
 30
0.0
 40
2.3552664948103841
 50
299.5729703029942925
 51
302.5373910914856879
  0
ARC
  5
160D8
  8
0
 10
4136.8881741523036908
 20
140.8338915882569893
 30
0.0
 40
8.9489709850509556
 50
43.332221759634713
 51
45.3457646151723992
  0
LINE
  5
160D9
  8
0
 10
4143.2684536927181398
 20
147.1089306062594915
 30
0.0
 11
4143.2684536927181398
 21
146.7259043239787957
 31
0.0
  0
LINE
  5
160DA
  8
0
 10
4143.2684536927181398
 20
146.7259043239787957
 30
0.0
 11
4143.3668788895192847
 21
146.6274791271787876
 31
0.0
  0
LINE
  5
160DB
  8
0
 10
4143.3668788895192847
 20
146.6274791271787876
 30
0.0
 11
4143.7763321567426829
 21
146.6274791271787876
 31
0.0
  0
LINE
  5
160DC
  8
0
 10
4143.2684536927181398
 20
146.7259043239787957
 30
0.0
 11
4143.6360921451196191
 21
146.7259043239787957
 31
0.0
  0
LINE
  5
160DD
  8
0
 10
4143.4062489683192325
 20
146.6274791271787876
 30
0.0
 11
4143.4062489683192325
 21
146.5739161349787878
 31
0.0
  0
LINE
  5
160DE
  8
0
 10
4143.4109762950192817
 20
146.5653279011787902
 30
0.0
 11
4143.4483081072194182
 21
146.545681960278813
 31
0.0
  0
LINE
  5
160DF
  8
0
 10
4143.4473937067177758
 20
146.5303095789788017
 30
0.0
 11
4143.4106034281194297
 21
146.5109795782788069
 31
0.0
  0
LINE
  5
160E0
  8
0
 10
4143.4115153857701443
 20
146.4935871417287956
 30
0.0
 11
4143.4473993096189588
 21
146.474837473078793
 31
0.0
  0
LINE
  5
160E1
  8
0
 10
4143.447491172169066
 20
146.4589452367787885
 30
0.0
 11
4143.4120756731181245
 21
146.4404775035787907
 31
0.0
  0
LINE
  5
160E2
  8
0
 10
4143.410985392519251
 20
146.422481575978793
 30
0.0
 11
4143.4482905701188429
 21
146.4028547134788028
 31
0.0
  0
LINE
  5
160E3
  8
0
 10
4143.4473829705202661
 20
146.38747095707879
 30
0.0
 11
4143.4106139755185723
 21
146.3681573467787871
 31
0.0
  0
LINE
  5
160E4
  8
0
 10
4143.4120544363186127
 20
146.3504343041788047
 30
0.0
 11
4143.4473908780182683
 21
146.3320169284787937
 31
0.0
  0
LINE
  5
160E5
  8
0
 10
4143.4473940348188989
 20
146.3160629401787958
 30
0.0
 11
4143.4106021914185476
 21
146.2967352728788057
 31
0.0
  0
LINE
  5
160E6
  8
0
 10
4143.4109619686178121
 20
146.2796683736787884
 30
0.0
 11
4143.4476847301184534
 21
146.2604369635787975
 31
0.0
  0
LINE
  5
160E7
  8
0
 10
4143.447395997318381
 20
146.2446462470784923
 30
0.0
 11
4143.4394963329186794
 21
146.2405218478787958
 31
0.0
  0
LINE
  5
160E8
  8
0
 10
4143.4394963329186794
 20
146.2405218478787958
 30
0.0
 11
4143.4393008725191976
 21
146.2400965142788039
 31
0.0
  0
LINE
  5
160E9
  8
0
 10
4143.4393008725191976
 20
146.2400965142788039
 30
0.0
 11
4143.4456190470191359
 21
146.2337783397788087
 31
0.0
  0
LINE
  5
160EA
  8
0
 10
4143.4456190470191359
 20
146.2337783397788087
 30
0.0
 11
4144.1936505426192525
 21
146.2337783397788087
 31
0.0
  0
LINE
  5
160EB
  8
0
 10
4144.1936505426192525
 20
146.2337783397788087
 30
0.0
 11
4144.2234502689188957
 21
146.2635780655787983
 31
0.0
  0
LINE
  5
160EC
  8
0
 10
4144.2234502689188957
 20
146.2635780655787983
 30
0.0
 11
4144.2232636299186197
 21
146.2639817699788125
 31
0.0
  0
LINE
  5
160ED
  8
0
 10
4144.2232636299186197
 20
146.2639817699788125
 30
0.0
 11
4144.1920394471717373
 21
146.2802624130864046
 31
0.0
  0
LINE
  5
160EE
  8
0
 10
4144.1915737661192907
 20
146.2961387418787922
 30
0.0
 11
4144.2283030254193363
 21
146.3153683226788075
 31
0.0
  0
LINE
  5
160EF
  8
0
 10
4144.2272076114168158
 20
146.3333442047795074
 30
0.0
 11
4144.1919362383450789
 21
146.3517393787348055
 31
0.0
  0
LINE
  5
160F0
  8
0
 10
4144.1918733511192841
 20
146.367722730278814
 30
0.0
 11
4144.2277383965183617
 21
146.386458970878806
 31
0.0
  0
LINE
  5
160F1
  8
0
 10
4144.2271938737194432
 20
146.4047733994788132
 30
0.0
 11
4144.1918742817151724
 21
146.4231888007776945
 31
0.0
  0
LINE
  5
160F2
  8
0
 10
4144.191868380618871
 20
146.4391332681788072
 30
0.0
 11
4144.227191141619187
 21
146.4575504563788115
 31
0.0
  0
LINE
  5
160F3
  8
0
 10
4144.2272030488193195
 20
146.4761876705788097
 30
0.0
 11
4144.1911085247193114
 21
146.4951545265288075
 31
0.0
  0
ARC
  5
160F4
  8
0
 10
4143.4168680044640496
 20
146.5741661240203086
 30
0.0
 40
0.0106219783088268
 50
181.3485849053159882
 51
236.3119032849795076
  0
ARC
  5
160F5
  8
0
 10
4143.441416614668924
 20
146.5383785027904082
 30
0.0
 40
0.0100415716326998
 50
306.5293663589453104
 51
46.6623678551065169
  0
ARC
  5
160F6
  8
0
 10
4143.4165605584412333
 20
146.5025718082139008
 30
0.0
 40
0.0103042709174363
 50
125.3185936647231955
 51
240.6844200673405112
  0
ARC
  5
160F7
  8
0
 10
4143.4416402105944144
 20
146.4668577998724004
 30
0.0
 40
0.0098408539293471
 50
306.4811521007379156
 51
54.1812188446601724
  0
ARC
  5
160F8
  8
0
 10
4143.4165947177070848
 20
146.431172726889713
 30
0.0
 40
0.0103441110406543
 50
115.9044235058991035
 51
237.1615394774837
  0
ARC
  5
160F9
  8
0
 10
4143.4427608281557696
 20
146.3954623019992027
 30
0.0
 40
0.0092317817165202
 50
300.0448114658805139
 51
53.2024270793679932
  0
ARC
  5
160FA
  8
0
 10
4143.4166947660951337
 20
146.3597315112114075
 30
0.0
 40
0.0103908959690239
 50
125.8173804850796955
 51
243.4757541200332867
  0
ARC
  5
160FB
  8
0
 10
4143.4422993484286053
 20
146.3240389264863097
 30
0.0
 40
0.009464258396579
 50
302.5685339340698192
 51
57.4541492960631501
  0
ARC
  5
160FC
  8
0
 10
4143.4165535683796406
 20
146.2883234886087962
 30
0.0
 40
0.0103042225494123
 50
125.2795864625179973
 51
237.1356926379085905
  0
ARC
  5
160FD
  8
0
 10
4143.4427619770531237
 20
146.2526289779924866
 30
0.0
 40
0.0092302836721534
 50
300.1354065304627738
 51
57.7695235507749416
  0
ARC
  5
160FE
  8
0
 10
4144.1975254214394226
 20
146.2883683205249952
 30
0.0
 40
0.009787831683867
 50
127.4498496453829972
 51
235.9103618186775009
  0
ARC
  5
160FF
  8
0
 10
4144.2226606728900151
 20
146.3240458063056053
 30
0.0
 40
0.0103505972843474
 50
303.0330950694412877
 51
63.9412590167716601
  0
ARC
  5
16100
  8
0
 10
4144.1969465521842722
 20
146.3597508915314052
 30
0.0
 40
0.0094492106577827
 50
122.4722807357673986
 51
237.9785826505803925
  0
ARC
  5
16101
  8
0
 10
4144.2222181516071942
 20
146.395460152646308
 30
0.0
 40
0.0105590897861748
 50
301.5199574492535248
 51
61.886064188078123
  0
ARC
  5
16102
  8
0
 10
4144.1974412814015523
 20
146.4311630959340107
 30
0.0
 40
0.0097252695980955
 50
124.9620006995243955
 51
235.0804099873217012
  0
ARC
  5
16103
  8
0
 10
4144.2226446629856582
 20
146.4668719719994101
 30
0.0
 40
0.0103711677949083
 50
296.0003559730707821
 51
63.9264322039900819
  0
ARC
  5
16104
  8
0
 10
4144.1990575443105627
 20
146.5038952767775982
 30
0.0
 40
0.0118147207927477
 50
193.7390633270813112
 51
227.7159657451981047
  0
ARC
  5
16105
  8
0
 10
4143.9727258032326063
 20
138.3668622072146945
 30
0.0
 40
8.2265807099742894
 50
90.8887419082207799
 51
93.9484735365164738
  0
ARC
  5
16106
  8
0
 10
4144.1435403405221223
 20
134.0577519698111928
 30
0.0
 40
12.5013764571824506
 50
90.9816806583209825
 51
93.1741119417122974
  0
ARC
  5
16107
  8
0
 10
4143.9184653716501998
 20
139.0188435915192997
 30
0.0
 40
7.5013622579932262
 50
88.8842327337286235
 51
93.9153191670847747
  0
ARC
  5
16108
  8
0
 10
4139.2540844924087651
 20
251.9766779601436042
 30
0.0
 40
105.5918372735377062
 50
272.2781158512012212
 51
272.6781111483268774
  0
ARC
  5
16109
  8
0
 10
4152.0033902000150192
 20
-44.0399286159404184
 30
0.0
 40
190.6649218262973875
 50
92.3356850619579888
 51
92.584360287910286
  0
ARC
  5
1610A
  8
0
 10
4139.3187372422553381
 20
242.1543066348318121
 30
0.0
 40
95.8480050282404363
 50
272.4715334163481089
 51
272.9118571088353065
  0
ARC
  5
1610B
  8
0
 10
4162.7387601765203726
 20
-280.3400657104618858
 30
0.0
 40
427.1376179080697284
 50
92.4831563728912869
 51
92.5941209775314746
  0
ARC
  5
1610C
  8
0
 10
4140.1854851727966889
 20
223.9098350169639957
 30
0.0
 40
77.6533155516931402
 50
272.4106479565327277
 51
272.9541563771148844
  0
ARC
  5
1610D
  8
0
 10
4153.4597349275945817
 20
-79.0300345462954965
 30
0.0
 40
225.5426184947206139
 50
92.3445683729434279
 51
92.5547863110849107
  0
ARC
  5
1610E
  8
0
 10
4149.2303407552171848
 20
33.9858059982919798
 30
0.0
 40
112.415429782922601
 50
92.5709692815958931
 51
92.946401099459834
  0
ARC
  5
1610F
  8
0
 10
4160.1013492348620275
 20
-406.953746527645194
 30
0.0
 40
553.4451336001222899
 50
91.6439957377831576
 51
91.7251901949076256
  0
LINE
  5
16111
  8
0
 10
4144.3044848673871456
 20
148.4653308912288026
 30
0.0
 11
4139.0486158169696864
 21
148.4653308912288026
 31
0.0
  0
ENDSEC
  0
EOF
