  0
SECTION
  2
HEADER
  9
$ACADVER
  1
AC1009
  9
$INSBASE
 10
128.41204718276569
 20
-15.7336553339344292
 30
0.0
  9
$EXTMIN
 10
123.8211962880164947
 20
-15.7409564573366101
 30
-0.0015258207003583
  9
$EXTMAX
 10
129.5235982279116911
 20
-10.1200765994010808
 30
0.0000000349246037
  9
$LIMMIN
 10
0.0
 20
0.0
  9
$LIMMAX
 10
11.6929133858000007
 20
8.2677165353999982
  9
$ORTHOMODE
 70
     0
  9
$REGENMODE
 70
     1
  9
$FILLMODE
 70
     1
  9
$QTEXTMODE
 70
     0
  9
$MIRRTEXT
 70
     0
  9
$DRAGMODE
 70
     2
  9
$LTSCALE
 40
0.6431102362
  9
$OSMODE
 70
  4095
  9
$ATTMODE
 70
     1
  9
$TEXTSIZE
 40
0.2
  9
$TRACEWID
 40
0.05
  9
$TEXTSTYLE
  7
STANDARD
  9
$CLAYER
  8
0
  9
$CELTYPE
  6
BYLAYER
  9
$CECOLOR
 62
   256
  9
$DIMSCALE
 40
1.0
  9
$DIMASZ
 40
0.1875
  9
$DIMEXO
 40
0.0625
  9
$DIMDLI
 40
0.4443307087
  9
$DIMRND
 40
0.0
  9
$DIMDLE
 40
0.0
  9
$DIMEXE
 40
0.125
  9
$DIMTP
 40
0.01
  9
$DIMTM
 40
0.01
  9
$DIMTXT
 40
1.0
  9
$DIMCEN
 40
0.1052362205
  9
$DIMTSZ
 40
0.0
  9
$DIMTOL
 70
     1
  9
$DIMLIM
 70
     0
  9
$DIMTIH
 70
     1
  9
$DIMTOH
 70
     1
  9
$DIMSE1
 70
     0
  9
$DIMSE2
 70
     0
  9
$DIMTAD
 70
     0
  9
$DIMZIN
 70
     0
  9
$DIMBLK
  1

  9
$DIMASO
 70
     1
  9
$DIMSHO
 70
     1
  9
$DIMPOST
  1
\X
  9
$DIMAPOST
  1

  9
$DIMALT
 70
     1
  9
$DIMALTD
 70
     2
  9
$DIMALTF
 40
25.3999999999999986
  9
$DIMLFAC
 40
1.0
  9
$DIMTOFL
 70
     0
  9
$DIMTVP
 40
0.0
  9
$DIMTIX
 70
     0
  9
$DIMSOXD
 70
     0
  9
$DIMSAH
 70
     0
  9
$DIMBLK1
  1

  9
$DIMBLK2
  1

  9
$DIMSTYLE
  2
STANDARD
  9
$DIMCLRD
 70
     0
  9
$DIMCLRE
 70
     0
  9
$DIMCLRT
 70
     0
  9
$DIMTFAC
 40
1.0
  9
$DIMGAP
 40
0.09
  9
$LUNITS
 70
     2
  9
$LUPREC
 70
     4
  9
$SKETCHINC
 40
0.1
  9
$FILLETRAD
 40
0.0
  9
$AUNITS
 70
     0
  9
$AUPREC
 70
     0
  9
$MENU
  1
.
  9
$ELEVATION
 40
0.0
  9
$PELEVATION
 40
0.0
  9
$THICKNESS
 40
0.0
  9
$LIMCHECK
 70
     0
  9
$BLIPMODE
 70
     0
  9
$CHAMFERA
 40
0.0
  9
$CHAMFERB
 40
0.0
  9
$SKPOLY
 70
     0
  9
$TDCREATE
 40
2458172.4620254631154239
  9
$TDUPDATE
 40
2460010.7257175929844379
  9
$TDINDWG
 40
0.1159781597
  9
$TDUSRTIMER
 40
0.1159781597
  9
$USRTIMER
 70
     1
  9
$ANGBASE
 50
0.0
  9
$ANGDIR
 70
     0
  9
$PDMODE
 70
     0
  9
$PDSIZE
 40
0.3125
  9
$PLINEWID
 40
0.0
  9
$COORDS
 70
     1
  9
$SPLFRAME
 70
     0
  9
$SPLINETYPE
 70
     6
  9
$SPLINESEGS
 70
     8
  9
$ATTDIA
 70
     1
  9
$ATTREQ
 70
     1
  9
$HANDLING
 70
     1
  9
$HANDSEED
  5
95B1
  9
$SURFTAB1
 70
     6
  9
$SURFTAB2
 70
     6
  9
$SURFTYPE
 70
     6
  9
$SURFU
 70
     6
  9
$SURFV
 70
     6
  9
$UCSNAME
  2

  9
$UCSORG
 10
0.0
 20
0.0
 30
0.0
  9
$UCSXDIR
 10
1.0
 20
0.0
 30
0.0
  9
$UCSYDIR
 10
0.0
 20
1.0
 30
0.0
  9
$PUCSNAME
  2

  9
$PUCSORG
 10
0.0
 20
0.0
 30
0.0
  9
$PUCSXDIR
 10
1.0
 20
0.0
 30
0.0
  9
$PUCSYDIR
 10
0.0
 20
1.0
 30
0.0
  9
$USERI1
 70
     0
  9
$USERI2
 70
     0
  9
$USERI3
 70
     0
  9
$USERI4
 70
     0
  9
$USERI5
 70
     0
  9
$USERR1
 40
0.0
  9
$USERR2
 40
0.0
  9
$USERR3
 40
0.0
  9
$USERR4
 40
0.0
  9
$USERR5
 40
0.0
  9
$WORLDVIEW
 70
     1
  9
$SHADEDGE
 70
     3
  9
$SHADEDIF
 70
    70
  9
$TILEMODE
 70
     1
  9
$MAXACTVP
 70
    64
  9
$PLIMCHECK
 70
     0
  9
$PEXTMIN
 10
1.0000000000000000E+20
 20
1.0000000000000000E+20
 30
1.0000000000000000E+20
  9
$PEXTMAX
 10
-1.0000000000000000E+20
 20
-1.0000000000000000E+20
 30
-1.0000000000000000E+20
  9
$PLIMMIN
 10
0.0
 20
0.0
  9
$PLIMMAX
 10
12.0
 20
9.0
  9
$UNITMODE
 70
     0
  9
$VISRETAIN
 70
     1
  9
$PLINEGEN
 70
     0
  9
$PSLTSCALE
 70
     1
  0
ENDSEC
  0
SECTION
  2
TABLES
  0
TABLE
  2
VPORT
 70
     1
  0
VPORT
  2
*ACTIVE
 70
     0
 10
0.0
 20
0.0
 11
1.0
 21
1.0
 12
20.6815716048879814
 22
1.5893093171898209
 13
0.0
 23
0.0
 14
1.0
 24
1.0
 15
0.0
 25
0.0
 16
0.0
 26
0.0
 36
22.1717569192708517
 17
105.9908256530762003
 27
-14.5198258455586604
 37
0.0
 40
5.6640620335406657
 41
1.593589743589743
 42
50.0
 43
0.0
 44
0.0
 50
0.0
 51
0.0
 71
     0
 72
   100
 73
     1
 74
     1
 75
     0
 76
     0
 77
     0
 78
     0
  0
ENDTAB
  0
TABLE
  2
LTYPE
 70
     2
  0
LTYPE
  2
CONTINUOUS
 70
     0
  3
Solid line
 72
    65
 73
     0
 40
0.0
  0
LTYPE
  2
PHANTOM2
 70
     0
  3
___ _ _ ___ _ _ ___ _ _ ___ _ _
 72
    65
 73
     6
 40
1.25
 49
0.625
 49
-0.125
 49
0.125
 49
-0.125
 49
0.125
 49
-0.125
  0
ENDTAB
  0
TABLE
  2
LAYER
 70
     2
  0
LAYER
  2
0
 70
     0
 62
   255
  6
CONTINUOUS
  0
LAYER
  2
DEFPOINTS
 70
     0
 62
     7
  6
CONTINUOUS
  0
ENDTAB
  0
TABLE
  2
STYLE
 70
     1
  0
STYLE
  2
STANDARD
 70
     0
 40
0.0
 41
0.8
 50
0.0
 71
     0
 42
0.2
  3
txt
  4

  0
ENDTAB
  0
TABLE
  2
VIEW
 70
     0
  0
ENDTAB
  0
TABLE
  2
UCS
 70
     0
  0
ENDTAB
  0
TABLE
  2
APPID
 70
     9
  0
APPID
  2
ACAD
 70
     0
  0
APPID
  2
ACAD_MLEADERVER
 70
     0
  0
APPID
  2
ACAD_EXEMPT_FROM_CAD_STANDARDS
 70
     0
  0
APPID
  2
ACAD_DSTYLE_DIMJAG
 70
     0
  0
APPID
  2
ACAD_DSTYLE_DIMTALN
 70
     0
  0
APPID
  2
ACAD_NAV_VCDISPLAY
 70
     0
  0
APPID
  2
ACAECLAYERSTANDARD
 70
     0
  0
APPID
  2
ACCMTRANSPARENCY
 70
     0
  0
APPID
  2
ACDBATTR
 70
     0
  0
ENDTAB
  0
TABLE
  2
DIMSTYLE
 70
     1
  0
DIMSTYLE
  2
STANDARD
 70
     0
  3

  4

  5

  6

  7

 40
1.0
 41
0.1875
 42
0.0625
 43
0.38
 44
0.125
 45
0.0
 46
0.0
 47
0.01
 48
0.01
140
0.15625
141
0.09
142
0.0
143
25.3999999999999986
144
1.0
145
0.0
146
1.0
147
0.09
 71
     1
 72
     0
 73
     1
 74
     1
 75
     0
 76
     0
 77
     0
 78
     4
170
     0
171
     2
172
     0
173
     0
174
     0
175
     0
176
     0
177
     0
178
     0
  0
ENDTAB
  0
ENDSEC
  0
SECTION
  2
BLOCKS
  0
BLOCK
  8
0
  2
$MODEL_SPACE
 70
     0
 10
0.0
 20
0.0
 30
0.0
  3
$MODEL_SPACE
  1

  0
ENDBLK
  5
21
  8
0
  0
BLOCK
 67
     1
  8
0
  2
$PAPER_SPACE
 70
     0
 10
0.0
 20
0.0
 30
0.0
  3
$PAPER_SPACE
  1

  0
ENDBLK
  5
1D
 67
     1
  8
0
  0
ENDSEC
  0
SECTION
  2
ENTITIES
  0
ATTDEF
  5
383D
  8
DEFPOINTS
 10
128.4080708762573124
 20
-15.73574539289495
 30
0.0
 40
0.001
  1
K-72275ME-4ND
  3

  2
MODELNUMBER
 70
     0
1001
ACDBATTR
1070
     0
1070
     1
  0
ATTDEF
  5
383E
  8
DEFPOINTS
 10
128.4080708762573124
 20
-15.7374120595616098
 30
0.0
 40
0.001
  1
ALEO
  3

  2
TRADENAME
 70
     0
1001
ACDBATTR
1070
     0
1070
     1
  0
ATTDEF
  5
383F
  8
DEFPOINTS
 10
128.4080708762573124
 20
-15.7390787262282803
 30
0.0
 40
0.001
  1
BATHROOM SINK FAUCET
  3

  2
PRODUCT
 70
     0
1001
ACDBATTR
1070
     0
1070
     1
  0
LINE
  5
940E
  8
0
 10
129.520452660615689
 20
-15.7336553339344292
 30
0.0
 11
127.3036417049157052
 21
-15.7336553339344292
 31
0.0
  0
LINE
  5
940F
  8
0
 10
127.5301324761156962
 20
-11.4653482473344308
 30
0.0
 11
128.3527324919157024
 21
-11.4653482473344308
 31
0.0
  0
LINE
  5
9410
  8
0
 10
124.9454755543737008
 20
-10.1214513524453906
 30
0.0
 11
129.4722085321328109
 21
-10.1214513524453906
 31
0.0
  0
LINE
  5
9411
  8
0
 10
126.9169470034324974
 20
-11.7705564230687507
 30
0.0
 11
123.8875630726855945
 21
-11.7705564230687507
 31
0.0
  0
LINE
  5
9412
  8
0
 10
129.520452660615689
 20
-15.7336553339344292
 30
0.0
 11
129.520452660615689
 21
-13.5010259794344307
 31
0.0
  0
LINE
  5
9413
  8
0
 10
129.520452660615689
 20
-13.5010259794344307
 30
0.0
 11
129.520452660615689
 21
-11.5997970663344301
 31
0.0
  0
LINE
  5
9414
  8
0
 10
123.8551674497195023
 20
-11.5683010032344296
 30
0.0
 11
129.4891202115236126
 21
-11.5683010032344296
 31
0.0
  0
ARC
  5
9415
  8
0
 10
129.4889413578584083
 20
-11.5998118018591203
 30
0.0
 40
0.0315113062026886
 50
0.0267930310172787
 51
89.6747956075767689
  0
LINE
  5
9416
  8
0
 10
127.3036417049157052
 20
-15.7336553339344292
 30
0.0
 11
127.3035841821432967
 21
-13.6585062944344298
 31
0.0
  0
ARC
  5
9417
  8
0
 10
117.2119757185378006
 20
-13.6587860320756302
 30
0.0
 40
10.0916084674825992
 50
0.0015882290979176
 51
3.4590908752915119
  0
ARC
  5
9418
  8
0
 10
126.3236112774891069
 20
-13.1142144663153299
 30
0.0
 40
0.9637357163689845
 50
3.8264404539078338
 51
29.7779018044719912
  0
ARC
  5
9419
  8
0
 10
126.4941482014640002
 20
-13.0590832813445896
 30
0.0
 40
0.7891971784403851
 50
32.4537392246604881
 51
72.4870158514045642
  0
ARC
  5
941A
  8
0
 10
126.3046857626444961
 20
-13.6892207456208599
 30
0.0
 40
1.447168027800011
 50
72.8410289336875252
 51
88.8290887846902422
  0
ARC
  5
941B
  8
0
 10
126.2170798833945042
 20
-14.3883855605528499
 30
0.0
 40
2.1492273909395991
 50
86.8746140254000068
 51
91.377949564471507
  0
LINE
  5
941C
  8
0
 10
126.165396469815704
 20
-12.2397796863344297
 30
0.0
 11
125.5797660477156938
 21
-12.2400659686344309
 31
0.0
  0
ARC
  5
941D
  8
0
 10
125.5802130327728037
 20
-13.1544363213220006
 30
0.0
 40
0.9143704619406932
 50
90.0280087331766339
 51
111.6675062604412005
  0
ARC
  5
941E
  8
0
 10
125.7426187941741063
 20
-13.6089103828609801
 30
0.0
 40
1.3967976461964231
 50
110.9754804073256054
 51
119.0942726854112976
  0
LINE
  5
941F
  8
0
 10
125.0634286830157009
 20
-12.3883595001344293
 30
0.0
 11
124.1086279032109019
 21
-12.0781257492423197
 31
0.0
  0
ARC
  5
9420
  8
0
 10
122.9940252475904998
 20
-12.9329721530610797
 30
0.0
 40
1.4046712975423861
 50
37.4864637917998635
 51
41.9806261907936502
  0
ARC
  5
9421
  8
0
 10
124.7845009914938998
 20
-11.3265752117654905
 30
0.0
 40
1.00080814654279
 50
206.3351005968357867
 51
221.7823611795487864
  0
ARC
  5
9422
  8
0
 10
124.7469502966251014
 20
-11.3451625532598293
 30
0.0
 40
0.9589089347487668
 50
195.937122321490591
 51
206.3351005968357867
  0
ARC
  5
9423
  8
0
 10
123.8551963840521069
 20
-11.59981010896764
 30
0.0
 40
0.0315091190181882
 50
90.0526138350348475
 51
195.93712232149079
  0
LINE
  5
9424
  8
0
 10
128.4250964318156889
 20
-15.7336553339344292
 30
0.0
 11
128.4250964318156889
 21
-13.6813436886344295
 31
0.0
  0
ARC
  5
9425
  8
0
 10
113.3260115216991011
 20
-13.61381195415278
 30
0.0
 40
15.0992359296116092
 50
359.7437422471564901
 51
2.638717710600293
  0
ARC
  5
9426
  8
0
 10
126.8918200378291061
 20
-12.9448384926156699
 30
0.0
 40
1.517643084179662
 50
0.9878849242397723
 51
30.7676338328488299
  0
ARC
  5
9427
  8
0
 10
127.425004768968904
 20
-12.7995810839246396
 30
0.0
 40
0.9962430875573171
 50
39.3076604610850495
 51
87.2088685873528959
  0
ARC
  5
9428
  8
0
 10
126.8886761597355957
 20
-16.8111703555757899
 30
0.0
 40
5.0406932119687093
 50
83.3373150430906833
 51
89.6786536194424997
  0
ARC
  5
9429
  8
0
 10
128.0917792215514055
 20
-11.5840018530191902
 30
0.0
 40
0.4692271135638726
 50
165.3525724132483106
 51
178.0824629338987961
  0
ARC
  5
942A
  8
0
 10
128.3527324565941115
 20
-10.8747968457773094
 30
0.0
 40
0.5905514015571215
 50
270.0000034269309026
 51
288.2051101816070968
  0
LINE
  5
942B
  8
0
 10
128.6023102055104061
 20
-11.4100182003233908
 30
0.0
 11
129.4942164624156931
 21
-10.9941154824344292
 31
0.0
  0
ARC
  5
942C
  8
0
 10
128.3527324919159867
 20
-10.8747970662350806
 30
0.0
 40
0.5905511810992961
 50
288.2051136085320877
 51
294.9999999967116082
  0
LINE
  5
942D
  8
0
 10
129.4942164624156931
 20
-10.9941154824344292
 30
0.0
 11
129.4942343650889995
 21
-10.1464506094703992
 31
0.0
  0
ARC
  5
942E
  8
0
 10
129.4693976538617051
 20
-10.1461305666816202
 30
0.0
 40
0.02483877315756
 50
359.2617345323665177
 51
83.5022071149904122
  0
ARC
  5
942F
  8
0
 10
124.9501463948805053
 20
-10.1474500341947103
 30
0.0
 40
0.0264149238829617
 50
100.1849269391343995
 51
194.0694224119737896
  0
LINE
  5
9430
  8
0
 10
124.9434087811380039
 20
-10.1895595204820992
 30
0.0
 11
127.3973158665489933
 21
-10.1895595204820992
 31
0.0
  0
ARC
  5
9431
  8
0
 10
125.1233245252159065
 20
-10.0715136095530706
 30
0.0
 40
0.2151848323051067
 50
202.5029261687483029
 51
239.6822122774580919
  0
ARC
  5
9432
  8
0
 10
125.402992125275901
 20
-9.4895261138511362
 30
0.0
 40
0.8603491107094029
 50
243.171653926686389
 51
267.81930435837711
  0
ARC
  5
9433
  8
0
 10
125.6611885674835065
 20
-7.092211477594712
 30
0.0
 40
3.2700086216439468
 50
264.8956271287941036
 51
267.8787133899481887
  0
ARC
  5
9434
  8
0
 10
638.6152727780954592
 20
22171.9105614862783113
 30
0.0
 40
22188.2034518901382398
 50
268.6749869291764981
 51
268.6775241904209111
  0
LINE
  5
9435
  8
0
 10
128.4097838139155101
 20
-11.4625860090908809
 30
0.0
 11
128.4097581122157123
 21
-11.2520736860344304
 31
0.0
  0
ARC
  5
9436
  8
0
 10
122.7109994692223012
 20
-11.1511981525806707
 30
0.0
 40
5.6996513879658721
 50
358.9858951518704089
 51
2.9210917613247118
  0
ARC
  5
9437
  8
0
 10
127.3384085918103068
 20
-10.8960646874248397
 30
0.0
 40
1.065422257019611
 50
1.899991603401916
 51
15.62480801809909
  0
ARC
  5
9438
  8
0
 10
127.8236571841024016
 20
-10.7603543362413205
 30
0.0
 40
0.5615537268058468
 50
15.6248080180992801
 51
39.7565772124344008
  0
ARC
  5
9439
  8
0
 10
127.9089261527790029
 20
-10.7523187101158797
 30
0.0
 40
0.4932385462157624
 50
45.3825649533561517
 51
77.7407722098013636
  0
ARC
  5
943A
  8
0
 10
127.3157830193586051
 20
-13.3079986240870891
 30
0.0
 40
3.1168052876284569
 50
77.0613774046931326
 51
83.436407534755034
  0
ARC
  5
943B
  8
0
 10
127.1765260238295951
 20
-14.6605833568268196
 30
0.0
 40
4.4764720818754693
 50
83.6445783088136494
 51
87.1728940584944922
  0
ARC
  5
943C
  8
0
 10
128.5817920281876923
 20
-11.6589731316296596
 30
0.0
 40
0.8725186031438045
 50
5.9649463960822384
 51
39.3980937862005902
  0
ARC
  5
943D
  8
0
 10
158.8753218634666098
 20
-11.5892405701281298
 30
0.0
 40
31.345434229510019
 50
179.2054763459013884
 51
179.7735387667433997
  0
ARC
  5
943E
  8
0
 10
126.4646445940458932
 20
-11.1397711557550601
 30
0.0
 40
1.0683594981146429
 50
359.2054763459012747
 51
13.2967136993605592
  0
ARC
  5
943F
  8
0
 10
126.8625926765496956
 20
-11.0457243154540006
 30
0.0
 40
0.65944938019249
 50
13.2967136993605592
 51
43.7882183171977388
  0
ARC
  5
9440
  8
0
 10
126.8374028029374045
 20
-11.1900292943868909
 30
0.0
 40
0.7823161787101049
 50
50.15423889141438
 51
83.6773908721161916
  0
ARC
  5
9441
  8
0
 10
126.4104964894488035
 20
-14.6048173715510394
 30
0.0
 40
4.2236233966829788
 50
83.0228259003953752
 51
88.4809788338354082
  0
LINE
  5
9442
  8
0
 10
124.9535980255298
 20
-12.3665176541661808
 30
0.0
 11
124.9476248698156979
 21
-12.36948499673443
 31
0.0
  0
LINE
  5
9443
  8
0
 10
124.268920358511906
 20
-12.2376178130567901
 30
0.0
 11
124.2833119283108942
 21
-12.1536365181624895
 31
0.0
  0
ARC
  5
9444
  8
0
 10
124.2984893323893942
 20
-12.2426849408258906
 30
0.0
 40
0.03
 50
170.2758835232579031
 51
251.9999906881311915
  0
LINE
  5
9445
  8
0
 10
124.2892188179211956
 20
-12.2712166348080807
 30
0.0
 11
124.8038315571983929
 21
-12.4384245421976107
 31
0.0
  0
LINE
  5
9446
  8
0
 10
124.4798410385157013
 20
-12.3982498648344297
 30
0.0
 11
124.498496272710895
 21
-12.3408349893650495
 31
0.0
  0
LINE
  5
9447
  8
0
 10
124.498496272710895
 20
-12.3408349893650495
 30
0.0
 11
124.5063292656157046
 21
-12.3438796883344306
 31
0.0
  0
LINE
  5
9448
  8
0
 10
124.5063292656157046
 20
-12.3438796883344306
 30
0.0
 11
124.5086785652157033
 21
-12.3440599476344293
 31
0.0
  0
LINE
  5
9449
  8
0
 10
124.5086785652157033
 20
-12.3440599476344293
 30
0.0
 11
124.5091301252909943
 21
-12.3426701895106898
 31
0.0
  0
LINE
  5
944A
  8
0
 10
124.5454107314157
 20
-12.3572166150344298
 30
0.0
 11
124.5462213274251013
 21
-12.3547218583056004
 31
0.0
  0
LINE
  5
944B
  8
0
 10
124.5454107314157
 20
-12.3572166150344298
 30
0.0
 11
124.5436283816973031
 21
-12.3571215381562407
 31
0.0
  0
LINE
  5
944C
  8
0
 10
124.5436283816973031
 20
-12.3571215381562407
 30
0.0
 11
124.5104546216334995
 21
-12.3454458725469696
 31
0.0
  0
LINE
  5
944D
  8
0
 10
124.5104546216334995
 20
-12.3454458725469696
 30
0.0
 11
124.5092638007212003
 21
-12.3443266087751091
 31
0.0
  0
LINE
  5
944E
  8
0
 10
124.5092638007212003
 20
-12.3443266087751091
 30
0.0
 11
124.5097378454918982
 21
-12.3428676498829599
 31
0.0
  0
ARC
  5
944F
  8
0
 10
124.6592643027805991
 20
-12.0203288631330896
 30
0.0
 40
0.4183503212457317
 50
231.3088325902241138
 51
244.6033182235198069
  0
ARC
  5
9450
  8
0
 10
124.6492639963248052
 20
-12.0328152302724405
 30
0.0
 40
0.4023529622902809
 50
219.1445311497886905
 51
231.3088325902241138
  0
LINE
  5
9451
  8
0
 10
124.9535980255298
 20
-12.3665176541661808
 30
0.0
 11
124.9498846665407967
 21
-12.3625474964998698
 31
0.0
  0
LINE
  5
9452
  8
0
 10
124.9498846665407967
 20
-12.3625474964998698
 30
0.0
 11
124.9526569892156971
 21
-12.3539765385344307
 31
0.0
  0
LINE
  5
9453
  8
0
 10
124.9476248698156979
 20
-12.36948499673443
 30
0.0
 11
124.6944193232156977
 21
-12.2872301047344301
 31
0.0
  0
LINE
  5
9454
  8
0
 10
124.6944193232156977
 20
-12.2872301047344301
 30
0.0
 11
124.2134092815156947
 21
-12.1309237588344292
 31
0.0
  0
LINE
  5
9455
  8
0
 10
124.2134092815156947
 20
-12.1309237588344292
 30
0.0
 11
124.2029355900156986
 21
-12.1101422001344297
 31
0.0
  0
LINE
  5
9456
  8
0
 10
124.2029355900156986
 20
-12.1101422001344297
 30
0.0
 11
124.2054911450981933
 21
-12.1095985417764798
 31
0.0
  0
LINE
  5
9457
  8
0
 10
124.9535980255298
 20
-12.3665176541661808
 30
0.0
 11
124.7172844918911068
 21
-12.2946579514195093
 31
0.0
  0
LINE
  5
9458
  8
0
 10
124.9498846665407967
 20
-12.3625474964998698
 30
0.0
 11
124.9341336258683981
 21
-12.3591859309269605
 31
0.0
  0
LINE
  5
9459
  8
0
 10
124.9526569892156971
 20
-12.3539765385344307
 30
0.0
 11
124.955807821545207
 21
-12.3533913431801992
 31
0.0
  0
LINE
  5
945A
  8
0
 10
124.9341336258683981
 20
-12.3591859309269605
 30
0.0
 11
124.8128111348540017
 21
-12.3237062926719396
 31
0.0
  0
LINE
  5
945B
  8
0
 10
124.9526569892156971
 20
-12.3539765385344307
 30
0.0
 11
124.2419320577851067
 21
-12.1400373182165406
 31
0.0
  0
POLYLINE
  5
945C
  8
0
 66
     1
 10
0.0
 20
0.0
 30
0.0
  0
VERTEX
  5
95AE
  8
0
 10
124.2390954692156981
 20
-12.1392689902344308
 30
0.0
  0
VERTEX
  5
95AF
  8
0
 10
124.5859869408137968
 20
-12.2332291885043407
 30
0.0
  0
SEQEND
  5
95B0
  8
0
  0
LINE
  5
945D
  8
0
 10
124.5086785652157033
 20
-12.3440599476344293
 30
0.0
 11
124.5062373823813999
 21
-12.3417302798434498
 31
0.0
  0
LINE
  5
945E
  8
0
 10
124.5092638007500057
 20
-12.3443266087342298
 30
0.0
 11
124.5153793567650951
 21
-12.3447006890258209
 31
0.0
  0
LINE
  5
945F
  8
0
 10
124.5436283819737042
 20
-12.35712153825353
 30
0.0
 11
124.536822214454304
 21
-12.3516678996854203
 31
0.0
  0
LINE
  5
9460
  8
0
 10
124.4643777781157041
 20
-12.3439175106344301
 30
0.0
 11
124.4537828407157036
 21
-12.3326728357344297
 31
0.0
  0
LINE
  5
9461
  8
0
 10
124.4537828407157036
 20
-12.3326728357344297
 30
0.0
 11
124.4561298915173069
 21
-12.3254493601295607
 31
0.0
  0
LINE
  5
9462
  8
0
 10
124.4643777781157041
 20
-12.3439175106344301
 30
0.0
 11
124.4690178299039047
 21
-12.3296369074709098
 31
0.0
  0
LINE
  5
9463
  8
0
 10
124.4508186201551041
 20
-12.3417957634369806
 30
0.0
 11
124.4482003545157056
 21
-12.3498539519344295
 31
0.0
  0
LINE
  5
9464
  8
0
 10
124.4482003545157056
 20
-12.3498539519344295
 30
0.0
 11
124.4591586545157043
 21
-12.3599803125344305
 31
0.0
  0
LINE
  5
9465
  8
0
 10
124.4591586545157043
 20
-12.3599803125344305
 30
0.0
 11
124.4638204393156968
 21
-12.34563282213443
 31
0.0
  0
LINE
  5
9466
  8
0
 10
124.4638204393156968
 20
-12.34563282213443
 30
0.0
 11
124.4509325009029936
 21
-12.3414452747322798
 31
0.0
  0
LINE
  5
9467
  8
0
 10
124.4459996556679044
 20
-12.3566270029374898
 30
0.0
 11
124.4587444979157027
 21
-12.3612549546344308
 31
0.0
  0
LINE
  5
9468
  8
0
 10
124.4587444979157027
 20
-12.3612549546344308
 30
0.0
 11
124.4553800875157066
 21
-12.3716095395344308
 31
0.0
  0
LINE
  5
9469
  8
0
 10
124.4553800875157066
 20
-12.3716095395344308
 30
0.0
 11
124.4441110669156956
 21
-12.36243947823443
 31
0.0
  0
LINE
  5
946A
  8
0
 10
124.4441110669156956
 20
-12.36243947823443
 30
0.0
 11
124.4459996556679044
 21
-12.3566270029375005
 31
0.0
  0
LINE
  5
946B
  8
0
 10
124.4550934839904954
 20
-12.3724916139119205
 30
0.0
 11
124.4425890284156964
 21
-12.3671238283344298
 31
0.0
  0
LINE
  5
946C
  8
0
 10
124.4425890284156964
 20
-12.3671238283344298
 30
0.0
 11
124.4413624086949
 21
-12.3708989736984591
 31
0.0
  0
LINE
  5
946D
  8
0
 10
124.4413624086949
 20
-12.3708989736984591
 30
0.0
 11
124.4529075851677931
 21
-12.3792191150619697
 31
0.0
  0
LINE
  5
946E
  8
0
 10
124.4529075851677931
 20
-12.3792191150619697
 30
0.0
 11
124.4550934840157055
 21
-12.3724916138344305
 31
0.0
  0
LINE
  5
946F
  8
0
 10
124.440467626115705
 20
-12.3736528298344304
 30
0.0
 11
124.439863465723505
 21
-12.3755122431103697
 31
0.0
  0
LINE
  5
9470
  8
0
 10
124.439863465723505
 20
-12.3755122431103697
 30
0.0
 11
124.4516621870156996
 21
-12.3830520543344296
 31
0.0
  0
LINE
  5
9471
  8
0
 10
124.4516621870156996
 20
-12.3830520543344296
 30
0.0
 11
124.4527390369983948
 21
-12.3797378527875903
 31
0.0
  0
LINE
  5
9472
  8
0
 10
124.4527390369983948
 20
-12.3797378527875903
 30
0.0
 11
124.4404676261223983
 21
-12.3736528298585
 31
0.0
  0
LINE
  5
9473
  8
0
 10
124.420913260116194
 20
-12.36382828925308
 30
0.0
 11
124.4355554410987992
 21
-12.3187643122525703
 31
0.0
  0
LINE
  5
9474
  8
0
 10
124.4203650387157012
 20
-12.3634477080344301
 30
0.0
 11
124.4349477208889994
 21
-12.3185668518774492
 31
0.0
  0
LINE
  5
9475
  8
0
 10
124.435574096515694
 20
-12.3728389953344298
 30
0.0
 11
124.4361801397207046
 21
-12.3709737869489391
 31
0.0
  0
LINE
  5
9476
  8
0
 10
124.4361801397207046
 20
-12.3709737869489391
 30
0.0
 11
124.4221296080076939
 21
-12.3600847572294992
 31
0.0
  0
LINE
  5
9477
  8
0
 10
124.4370777460196962
 20
-12.3682112403601092
 30
0.0
 11
124.4383083059991009
 21
-12.3644239684187607
 31
0.0
  0
LINE
  5
9478
  8
0
 10
124.4383083059991009
 20
-12.3644239684187607
 30
0.0
 11
124.4246004516672031
 21
-12.3524802843054005
 31
0.0
  0
LINE
  5
9479
  8
0
 10
124.4246004516672031
 20
-12.3524802843054005
 30
0.0
 11
124.4398353486021023
 21
-12.3597242171427499
 31
0.0
  0
LINE
  5
947A
  8
0
 10
124.4398353486021023
 20
-12.3597242171427499
 30
0.0
 11
124.4417303309341065
 21
-12.3538920642778098
 31
0.0
  0
LINE
  5
947B
  8
0
 10
124.4417303309341065
 20
-12.3538920642778098
 30
0.0
 11
124.4284084034311064
 21
-12.3407606203183207
 31
0.0
  0
LINE
  5
947C
  8
0
 10
124.4284084034311064
 20
-12.3407606203183207
 30
0.0
 11
124.4439387504389032
 21
-12.3470952517631396
 31
0.0
  0
LINE
  5
947D
  8
0
 10
124.4439387504389032
 20
-12.3470952517631396
 30
0.0
 11
124.4465666035157057
 21
-12.3390075559344297
 31
0.0
  0
LINE
  5
947E
  8
0
 10
124.4465666035157057
 20
-12.3390075559344297
 30
0.0
 11
124.4336958124062988
 21
-12.3244876577309093
 31
0.0
  0
LINE
  5
947F
  8
0
 10
124.4336958124062988
 20
-12.3244876577309093
 30
0.0
 11
124.4496048439184932
 21
-12.3296568185775293
 31
0.0
  0
LINE
  5
9480
  8
0
 10
124.4496048439184932
 20
-12.3296568185775293
 30
0.0
 11
124.4514644728157009
 21
-12.3239334728344296
 31
0.0
  0
LINE
  5
9481
  8
0
 10
124.4370777460196962
 20
-12.3682112403601092
 30
0.0
 11
124.4221296080076939
 21
-12.3600847572294992
 31
0.0
  0
LINE
  5
9482
  8
0
 10
124.4063313112144016
 20
-12.35250695813337
 30
0.0
 11
124.4069537762157012
 21
-12.3505912086344303
 31
0.0
  0
LINE
  5
9483
  8
0
 10
124.4069537762157012
 20
-12.3505912086344303
 30
0.0
 11
124.4215819961766982
 21
-12.3597023001523993
 31
0.0
  0
LINE
  5
9484
  8
0
 10
124.4215819961766982
 20
-12.3597023001523993
 30
0.0
 11
124.4078760228156995
 21
-12.3477528272344301
 31
0.0
  0
LINE
  5
9485
  8
0
 10
124.4078760228156995
 20
-12.3477528272344301
 30
0.0
 11
124.4091409951157061
 21
-12.3438596448344295
 31
0.0
  0
LINE
  5
9486
  8
0
 10
124.4091409951157061
 20
-12.3438596448344295
 30
0.0
 11
124.4240541177824042
 21
-12.3520938962577507
 31
0.0
  0
LINE
  5
9487
  8
0
 10
124.4240541177824042
 20
-12.3520938962577507
 30
0.0
 11
124.4107117914349061
 21
-12.3390252334995498
 31
0.0
  0
LINE
  5
9488
  8
0
 10
124.4107117914349061
 20
-12.3390252334995498
 30
0.0
 11
124.4126627563684053
 21
-12.3330207843057007
 31
0.0
  0
LINE
  5
9489
  8
0
 10
124.4126627563684053
 20
-12.3330207843057007
 30
0.0
 11
124.4278641481303964
 21
-12.34036783500596
 31
0.0
  0
LINE
  5
948A
  8
0
 10
124.4278641481303964
 20
-12.34036783500596
 30
0.0
 11
124.4149388996625021
 21
-12.3260155394350299
 31
0.0
  0
LINE
  5
948B
  8
0
 10
124.4149388996625021
 20
-12.3260155394350299
 30
0.0
 11
124.4176510455156972
 21
-12.3176684174344295
 31
0.0
  0
LINE
  5
948C
  8
0
 10
124.4176510455156972
 20
-12.3176684174344295
 30
0.0
 11
124.4331546883459936
 21
-12.3240852355412507
 31
0.0
  0
LINE
  5
948D
  8
0
 10
124.4331546883459936
 20
-12.3240852355412507
 30
0.0
 11
124.4264560646069953
 21
-12.3158077439719609
 31
0.0
  0
LINE
  5
948E
  8
0
 10
124.3881249221634988
 20
-12.3385337736459295
 30
0.0
 11
124.3984642389373931
 21
-12.3067126434487992
 31
0.0
  0
LINE
  5
948F
  8
0
 10
124.3875994928156956
 20
-12.3380830455344306
 30
0.0
 11
124.3978565187391041
 21
-12.30651518307738
 31
0.0
  0
LINE
  5
9490
  8
0
 10
124.3875994928156956
 20
-12.3380830455344306
 30
0.0
 11
124.3741864022156989
 21
-12.3252321726344292
 31
0.0
  0
LINE
  5
9491
  8
0
 10
124.3741864022156989
 20
-12.3252321726344292
 30
0.0
 11
124.374836235215696
 21
-12.3232321932344302
 31
0.0
  0
LINE
  5
9492
  8
0
 10
124.374836235215696
 20
-12.3232321932344302
 30
0.0
 11
124.3888624687095046
 21
-12.3341960073999193
 31
0.0
  0
LINE
  5
9493
  8
0
 10
124.3888624687095046
 20
-12.3341960073999193
 30
0.0
 11
124.3757996043002976
 21
-12.32026724970844
 31
0.0
  0
LINE
  5
9494
  8
0
 10
124.3757996043002976
 20
-12.32026724970844
 30
0.0
 11
124.3771221256246946
 21
-12.3161969499069794
 31
0.0
  0
LINE
  5
9495
  8
0
 10
124.3771221256246946
 20
-12.3161969499069794
 30
0.0
 11
124.3914312148974943
 21
-12.3262902240523893
 31
0.0
  0
LINE
  5
9496
  8
0
 10
124.3914312148974943
 20
-12.3262902240523893
 30
0.0
 11
124.3787662932913065
 21
-12.3111367248722505
 31
0.0
  0
LINE
  5
9497
  8
0
 10
124.3787662932913065
 20
-12.3111367248722505
 30
0.0
 11
124.3808114707156989
 21
-12.3048423195344299
 31
0.0
  0
LINE
  5
9498
  8
0
 10
124.3808114707156989
 20
-12.3048423195344299
 30
0.0
 11
124.3953990078364029
 21
-12.31407861976375
 31
0.0
  0
LINE
  5
9499
  8
0
 10
124.3953990078364029
 20
-12.31407861976375
 30
0.0
 11
124.3870474758394948
 21
-12.3030031101996897
 31
0.0
  0
LINE
  5
949A
  8
0
 10
124.402208638715706
 20
-12.3493206705344303
 30
0.0
 11
124.4028339934156975
 21
-12.3473960278344297
 31
0.0
  0
LINE
  5
949B
  8
0
 10
124.4028339934156975
 20
-12.3473960278344297
 30
0.0
 11
124.3893869899602009
 21
-12.3346495301747492
 31
0.0
  0
LINE
  5
949C
  8
0
 10
124.3893869899602009
 20
-12.3346495301747492
 30
0.0
 11
124.4037605783427978
 21
-12.3445442940510208
 31
0.0
  0
LINE
  5
949D
  8
0
 10
124.4037605783427978
 20
-12.3445442940510208
 30
0.0
 11
124.4050316151157034
 21
-12.3406324474344302
 31
0.0
  0
LINE
  5
949E
  8
0
 10
124.4050316151157034
 20
-12.3406324474344302
 30
0.0
 11
124.3919538257407993
 21
-12.3267496256300699
 31
0.0
  0
LINE
  5
949F
  8
0
 10
124.3919538257407993
 20
-12.3267496256300699
 30
0.0
 11
124.4066101311351957
 21
-12.3357742772746004
 31
0.0
  0
LINE
  5
94A0
  8
0
 10
124.4066101311351957
 20
-12.3357742772746004
 30
0.0
 11
124.4085709886290942
 21
-12.3297393819932708
 31
0.0
  0
LINE
  5
94A1
  8
0
 10
124.4085709886290942
 20
-12.3297393819932708
 30
0.0
 11
124.3959184892808025
 21
-12.3145476516066008
 31
0.0
  0
LINE
  5
94A2
  8
0
 10
124.3959184892808025
 20
-12.3145476516066008
 30
0.0
 11
124.410859122415701
 21
-12.3226972340344307
 31
0.0
  0
LINE
  5
94A3
  8
0
 10
124.410859122415701
 20
-12.3226972340344307
 30
0.0
 11
124.4135862287157011
 21
-12.3143040684344296
 31
0.0
  0
LINE
  5
94A4
  8
0
 10
124.4135862287157011
 20
-12.3143040684344296
 30
0.0
 11
124.4108526078320978
 21
-12.3107378707328596
 31
0.0
  0
LINE
  5
94A5
  8
0
 10
124.4022086387515031
 20
-12.3493206704241807
 30
0.0
 11
124.3881249221634988
 21
-12.3385337736459295
 31
0.0
  0
LINE
  5
94A6
  8
0
 10
124.3568162545301021
 20
-12.3086853005902608
 30
0.0
 11
124.3613730368088
 21
-12.2946609746557094
 31
0.0
  0
LINE
  5
94A7
  8
0
 10
124.3563168241720973
 20
-12.3081545578471694
 30
0.0
 11
124.3607653165805971
 21
-12.2944635142745504
 31
0.0
  0
LINE
  5
94A8
  8
0
 10
124.3568162545301021
 20
-12.3086853005902608
 30
0.0
 11
124.3702499834157038
 21
-12.3214726554344303
 31
0.0
  0
LINE
  5
94A9
  8
0
 10
124.3702499834157038
 20
-12.3214726554344303
 30
0.0
 11
124.3709040555156946
 21
-12.3194596297344301
 31
0.0
  0
LINE
  5
94AA
  8
0
 10
124.3709040555156946
 20
-12.3194596297344301
 30
0.0
 11
124.3581455004510019
 21
-12.3045943045554207
 31
0.0
  0
LINE
  5
94AB
  8
0
 10
124.3581455004510019
 20
-12.3045943045554207
 30
0.0
 11
124.3718738006157025
 21
-12.3164750627344297
 31
0.0
  0
LINE
  5
94AC
  8
0
 10
124.3718738006157025
 20
-12.3164750627344297
 30
0.0
 11
124.3732052584891932
 21
-12.3123772592273699
 31
0.0
  0
LINE
  5
94AD
  8
0
 10
124.3732052584891932
 20
-12.3123772592273699
 30
0.0
 11
124.3608540370755975
 21
-12.2962582909690799
 31
0.0
  0
LINE
  5
94AE
  8
0
 10
124.3608540370755975
 20
-12.2962582909690799
 30
0.0
 11
124.3748608429156945
 21
-12.3072818970344304
 31
0.0
  0
LINE
  5
94AF
  8
0
 10
124.3748608429156945
 20
-12.3072818970344304
 30
0.0
 11
124.3769207187544055
 21
-12.3009422544153804
 31
0.0
  0
LINE
  5
94B0
  8
0
 10
124.3769207187544055
 20
-12.3009422544153804
 30
0.0
 11
124.3757732966201957
 21
-12.2993399052867591
 31
0.0
  0
LINE
  5
94B1
  8
0
 10
124.3436216536263004
 20
-12.2930941561020006
 30
0.0
 11
124.3443115199157063
 21
-12.2909709671344292
 31
0.0
  0
LINE
  5
94B2
  8
0
 10
124.3443115199157063
 20
-12.2909709671344292
 30
0.0
 11
124.3576473969047953
 21
-12.3040594785288597
 31
0.0
  0
LINE
  5
94B3
  8
0
 10
124.3576473969047953
 20
-12.3040594785288597
 30
0.0
 11
124.3467674320106937
 21
-12.2899153233570697
 31
0.0
  0
LINE
  5
94B4
  8
0
 10
124.3436216536263004
 20
-12.2930941561020006
 30
0.0
 11
124.3563168243099
 21
-12.3081545579867999
 31
0.0
  0
LINE
  5
94B5
  8
0
 10
124.3603587402853066
 20
-12.2957148268290908
 30
0.0
 11
124.3577138976804974
 21
-12.2934720476241797
 31
0.0
  0
LINE
  5
94B6
  8
0
 10
124.3603587402157018
 20
-12.2957148268344305
 30
0.0
 11
124.3590709572806929
 21
-12.2939129832610892
 31
0.0
  0
LINE
  5
94B7
  8
0
 10
124.338683583078307
 20
-12.2872887201650407
 30
0.0
 11
124.339902937415701
 21
-12.2886646195344298
 31
0.0
  0
LINE
  5
94B8
  8
0
 10
124.339902937415701
 20
-12.2886646195344298
 30
0.0
 11
124.3401908662214055
 21
-12.2877784664168708
 31
0.0
  0
LINE
  5
94B9
  8
0
 10
124.8400022526971043
 20
-12.4231736712521101
 30
0.0
 11
124.8777222195951992
 21
-12.3467722362485208
 31
0.0
  0
ARC
  5
94BA
  8
0
 10
124.8131020716666058
 20
-12.4098928482155397
 30
0.0
 40
0.03
 50
251.9999906881079994
 51
333.7240978529814015
  0
LINE
  5
94BB
  8
0
 10
124.5749466850853935
 20
-12.4291515797165495
 30
0.0
 11
124.5936019193131017
 21
-12.37173670425776
 31
0.0
  0
LINE
  5
94BC
  8
0
 10
124.5936019193131017
 20
-12.37173670425776
 30
0.0
 11
124.5854752664802021
 21
-12.3695957971143997
 31
0.0
  0
LINE
  5
94BD
  8
0
 10
124.5854752664802021
 20
-12.3695957971143997
 30
0.0
 11
124.5834686898221975
 21
-12.3683607456411693
 31
0.0
  0
LINE
  5
94BE
  8
0
 10
124.5834686898221975
 20
-12.3683607456411693
 30
0.0
 11
124.5839202498284948
 21
-12.3669709874950193
 31
0.0
  0
LINE
  5
94BF
  8
0
 10
124.5460184516173996
 20
-12.3574140754069397
 30
0.0
 11
124.546829047694402
 21
-12.3549193187000892
 31
0.0
  0
LINE
  5
94C0
  8
0
 10
124.5460184516173996
 20
-12.3574140754069397
 30
0.0
 11
124.5475162873007946
 21
-12.3583847959625004
 31
0.0
  0
LINE
  5
94C1
  8
0
 10
124.5475162873007946
 20
-12.3583847959625004
 30
0.0
 11
124.5812172037477978
 21
-12.3684380419469093
 31
0.0
  0
LINE
  5
94C2
  8
0
 10
124.5812172037477978
 20
-12.3684380419469093
 30
0.0
 11
124.5828384849083932
 21
-12.3682324860315997
 31
0.0
  0
LINE
  5
94C3
  8
0
 10
124.5828384849083932
 20
-12.3682324860315997
 30
0.0
 11
124.5833125296276052
 21
-12.3667735271227492
 31
0.0
  0
ARC
  5
94C4
  8
0
 10
124.6519267401016009
 20
-12.0179447431779298
 30
0.0
 40
0.4183503212457317
 50
259.3966631527192135
 51
272.6911487860151055
  0
ARC
  5
94C5
  8
0
 10
124.6526778503200035
 20
-12.0339244592889703
 30
0.0
 40
0.4023529622902809
 50
272.6911487860151055
 51
284.855450226451012
  0
LINE
  5
94C6
  8
0
 10
124.5834686933030042
 20
-12.3683607477835693
 30
0.0
 11
124.5868129927381034
 21
-12.3679108971622593
 31
0.0
  0
LINE
  5
94C7
  8
0
 10
124.5828384849092032
 20
-12.3682324859816095
 30
0.0
 11
124.5776710183543941
 21
-12.3649404879798901
 31
0.0
  0
LINE
  5
94C8
  8
0
 10
124.5475162870200023
 20
-12.3583847958787292
 30
0.0
 11
124.5562281606651993
 21
-12.3579732773202693
 31
0.0
  0
LINE
  5
94C9
  8
0
 10
124.6193924933917998
 20
-12.3942848726867592
 30
0.0
 11
124.6345734328084944
 21
-12.3914152924836198
 31
0.0
  0
LINE
  5
94CA
  8
0
 10
124.6345734328084944
 20
-12.3914152924836198
 30
0.0
 11
124.6369204836021964
 21
-12.3841918168761698
 31
0.0
  0
LINE
  5
94CB
  8
0
 10
124.6193924933917998
 20
-12.3942848726867592
 30
0.0
 11
124.6240325452155986
 21
-12.3800042695348207
 31
0.0
  0
LINE
  5
94CC
  8
0
 10
124.631609212290499
 20
-12.4005382202000103
 30
0.0
 11
124.6289909467102035
 21
-12.4085964087166705
 31
0.0
  0
LINE
  5
94CD
  8
0
 10
124.6289909467102035
 20
-12.4085964087166705
 30
0.0
 11
124.6141733697915015
 21
-12.4103476745866494
 31
0.0
  0
LINE
  5
94CE
  8
0
 10
124.6141733697915015
 20
-12.4103476745866494
 30
0.0
 11
124.6188351545923041
 21
-12.3960001841869101
 31
0.0
  0
LINE
  5
94CF
  8
0
 10
124.6188351545923041
 20
-12.3960001841869101
 30
0.0
 11
124.6317230930358022
 21
-12.4001877314944604
 31
0.0
  0
LINE
  5
94D0
  8
0
 10
124.6267902477835037
 20
-12.4153694596940998
 30
0.0
 11
124.6137592132764951
 21
-12.4116223167142898
 31
0.0
  0
LINE
  5
94D1
  8
0
 10
124.6137592132764951
 20
-12.4116223167142898
 30
0.0
 11
124.6103948028026025
 21
-12.4219769015902894
 31
0.0
  0
LINE
  5
94D2
  8
0
 10
124.6103948028026025
 20
-12.4219769015902894
 30
0.0
 11
124.6249016590311953
 21
-12.4211819349909796
 31
0.0
  0
LINE
  5
94D3
  8
0
 10
124.6249016590311953
 20
-12.4211819349909796
 30
0.0
 11
124.6267902477835037
 21
-12.4153694596940891
 31
0.0
  0
LINE
  5
94D4
  8
0
 10
124.6101081993278967
 20
-12.4228589759841697
 30
0.0
 11
124.6233796206157933
 21
-12.4258662851184702
 31
0.0
  0
LINE
  5
94D5
  8
0
 10
124.6233796206157933
 20
-12.4258662851184702
 30
0.0
 11
124.6221530008182015
 21
-12.4296414304575595
 31
0.0
  0
LINE
  5
94D6
  8
0
 10
124.6221530008182015
 20
-12.4296414304575595
 30
0.0
 11
124.6079223004760053
 21
-12.4295864771247206
 31
0.0
  0
LINE
  5
94D7
  8
0
 10
124.6079223004760053
 20
-12.4295864771247206
 30
0.0
 11
124.6101081993531068
 21
-12.4228589759066796
 31
0.0
  0
LINE
  5
94D8
  8
0
 10
124.6212582182123043
 20
-12.4323952865848408
 30
0.0
 11
124.6206540579310058
 21
-12.4342546998967993
 31
0.0
  0
LINE
  5
94D9
  8
0
 10
124.6206540579310058
 20
-12.4342546998967993
 30
0.0
 11
124.6066769023226044
 21
-12.4334194163967808
 31
0.0
  0
LINE
  5
94DA
  8
0
 10
124.6066769023226044
 20
-12.4334194163967808
 30
0.0
 11
124.6077537522558032
 21
-12.4301052148338496
 31
0.0
  0
LINE
  5
94DB
  8
0
 10
124.6077537522558032
 20
-12.4301052148338496
 30
0.0
 11
124.6212582181926933
 21
-12.4323952866003804
 31
0.0
  0
LINE
  5
94DC
  8
0
 10
124.6428527514940043
 20
-12.4359408413808801
 30
0.0
 11
124.6574949340207041
 21
-12.3908768647531708
 31
0.0
  0
LINE
  5
94DD
  8
0
 10
124.6435199719931006
 20
-12.4359551812351992
 30
0.0
 11
124.6581026542304045
 21
-12.3910743251282902
 31
0.0
  0
LINE
  5
94DE
  8
0
 10
124.6256955260138994
 20
-12.4346132266265492
 30
0.0
 11
124.6263015693527052
 21
-12.4327480182735304
 31
0.0
  0
LINE
  5
94DF
  8
0
 10
124.6263015693527052
 20
-12.4327480182735304
 30
0.0
 11
124.6440690995484033
 21
-12.4321973092813192
 31
0.0
  0
LINE
  5
94E0
  8
0
 10
124.6271991756441935
 20
-12.4299854716822793
 30
0.0
 11
124.628429735532805
 21
-12.4261981997114308
 31
0.0
  0
LINE
  5
94E1
  8
0
 10
124.628429735532805
 20
-12.4261981997114308
 30
0.0
 11
124.6465399445453954
 21
-12.4245928367917706
 31
0.0
  0
LINE
  5
94E2
  8
0
 10
124.6465399445453954
 20
-12.4245928367917706
 30
0.0
 11
124.6299567781330069
 21
-12.4214984484345194
 31
0.0
  0
LINE
  5
94E3
  8
0
 10
124.6299567781330069
 20
-12.4214984484345194
 30
0.0
 11
124.6318517605612044
 21
-12.4156662956008095
 31
0.0
  0
LINE
  5
94E4
  8
0
 10
124.6318517605612044
 20
-12.4156662956008095
 30
0.0
 11
124.6503478963174985
 21
-12.4128731728073696
 31
0.0
  0
LINE
  5
94E5
  8
0
 10
124.6503478963174985
 20
-12.4128731728073696
 30
0.0
 11
124.6340601800191052
 21
-12.4088694830709194
 31
0.0
  0
LINE
  5
94E6
  8
0
 10
124.6340601800191052
 20
-12.4088694830709194
 30
0.0
 11
124.6366880331833045
 21
-12.4007817872705797
 31
0.0
  0
LINE
  5
94E7
  8
0
 10
124.6366880331833045
 20
-12.4007817872705797
 30
0.0
 11
124.6556353053099002
 21
-12.3966002102255395
 31
0.0
  0
LINE
  5
94E8
  8
0
 10
124.6556353053099002
 20
-12.3966002102255395
 30
0.0
 11
124.6397262736202975
 21
-12.3914310499247993
 31
0.0
  0
LINE
  5
94E9
  8
0
 10
124.6397262736202975
 20
-12.3914310499247993
 30
0.0
 11
124.641585902321097
 21
-12.3857077041178893
 31
0.0
  0
LINE
  5
94EA
  8
0
 10
124.6271991756441935
 20
-12.4299854716822793
 30
0.0
 11
124.6440690995484033
 21
-12.4321973092813192
 31
0.0
  0
LINE
  5
94EB
  8
0
 10
124.6613043076795009
 20
-12.4353527524542606
 30
0.0
 11
124.661926772824998
 21
-12.4334370030541095
 31
0.0
  0
LINE
  5
94EC
  8
0
 10
124.661926772824998
 20
-12.4334370030541095
 30
0.0
 11
124.6447369294514971
 21
-12.4322097733816399
 31
0.0
  0
LINE
  5
94ED
  8
0
 10
124.6447369294514971
 20
-12.4322097733816399
 30
0.0
 11
124.6628490193024987
 21
-12.4305986216143101
 31
0.0
  0
LINE
  5
94EE
  8
0
 10
124.6628490193024987
 20
-12.4305986216143101
 30
0.0
 11
124.6641139916791019
 21
-12.4267054392391803
 31
0.0
  0
LINE
  5
94EF
  8
0
 10
124.6641139916791019
 20
-12.4267054392391803
 30
0.0
 11
124.6472090511362012
 21
-12.4246013695126507
 31
0.0
  0
LINE
  5
94F0
  8
0
 10
124.6472090511362012
 20
-12.4246013695126507
 30
0.0
 11
124.6656847880197034
 21
-12.4218710279112798
 31
0.0
  0
LINE
  5
94F1
  8
0
 10
124.6656847880197034
 20
-12.4218710279112798
 30
0.0
 11
124.6676357528691028
 21
-12.4158665786900997
 31
0.0
  0
LINE
  5
94F2
  8
0
 10
124.6676357528691028
 20
-12.4158665786900997
 30
0.0
 11
124.6510190815182995
 21
-12.4128753082719196
 31
0.0
  0
LINE
  5
94F3
  8
0
 10
124.6510190815182995
 20
-12.4128753082719196
 30
0.0
 11
124.6699118961631996
 21
-12.4088613338194609
 31
0.0
  0
LINE
  5
94F4
  8
0
 10
124.6699118961631996
 20
-12.4088613338194609
 30
0.0
 11
124.6726240420010043
 21
-12.4005142118138192
 31
0.0
  0
LINE
  5
94F5
  8
0
 10
124.6726240420010043
 20
-12.4005142118138192
 30
0.0
 11
124.6563096217013964
 21
-12.3965927087966605
 31
0.0
  0
LINE
  5
94F6
  8
0
 10
124.6563096217013964
 20
-12.3965927087966605
 30
0.0
 11
124.6665943105124938
 21
-12.3938334330337803
 31
0.0
  0
LINE
  5
94F7
  8
0
 10
124.684246817777904
 20
-12.4347496632243306
 30
0.0
 11
124.694586136182096
 21
-12.4029285335569597
 31
0.0
  0
LINE
  5
94F8
  8
0
 10
124.6849368304044958
 20
-12.4346938563683302
 30
0.0
 11
124.6951938563803992
 21
-12.40312599392837
 31
0.0
  0
LINE
  5
94F9
  8
0
 10
124.6849368304044958
 20
-12.4346938563683302
 30
0.0
 11
124.7033418030333962
 21
-12.4321813046244891
 31
0.0
  0
LINE
  5
94FA
  8
0
 10
124.7033418030333962
 20
-12.4321813046244891
 30
0.0
 11
124.7039916361391931
 21
-12.4301813252588609
 31
0.0
  0
LINE
  5
94FB
  8
0
 10
124.7039916361391931
 20
-12.4301813252588609
 30
0.0
 11
124.6861998063968997
 21
-12.4308068182658698
 31
0.0
  0
LINE
  5
94FC
  8
0
 10
124.6861998063968997
 20
-12.4308068182658698
 30
0.0
 11
124.7049550052200004
 21
-12.4272163817316592
 31
0.0
  0
LINE
  5
94FD
  8
0
 10
124.7049550052200004
 20
-12.4272163817316592
 30
0.0
 11
124.7062775265119967
 21
-12.4231460819196808
 31
0.0
  0
LINE
  5
94FE
  8
0
 10
124.7062775265119967
 20
-12.4231460819196808
 30
0.0
 11
124.6887685525059055
 21
-12.4229010348926803
 31
0.0
  0
LINE
  5
94FF
  8
0
 10
124.6887685525059055
 20
-12.4229010348926803
 30
0.0
 11
124.7079216942215965
 21
-12.4180858568988999
 31
0.0
  0
LINE
  5
9500
  8
0
 10
124.7079216942215965
 20
-12.4180858568988999
 30
0.0
 11
124.7099668716041947
 21
-12.4117914515475007
 31
0.0
  0
LINE
  5
9501
  8
0
 10
124.7099668716041947
 20
-12.4117914515475007
 30
0.0
 11
124.6927363454652067
 21
-12.4106894306106508
 31
0.0
  0
LINE
  5
9502
  8
0
 10
124.6927363454652067
 20
-12.4106894306106508
 30
0.0
 11
124.7060028992799943
 21
-12.4066380668060692
 31
0.0
  0
LINE
  5
9503
  8
0
 10
124.6665124726882965
 20
-12.4351982394723795
 30
0.0
 11
124.6671378273290998
 21
-12.4332735967531303
 31
0.0
  0
LINE
  5
9504
  8
0
 10
124.6671378273290998
 20
-12.4332735967531303
 30
0.0
 11
124.6855088857736007
 21
-12.4308654198178203
 31
0.0
  0
LINE
  5
9505
  8
0
 10
124.6855088857736007
 20
-12.4308654198178203
 30
0.0
 11
124.6680644123646005
 21
-12.4304218630049608
 31
0.0
  0
LINE
  5
9506
  8
0
 10
124.6680644123646005
 20
-12.4304218630049608
 30
0.0
 11
124.6693354490368932
 21
-12.4265100163556603
 31
0.0
  0
LINE
  5
9507
  8
0
 10
124.6693354490368932
 20
-12.4265100163556603
 30
0.0
 11
124.6880757219589952
 21
-12.4229655154046608
 31
0.0
  0
LINE
  5
9508
  8
0
 10
124.6880757219589952
 20
-12.4229655154046608
 30
0.0
 11
124.6709139651034945
 21
-12.4216518462111498
 31
0.0
  0
LINE
  5
9509
  8
0
 10
124.6709139651034945
 20
-12.4216518462111498
 30
0.0
 11
124.6728748224743981
 21
-12.4156169508898593
 31
0.0
  0
LINE
  5
950A
  8
0
 10
124.6728748224743981
 20
-12.4156169508898593
 30
0.0
 11
124.692040386124205
 21
-12.4107635415843305
 31
0.0
  0
LINE
  5
950B
  8
0
 10
124.692040386124205
 20
-12.4107635415843305
 30
0.0
 11
124.6751629563593013
 21
-12.4085748029629599
 31
0.0
  0
LINE
  5
950C
  8
0
 10
124.6751629563593013
 20
-12.4085748029629599
 30
0.0
 11
124.677890062705103
 21
-12.4001816373778198
 31
0.0
  0
LINE
  5
950D
  8
0
 10
124.677890062705103
 20
-12.4001816373778198
 30
0.0
 11
124.6821977672873061
 21
-12.3989033062728904
 31
0.0
  0
LINE
  5
950E
  8
0
 10
124.6665124727241931
 20
-12.4351982393621192
 30
0.0
 11
124.684246817777904
 21
-12.4347496632243306
 31
0.0
  0
LINE
  5
950F
  8
0
 10
124.7271205560976028
 20
-12.4290045283059598
 30
0.0
 11
124.7316773383106039
 21
-12.4149802023500602
 31
0.0
  0
LINE
  5
9510
  8
0
 10
124.7278365665460029
 20
-12.4288687064388608
 30
0.0
 11
124.7322850585389062
 21
-12.4151776627312191
 31
0.0
  0
LINE
  5
9511
  8
0
 10
124.7271205560976028
 20
-12.4290045283059598
 30
0.0
 11
124.7087362217420008
 21
-12.4314535619899598
 31
0.0
  0
LINE
  5
9512
  8
0
 10
124.7087362217420008
 20
-12.4314535619899598
 30
0.0
 11
124.7093902937707952
 21
-12.4294405362668403
 31
0.0
  0
LINE
  5
9513
  8
0
 10
124.7093902937707952
 20
-12.4294405362668403
 30
0.0
 11
124.7284498020241017
 21
-12.4249135322729298
 31
0.0
  0
LINE
  5
9514
  8
0
 10
124.7284498020241017
 20
-12.4249135322729298
 30
0.0
 11
124.7103600389419
 21
-12.4264559692899397
 31
0.0
  0
LINE
  5
9515
  8
0
 10
124.7103600389419
 20
-12.4264559692899397
 30
0.0
 11
124.7116914966951953
 21
-12.4223581657438409
 31
0.0
  0
LINE
  5
9516
  8
0
 10
124.7116914966951953
 20
-12.4223581657438409
 30
0.0
 11
124.7311583384233984
 21
-12.41657751861338
 31
0.0
  0
LINE
  5
9517
  8
0
 10
124.7311583384233984
 20
-12.41657751861338
 30
0.0
 11
124.7133470811668019
 21
-12.4172628035655404
 31
0.0
  0
LINE
  5
9518
  8
0
 10
124.7133470811668019
 20
-12.4172628035655404
 30
0.0
 11
124.715406957103994
 21
-12.4109231609784896
 31
0.0
  0
LINE
  5
9519
  8
0
 10
124.715406957103994
 20
-12.4109231609784896
 30
0.0
 11
124.717277078499194
 21
-12.4103012717190104
 31
0.0
  0
LINE
  5
951A
  8
0
 10
124.7469594588384041
 20
-12.4241466257228996
 30
0.0
 11
124.7476493251395055
 21
-12.42202343675911
 31
0.0
  0
LINE
  5
951B
  8
0
 10
124.7476493251395055
 20
-12.42202343675911
 30
0.0
 11
124.7291671391543986
 21
-12.4247736270801603
 31
0.0
  0
LINE
  5
951C
  8
0
 10
124.7291671391543986
 20
-12.4247736270801603
 30
0.0
 11
124.7462829431086959
 21
-12.4197258536486999
 31
0.0
  0
LINE
  5
951D
  8
0
 10
124.7469594588384041
 20
-12.4241466257228996
 30
0.0
 11
124.7278365663524937
 21
-12.4288687064708299
 31
0.0
  0
LINE
  5
951E
  8
0
 10
124.7318784821988942
 20
-12.4164289752712307
 30
0.0
 11
124.7353364774390059
 21
-12.4161691293815899
 31
0.0
  0
LINE
  5
951F
  8
0
 10
124.7318784822520996
 20
-12.4164289753164603
 30
0.0
 11
124.7339794178387962
 21
-12.4157281937446804
 31
0.0
  0
LINE
  5
9520
  8
0
 10
124.7543667920411963
 20
-12.4223524568407395
 30
0.0
 11
124.7525715801731963
 21
-12.4227488637327408
 31
0.0
  0
LINE
  5
9521
  8
0
 10
124.7525715801731963
 20
-12.4227488637327408
 30
0.0
 11
124.7528595088979984
 21
-12.4218627105889095
 31
0.0
  0
LINE
  5
9522
  8
0
 10
124.6256955260138994
 20
-12.4346132266265492
 30
0.0
 11
124.6428527514940043
 21
-12.4359408413808801
 31
0.0
  0
LINE
  5
9523
  8
0
 10
124.6435199719931006
 20
-12.4359551812351992
 30
0.0
 11
124.661304307746903
 21
-12.4353527524519798
 31
0.0
  0
LINE
  5
9524
  8
0
 10
124.4063313112156948
 20
-12.3525069581344304
 30
0.0
 11
124.4203650387157012
 21
-12.3634477080344301
 31
0.0
  0
LINE
  5
9525
  8
0
 10
124.435574096515694
 20
-12.3728389953344298
 30
0.0
 11
124.4209132594459959
 21
-12.3638282888411606
 31
0.0
  0
ENDSEC
  0
EOF
