  0
SECTION
  2
HEADER
  9
$ACADVER
  1
AC1009
  9
$INSBASE
 10
118.3379627386536015
 20
-16.6560430031084614
 30
0.0
  9
$EXTMIN
 10
117.3410643961391031
 20
-16.6616629380311991
 30
-0.0000000000000058
  9
$EXTMAX
 10
119.3373753463924061
 20
-11.0437098464844894
 30
0.0000000000000104
  9
$LIMMIN
 10
0.0
 20
0.0
  9
$LIMMAX
 10
11.6929133858000007
 20
8.2677165353999982
  9
$ORTHOMODE
 70
     0
  9
$REGENMODE
 70
     1
  9
$FILLMODE
 70
     1
  9
$QTEXTMODE
 70
     0
  9
$MIRRTEXT
 70
     0
  9
$DRAGMODE
 70
     2
  9
$LTSCALE
 40
0.6431102362
  9
$OSMODE
 70
  4095
  9
$ATTMODE
 70
     1
  9
$TEXTSIZE
 40
0.2
  9
$TRACEWID
 40
0.05
  9
$TEXTSTYLE
  7
STANDARD
  9
$CLAYER
  8
0
  9
$CELTYPE
  6
BYLAYER
  9
$CECOLOR
 62
   256
  9
$DIMSCALE
 40
1.0
  9
$DIMASZ
 40
0.1875
  9
$DIMEXO
 40
0.0625
  9
$DIMDLI
 40
0.4443307087
  9
$DIMRND
 40
0.0
  9
$DIMDLE
 40
0.0
  9
$DIMEXE
 40
0.125
  9
$DIMTP
 40
0.01
  9
$DIMTM
 40
0.01
  9
$DIMTXT
 40
1.0
  9
$DIMCEN
 40
0.1052362205
  9
$DIMTSZ
 40
0.0
  9
$DIMTOL
 70
     1
  9
$DIMLIM
 70
     0
  9
$DIMTIH
 70
     1
  9
$DIMTOH
 70
     1
  9
$DIMSE1
 70
     0
  9
$DIMSE2
 70
     0
  9
$DIMTAD
 70
     0
  9
$DIMZIN
 70
     0
  9
$DIMBLK
  1

  9
$DIMASO
 70
     1
  9
$DIMSHO
 70
     1
  9
$DIMPOST
  1
\X
  9
$DIMAPOST
  1

  9
$DIMALT
 70
     1
  9
$DIMALTD
 70
     2
  9
$DIMALTF
 40
25.3999999999999986
  9
$DIMLFAC
 40
1.0
  9
$DIMTOFL
 70
     0
  9
$DIMTVP
 40
0.0
  9
$DIMTIX
 70
     0
  9
$DIMSOXD
 70
     0
  9
$DIMSAH
 70
     0
  9
$DIMBLK1
  1

  9
$DIMBLK2
  1

  9
$DIMSTYLE
  2
STANDARD
  9
$DIMCLRD
 70
     0
  9
$DIMCLRE
 70
     0
  9
$DIMCLRT
 70
     0
  9
$DIMTFAC
 40
1.0
  9
$DIMGAP
 40
0.09
  9
$LUNITS
 70
     2
  9
$LUPREC
 70
     4
  9
$SKETCHINC
 40
0.1
  9
$FILLETRAD
 40
0.0
  9
$AUNITS
 70
     0
  9
$AUPREC
 70
     0
  9
$MENU
  1
.
  9
$ELEVATION
 40
0.0
  9
$PELEVATION
 40
0.0
  9
$THICKNESS
 40
0.0
  9
$LIMCHECK
 70
     0
  9
$BLIPMODE
 70
     0
  9
$CHAMFERA
 40
0.0
  9
$CHAMFERB
 40
0.0
  9
$SKPOLY
 70
     0
  9
$TDCREATE
 40
2458172.4620254631154239
  9
$TDUPDATE
 40
2460010.7256365739740431
  9
$TDINDWG
 40
0.1147281597
  9
$TDUSRTIMER
 40
0.1147281597
  9
$USRTIMER
 70
     1
  9
$ANGBASE
 50
0.0
  9
$ANGDIR
 70
     0
  9
$PDMODE
 70
     0
  9
$PDSIZE
 40
0.3125
  9
$PLINEWID
 40
0.0
  9
$COORDS
 70
     1
  9
$SPLFRAME
 70
     0
  9
$SPLINETYPE
 70
     6
  9
$SPLINESEGS
 70
     8
  9
$ATTDIA
 70
     1
  9
$ATTREQ
 70
     1
  9
$HANDLING
 70
     1
  9
$HANDSEED
  5
967A
  9
$SURFTAB1
 70
     6
  9
$SURFTAB2
 70
     6
  9
$SURFTYPE
 70
     6
  9
$SURFU
 70
     6
  9
$SURFV
 70
     6
  9
$UCSNAME
  2

  9
$UCSORG
 10
0.0
 20
0.0
 30
0.0
  9
$UCSXDIR
 10
1.0
 20
0.0
 30
0.0
  9
$UCSYDIR
 10
0.0
 20
1.0
 30
0.0
  9
$PUCSNAME
  2

  9
$PUCSORG
 10
0.0
 20
0.0
 30
0.0
  9
$PUCSXDIR
 10
1.0
 20
0.0
 30
0.0
  9
$PUCSYDIR
 10
0.0
 20
1.0
 30
0.0
  9
$USERI1
 70
     0
  9
$USERI2
 70
     0
  9
$USERI3
 70
     0
  9
$USERI4
 70
     0
  9
$USERI5
 70
     0
  9
$USERR1
 40
0.0
  9
$USERR2
 40
0.0
  9
$USERR3
 40
0.0
  9
$USERR4
 40
0.0
  9
$USERR5
 40
0.0
  9
$WORLDVIEW
 70
     1
  9
$SHADEDGE
 70
     3
  9
$SHADEDIF
 70
    70
  9
$TILEMODE
 70
     1
  9
$MAXACTVP
 70
    64
  9
$PLIMCHECK
 70
     0
  9
$PEXTMIN
 10
1.0000000000000000E+20
 20
1.0000000000000000E+20
 30
1.0000000000000000E+20
  9
$PEXTMAX
 10
-1.0000000000000000E+20
 20
-1.0000000000000000E+20
 30
-1.0000000000000000E+20
  9
$PLIMMIN
 10
0.0
 20
0.0
  9
$PLIMMAX
 10
12.0
 20
9.0
  9
$UNITMODE
 70
     0
  9
$VISRETAIN
 70
     1
  9
$PLINEGEN
 70
     0
  9
$PSLTSCALE
 70
     1
  0
ENDSEC
  0
SECTION
  2
TABLES
  0
TABLE
  2
VPORT
 70
     1
  0
VPORT
  2
*ACTIVE
 70
     0
 10
0.0
 20
0.0
 11
1.0
 21
1.0
 12
12.3483942181896094
 22
0.6671394533008215
 13
0.0
 23
0.0
 14
1.0
 24
1.0
 15
0.0
 25
0.0
 16
0.0
 26
0.0
 36
22.1717569192708517
 17
105.9908256530762003
 27
-14.5198258455586604
 37
0.0
 40
5.661112782390858
 41
1.593589743589743
 42
50.0
 43
0.0
 44
0.0
 50
0.0
 51
0.0
 71
     0
 72
   100
 73
     1
 74
     1
 75
     0
 76
     0
 77
     0
 78
     0
  0
ENDTAB
  0
TABLE
  2
LTYPE
 70
     2
  0
LTYPE
  2
CONTINUOUS
 70
     0
  3
Solid line
 72
    65
 73
     0
 40
0.0
  0
LTYPE
  2
PHANTOM2
 70
     0
  3
___ _ _ ___ _ _ ___ _ _ ___ _ _
 72
    65
 73
     6
 40
1.25
 49
0.625
 49
-0.125
 49
0.125
 49
-0.125
 49
0.125
 49
-0.125
  0
ENDTAB
  0
TABLE
  2
LAYER
 70
     2
  0
LAYER
  2
0
 70
     0
 62
   255
  6
CONTINUOUS
  0
LAYER
  2
DEFPOINTS
 70
     0
 62
     7
  6
CONTINUOUS
  0
ENDTAB
  0
TABLE
  2
STYLE
 70
     1
  0
STYLE
  2
STANDARD
 70
     0
 40
0.0
 41
0.8
 50
0.0
 71
     0
 42
0.2
  3
txt
  4

  0
ENDTAB
  0
TABLE
  2
VIEW
 70
     0
  0
ENDTAB
  0
TABLE
  2
UCS
 70
     0
  0
ENDTAB
  0
TABLE
  2
APPID
 70
     9
  0
APPID
  2
ACAD
 70
     0
  0
APPID
  2
ACAD_MLEADERVER
 70
     0
  0
APPID
  2
ACAD_EXEMPT_FROM_CAD_STANDARDS
 70
     0
  0
APPID
  2
ACAD_DSTYLE_DIMJAG
 70
     0
  0
APPID
  2
ACAD_DSTYLE_DIMTALN
 70
     0
  0
APPID
  2
ACAD_NAV_VCDISPLAY
 70
     0
  0
APPID
  2
ACAECLAYERSTANDARD
 70
     0
  0
APPID
  2
ACCMTRANSPARENCY
 70
     0
  0
APPID
  2
ACDBATTR
 70
     0
  0
ENDTAB
  0
TABLE
  2
DIMSTYLE
 70
     1
  0
DIMSTYLE
  2
STANDARD
 70
     0
  3

  4

  5

  6

  7

 40
1.0
 41
0.1875
 42
0.0625
 43
0.38
 44
0.125
 45
0.0
 46
0.0
 47
0.01
 48
0.01
140
0.15625
141
0.09
142
0.0
143
25.3999999999999986
144
1.0
145
0.0
146
1.0
147
0.09
 71
     1
 72
     0
 73
     1
 74
     1
 75
     0
 76
     0
 77
     0
 78
     4
170
     0
171
     2
172
     0
173
     0
174
     0
175
     0
176
     0
177
     0
178
     0
  0
ENDTAB
  0
ENDSEC
  0
SECTION
  2
BLOCKS
  0
BLOCK
  8
0
  2
$MODEL_SPACE
 70
     0
 10
0.0
 20
0.0
 30
0.0
  3
$MODEL_SPACE
  1

  0
ENDBLK
  5
21
  8
0
  0
BLOCK
 67
     1
  8
0
  2
$PAPER_SPACE
 70
     0
 10
0.0
 20
0.0
 30
0.0
  3
$PAPER_SPACE
  1

  0
ENDBLK
  5
1D
 67
     1
  8
0
  0
ENDSEC
  0
SECTION
  2
ENTITIES
  0
ATTDEF
  5
383D
  8
DEFPOINTS
 10
118.3310639514133982
 20
-16.6576748637219687
 30
0.0
 40
0.001
  1
K-72275ME-4ND
  3

  2
MODELNUMBER
 70
     0
1001
ACDBATTR
1070
     0
1070
     1
  0
ATTDEF
  5
383E
  8
DEFPOINTS
 10
118.3310639514133982
 20
-16.659341530388641
 30
0.0
 40
0.001
  1
ALEO
  3

  2
TRADENAME
 70
     0
1001
ACDBATTR
1070
     0
1070
     1
  0
ATTDEF
  5
383F
  8
DEFPOINTS
 10
118.3310639514133982
 20
-16.661008197055299
 30
0.0
 40
0.001
  1
BATHROOM SINK FAUCET
  3

  2
PRODUCT
 70
     0
1001
ACDBATTR
1070
     0
1070
     1
  0
LINE
  5
9315
  8
0
 10
119.3309610234227023
 20
-16.6560430031084614
 30
0.0
 11
117.3449644538844012
 21
-16.6560430031084614
 31
0.0
  0
LINE
  5
9316
  8
0
 10
117.376803565837406
 20
-12.4906886724084494
 30
0.0
 11
119.2991219061814974
 21
-12.4906886724084494
 31
0.0
  0
ARC
  5
9317
  8
0
 10
118.3379613164536011
 20
-11.8706106751182805
 30
0.0
 40
0.1259842520000261
 50
89.9993532044330777
 51
179.9999999999947136
  0
ARC
  5
9318
  8
0
 10
118.3451983006175965
 20
-11.8861473043868795
 30
0.0
 40
0.1341241388196427
 50
173.3480564206780912
 51
221.9705393152358113
  0
ARC
  5
9319
  8
0
 10
118.3379748446439947
 20
-11.8902718270145993
 30
0.0
 40
0.1260076621851982
 50
222.7727205591972961
 51
269.9944953969733206
  0
ARC
  5
931A
  8
0
 10
119.2947853929920967
 20
-12.52690947305687
 30
0.0
 40
0.0364794702024773
 50
7.4000998528487472
 51
83.1727943325852266
  0
ARC
  5
931B
  8
0
 10
119.3042830827788947
 20
-11.07827125035843
 30
0.0
 40
0.0196499617409216
 50
13.8878444679034807
 51
92.4616240275107231
  0
ARC
  5
931C
  8
0
 10
119.2666917283355019
 20
-12.3648057232617994
 30
0.0
 40
0.0573788949116363
 50
346.792187568179088
 51
350.9645258306297819
  0
ARC
  5
931D
  8
0
 10
118.3379613178535976
 20
-11.8706106751182592
 30
0.0
 40
0.1259842519999994
 50
0.0
 51
89.9993538411310539
  0
ARC
  5
931E
  8
0
 10
118.3307243336895027
 20
-11.8861473043868795
 30
0.0
 40
0.1341241388196427
 50
318.0294606847641035
 51
6.6519435793218467
  0
ARC
  5
931F
  8
0
 10
118.3379477885838043
 20
-11.8902718254970008
 30
0.0
 40
0.126007664008134
 50
270.0067978079841851
 51
317.2272792675721007
  0
ARC
  5
9320
  8
0
 10
119.1515508597812953
 20
-11.9306267751350301
 30
0.0
 40
0.8186922569797673
 50
83.5131513128969942
 51
89.6812194043112072
  0
ARC
  5
9321
  8
0
 10
119.2355801961620045
 20
-11.1916026356874099
 30
0.0
 40
0.074906260836468
 50
62.5007527330657808
 51
83.5131513128953458
  0
ARC
  5
9322
  8
0
 10
119.2454439549923961
 20
-11.1607233727772908
 30
0.0
 40
0.0433131157323133
 50
22.285682946860021
 51
55.1938016154170228
  0
ARC
  5
9323
  8
0
 10
119.0744293442606931
 20
-11.2276157063202309
 30
0.0
 40
0.2269402167146326
 50
6.3261858544986689
 51
21.5390474335170801
  0
ARC
  5
9324
  8
0
 10
117.2185096434747038
 20
-11.4511465711351406
 30
0.0
 40
2.09626367358476
 50
1.737559316344633
 51
6.8091151714507809
  0
ARC
  5
9325
  8
0
 10
128.2353105411428089
 20
-11.2092589267001301
 30
0.0
 40
8.9232831288814918
 50
181.1450939081746867
 51
182.8877491772408916
  0
ARC
  5
9326
  8
0
 10
119.1011231967204935
 20
-11.1081845813655207
 30
0.0
 40
0.055111248021346
 50
304.6352143028240107
 51
356.0852019671929725
  0
ARC
  5
9327
  8
0
 10
118.9315631066993006
 20
-10.8627161440003004
 30
0.0
 40
0.3534489390201511
 50
283.1312095437157836
 51
304.6352143028240107
  0
ARC
  5
9328
  8
0
 10
118.5967748310492027
 20
-9.685123523590434
 30
0.0
 40
1.577393504728035
 50
277.5158978265542942
 51
285.2568414708443925
  0
ARC
  5
9329
  8
0
 10
118.4296720858065015
 20
-8.5844642466608718
 30
0.0
 40
2.6905413432253851
 50
274.3397482406230097
 51
277.9779983758220965
  0
LINE
  5
932A
  8
0
 10
119.3309610234227023
 20
-16.6560430031084614
 30
0.0
 11
119.3309610234227023
 21
-12.5222110148838208
 31
0.0
  0
LINE
  5
932B
  8
0
 10
119.1561058525067978
 20
-11.1119471896561297
 30
0.0
 11
117.5198196248003057
 21
-11.1119471896561297
 31
0.0
  0
ARC
  5
932C
  8
0
 10
117.3811400857279068
 20
-12.5269094737565094
 30
0.0
 40
0.0364794716937706
 50
96.8272159873107228
 51
172.5998993432559132
  0
ARC
  5
932D
  8
0
 10
117.3716423945281946
 20
-11.07827125035843
 30
0.0
 40
0.0196499617409216
 50
87.5383759724892769
 51
166.1956064133534028
  0
ARC
  5
932E
  8
0
 10
117.4126625227910949
 20
-12.3644297704222694
 30
0.0
 40
0.0607761678103901
 50
188.5386520308310025
 51
192.8001030094096109
  0
ARC
  5
932F
  8
0
 10
117.524374617525794
 20
-11.9306267751350301
 30
0.0
 40
0.8186922569797673
 50
90.318780595688807
 51
96.4868486871029916
  0
ARC
  5
9330
  8
0
 10
117.4403452811449995
 20
-11.1916026356874099
 30
0.0
 40
0.074906260836468
 50
96.4868486871046827
 51
117.499247266934205
  0
ARC
  5
9331
  8
0
 10
117.4304815223146932
 20
-11.1607233727772908
 30
0.0
 40
0.0433131157323133
 50
124.8061983845829985
 51
157.7143170531402063
  0
ARC
  5
9332
  8
0
 10
117.6014961330463962
 20
-11.2276157063202309
 30
0.0
 40
0.2269402167146326
 50
158.460952566482888
 51
173.6738141455012965
  0
ARC
  5
9333
  8
0
 10
119.4574158338323997
 20
-11.4511465711351406
 30
0.0
 40
2.09626367358476
 50
173.1908848285494003
 51
178.2624406836555124
  0
ARC
  5
9334
  8
0
 10
108.4406149361643941
 20
-11.2092589267001301
 30
0.0
 40
8.9232831288814918
 50
357.1113780132716897
 51
358.8549060918247733
  0
ARC
  5
9335
  8
0
 10
117.5748022805865958
 20
-11.1081845813655207
 30
0.0
 40
0.055111248021346
 50
183.9147980328066865
 51
235.364785697176103
  0
ARC
  5
9336
  8
0
 10
117.7443623706078029
 20
-10.8627161440003004
 30
0.0
 40
0.3534489390201511
 50
235.364785697176103
 51
256.8687904562842164
  0
ARC
  5
9337
  8
0
 10
118.0791506462578013
 20
-9.685123523590434
 30
0.0
 40
1.577393504728035
 50
254.7431585291556075
 51
262.4841021734457058
  0
ARC
  5
9338
  8
0
 10
118.246253391500602
 20
-8.5844642466608718
 30
0.0
 40
2.6905413432253851
 50
262.0220016241779035
 51
265.6602517593769903
  0
LINE
  5
9339
  8
0
 10
117.3449644538844012
 20
-16.6560430031084614
 30
0.0
 11
117.3449644538844012
 21
-12.5222110148838208
 31
0.0
  0
ARC
  5
933A
  8
0
 10
118.3379627386536015
 20
-42.5417612934084417
 30
0.0
 40
31.4979222717890295
 50
88.2434908909013132
 51
91.7565091090986726
  0
ARC
  5
933B
  8
0
 10
118.3379627386536015
 20
-7.4875838170862599
 30
0.0
 40
3.7912259798665282
 50
265.5326258210989749
 51
274.4673741789010251
  0
ARC
  5
933C
  8
0
 10
118.8561384628109039
 20
-12.4975989852390708
 30
0.0
 40
0.3955165649003603
 50
1.001100691413038
 51
16.1272215432563009
  0
ARC
  5
933D
  8
0
 10
117.8304019479255942
 20
-12.4995228162532896
 30
0.0
 40
0.4062230260711718
 50
164.0268996678267115
 51
178.7538887987385863
  0
LINE
  5
933E
  8
0
 10
117.3613115346036011
 20
-12.3877359165084506
 30
0.0
 11
119.3144834530036036
 21
-12.3877359165084506
 31
0.0
  0
ARC
  5
933F
  8
0
 10
119.3144834530036036
 20
-12.3812296944767599
 30
0.0
 40
0.0065062220316943
 50
269.9999999999992042
 51
324.8690550707281091
  0
ARC
  5
9340
  8
0
 10
119.2872141532332932
 20
-12.3682189328564398
 30
0.0
 40
0.0366449447858387
 50
332.7922304307036256
 51
344.6557186577547895
  0
ARC
  5
9341
  8
0
 10
117.3610077187064036
 20
-12.3820954673183898
 30
0.0
 40
0.0056486255996482
 50
210.4155248530759934
 51
273.0831876344616944
  0
ARC
  5
9342
  8
0
 10
117.388274400457405
 20
-12.3684224114604593
 30
0.0
 40
0.0361410939440233
 50
195.1943002689421007
 51
207.2227321047571991
  0
LINE
  5
9343
  8
0
 10
119.2384467384381992
 20
-12.6929440922427705
 30
0.0
 11
117.4359872036792041
 21
-12.6929440922427705
 31
0.0
  0
ARC
  5
9344
  8
0
 10
117.4271663226597013
 20
-11.9539672944972395
 30
0.0
 40
1.8691769624775281
 50
318.5436100494648031
 51
331.4460207525701776
  0
ARC
  5
9345
  8
0
 10
144.100215797475812
 20
-24.2241690148743594
 30
0.0
 40
27.4953257874094099
 50
155.2040096338539001
 51
155.5580741604474042
  0
ARC
  5
9346
  8
0
 10
118.9894465778350963
 20
-12.1233762405628802
 30
0.0
 40
1.56064589640058
 50
207.6191850515506871
 51
219.7563801695831955
  0
ARC
  5
9347
  8
0
 10
116.3680314283261055
 20
-13.4645815915043805
 30
0.0
 40
1.3840892259436861
 50
26.5057195037567013
 51
33.8834685327069707
  0
ARC
  5
9348
  8
0
 10
119.2363904824660068
 20
-12.7369406667785299
 30
0.0
 40
0.0440445996633377
 50
13.3081776483377396
 51
87.324129878442676
  0
ARC
  5
9349
  8
0
 10
113.3198030677080936
 20
-13.3864626645673699
 30
0.0
 40
6.0082044838265416
 50
0.0020770696025371
 51
5.2503154491314152
  0
ARC
  5
934A
  8
0
 10
118.8099011911528038
 20
-12.8848531040311496
 30
0.0
 40
0.4952480107785686
 50
5.5832699175098659
 51
18.6106250216938385
  0
ARC
  5
934B
  8
0
 10
117.4379652213383025
 20
-12.7324749619195803
 30
0.0
 40
0.0395803260631451
 50
92.8645365536988834
 51
151.316811675438089
  0
ARC
  5
934C
  8
0
 10
117.648074857942504
 20
-12.8294961996571804
 30
0.0
 40
0.2709307135449841
 50
154.6452325925660034
 51
172.2916892385032952
  0
ARC
  5
934D
  8
0
 10
119.5920066018976939
 20
-13.1171453119441708
 30
0.0
 40
2.2360111255282309
 50
171.6687441859141074
 51
177.8312184771457964
  0
ARC
  5
934E
  8
0
 10
458.9773104482877102
 20
-25.3969254317357915
 30
0.0
 40
341.8433952073644946
 50
177.9271724892361988
 51
177.9864896744670091
  0
ARC
  5
934F
  8
0
 10
117.3232756907354997
 20
-13.3858555182935302
 30
0.0
 40
0.0217067637195682
 50
357.6664707789278168
 51
359.0752042945421749
  0
ARC
  5
9350
  8
0
 10
120.3498963109735058
 20
-13.3377812065353591
 30
0.0
 40
1.023037325880676
 50
182.7152501470499999
 51
185.1325946753723031
  0
LINE
  5
9351
  8
0
 10
119.3233586255412035
 20
-12.3738168465193201
 30
0.0
 11
119.3233586255412035
 21
-11.0735548253622795
 31
0.0
  0
LINE
  5
9352
  8
0
 10
117.3525600025631945
 20
-12.3734536075200108
 30
0.0
 11
117.3525600025631945
 21
-11.0735826137427704
 31
0.0
  0
LINE
  5
9353
  8
0
 10
118.0380916355597947
 20
-13.2572849008894895
 30
0.0
 11
118.025922918844401
 21
-13.1778084944079694
 31
0.0
  0
ARC
  5
9354
  8
0
 10
118.3713252013569956
 20
-11.2626914041103703
 30
0.0
 40
2.0998541612498021
 50
267.5564906859071925
 51
269.0896469040063153
  0
ARC
  5
9355
  8
0
 10
118.3293607731982036
 20
-12.6028737555133308
 30
0.0
 40
0.7592536502048784
 50
258.2082902895252801
 51
266.4085009900189789
  0
ARC
  5
9356
  8
0
 10
118.2457729029413969
 20
-13.0032757379653408
 30
0.0
 40
0.3502198134559196
 50
241.8308884184201872
 51
258.2082902895252801
  0
ARC
  5
9357
  8
0
 10
118.1204494250843027
 20
-13.2373058988926608
 30
0.0
 40
0.084746480848196
 50
193.6358501334972004
 51
241.8308884184201872
  0
ARC
  5
9358
  8
0
 10
118.337837147294394
 20
-14.0217787225016792
 30
0.0
 40
0.8247972592606601
 50
89.9912756077036562
 51
94.6538805549730569
  0
ARC
  5
9359
  8
0
 10
118.3258845880104957
 20
-13.8749504130974906
 30
0.0
 40
0.6774832541018763
 50
94.6538760633191885
 51
101.2339747787154067
  0
ARC
  5
935A
  8
0
 10
118.2653865496613008
 20
-13.5703610283315008
 30
0.0
 40
0.3669438750269739
 50
101.2339747787154067
 51
112.9526882441710995
  0
ARC
  5
935B
  8
0
 10
118.1659874768206038
 20
-13.3356528227218298
 30
0.0
 40
0.1120554338176728
 50
112.9526882441710995
 51
133.0624095943167049
  0
ARC
  5
935C
  8
0
 10
118.1160554019266016
 20
-13.2822240258310593
 30
0.0
 40
0.0389264488636173
 50
133.0624095943178986
 51
162.5004524909797965
  0
ARC
  5
935D
  8
0
 10
118.1092632466893946
 20
-13.2770771116707103
 30
0.0
 40
0.0310336238688487
 50
167.7999483805222951
 51
227.4674315453376039
  0
ARC
  5
935E
  8
0
 10
118.2085938972092976
 20
-13.1516914671602194
 30
0.0
 40
0.1909285126027903
 50
230.9403313666936128
 51
258.5180112438355877
  0
ARC
  5
935F
  8
0
 10
118.329838880341498
 20
-12.6664587400583901
 30
0.0
 40
0.690943089858399
 50
256.6744431770827077
 51
266.9803746576592971
  0
ARC
  5
9360
  8
0
 10
118.3380198724556038
 20
-12.4770410522524209
 30
0.0
 40
0.8838868028383507
 50
264.8555115539393228
 51
269.9982922312591995
  0
ARC
  5
9361
  8
0
 10
118.3143145103619958
 20
-12.7403452270465003
 30
0.0
 40
0.6195176808592949
 50
256.0094209857002738
 51
264.8555115539393228
  0
ARC
  5
9362
  8
0
 10
118.2384566333487044
 20
-13.0448078143926907
 30
0.0
 40
0.3057472479015213
 50
243.5091398014201047
 51
256.0094209857002738
  0
ARC
  5
9363
  8
0
 10
118.1380475867603934
 20
-13.2462776826201107
 30
0.0
 40
0.0806426401291949
 50
214.142618822722909
 51
243.5091398014209858
  0
ARC
  5
9364
  8
0
 10
118.0921905831265946
 20
-13.2773749795333504
 30
0.0
 40
0.0252359017521174
 50
147.5310941513851049
 51
214.1426188227216016
  0
ARC
  5
9365
  8
0
 10
118.1612263410645056
 20
-13.3338745404396803
 30
0.0
 40
0.1143046723091786
 50
106.2095491525474955
 51
142.2069089603438954
  0
ARC
  5
9366
  8
0
 10
118.2855591601531984
 20
-13.6686187865236395
 30
0.0
 40
0.4711644751581943
 50
97.3849725891104896
 51
109.3662992777158962
  0
ARC
  5
9367
  8
0
 10
118.3322139522367991
 20
-13.9665897110020207
 30
0.0
 40
0.7727015835494522
 50
92.8210320965411029
 51
97.9758057323303007
  0
ARC
  5
9368
  8
0
 10
118.3378696929562039
 20
-14.0597028923660599
 30
0.0
 40
0.8659809362002693
 50
89.993843830106016
 51
92.8915743293920002
  0
ARC
  5
9369
  8
0
 10
118.0573696844413973
 20
-13.1727194448135094
 30
0.0
 40
0.0318558863052444
 50
150.9639844590273867
 51
189.1925163716695977
  0
ARC
  5
936A
  8
0
 10
118.0850208496487994
 20
-13.1880694656675903
 30
0.0
 40
0.0634819843501293
 50
124.1328770551301943
 51
150.963984459027813
  0
ARC
  5
936B
  8
0
 10
118.2079798242577056
 20
-13.3867325330388702
 30
0.0
 40
0.2970752934375349
 50
100.2292801590273967
 51
122.2627531569356023
  0
ARC
  5
936C
  8
0
 10
118.3273289287892993
 20
-13.9080269385496198
 30
0.0
 40
0.8316507867537613
 50
91.4662435423938263
 51
101.9433843005678995
  0
ARC
  5
936D
  8
0
 10
118.3379917182293042
 20
-14.0815028795612207
 30
0.0
 40
1.005362010187298
 50
90.0016515517452831
 51
91.8207475432115814
  0
ARC
  5
936E
  8
0
 10
118.1536804075633995
 20
-12.7405552060113294
 30
0.0
 40
0.5539230403153156
 50
241.3722905250207873
 51
259.234604558355727
  0
ARC
  5
936F
  8
0
 10
117.9473139877180046
 20
-13.1186228364406006
 30
0.0
 40
0.1232001219347993
 50
216.2403502539600879
 51
241.3722905250216968
  0
ARC
  5
9370
  8
0
 10
117.8941360362329931
 20
-13.1576007540634805
 30
0.0
 40
0.0572670301950935
 50
148.7804684464846048
 51
216.2403502539598037
  0
ARC
  5
9371
  8
0
 10
118.2900355710934974
 20
-14.1276441475135801
 30
0.0
 40
1.1226867096411051
 50
94.5130115848933769
 51
104.8707896639778028
  0
ARC
  5
9372
  8
0
 10
118.5885837038846944
 20
-18.4853450075684584
 30
0.0
 40
5.490554473762943
 50
92.6162229628159253
 51
94.0406472110761342
  0
ARC
  5
9373
  8
0
 10
118.3377624088725071
 20
-14.5747838279002693
 30
0.0
 40
1.569127728783857
 50
89.9926850754176542
 51
93.8302423619369819
  0
ARC
  5
9374
  8
0
 10
118.3225248555416016
 20
-14.3471881601823306
 30
0.0
 40
1.341022553490778
 50
93.8302423619353334
 51
100.7205637106027041
  0
ARC
  5
9375
  8
0
 10
118.2110768795164972
 20
-13.7585245487203807
 30
0.0
 40
0.7419019489214597
 50
100.7205637106027041
 51
110.8358420502964066
  0
ARC
  5
9376
  8
0
 10
118.0458087635985009
 20
-13.32427167736844
 30
0.0
 40
0.277263265193445
 50
110.8358420502973019
 51
126.5143804580668956
  0
ARC
  5
9377
  8
0
 10
117.9432073712513045
 20
-13.1856866116061795
 30
0.0
 40
0.1048310577496916
 50
126.5143804580668956
 51
152.6211916620503928
  0
ARC
  5
9378
  8
0
 10
117.9003488533737993
 20
-13.1577303876614806
 30
0.0
 40
0.0541591576872695
 50
158.0408396729636991
 51
218.8441655396185865
  0
ARC
  5
9379
  8
0
 10
118.0941417364488046
 20
-12.9298571089257894
 30
0.0
 40
0.3524847597169859
 50
227.9744782515194004
 51
262.2729755085698002
  0
ARC
  5
937A
  8
0
 10
117.9695707593072029
 20
-13.2205577246238608
 30
0.0
 40
0.1551116618932778
 50
117.8263228009791987
 51
143.3272203723279006
  0
ARC
  5
937B
  8
0
 10
118.1277582944865969
 20
-13.5202532631301793
 30
0.0
 40
0.4939932224520187
 50
104.7592952766540009
 51
117.8263228009791987
  0
ARC
  5
937C
  8
0
 10
118.3260862866618055
 20
-14.0599725955532708
 30
0.0
 40
1.0028344085087071
 50
92.1770149674168522
 51
102.4112754972641
  0
ARC
  5
937D
  8
0
 10
118.1058993793256064
 20
-13.2833350143187694
 30
0.0
 40
0.1925937051114371
 50
110.0600249691753021
 51
129.0156606337147025
  0
ARC
  5
937E
  8
0
 10
118.0260187510746022
 20
-13.1847457645936093
 30
0.0
 40
0.0657049548963248
 50
129.0156606337135088
 51
155.2693456238789906
  0
ARC
  5
937F
  8
0
 10
118.081832343677803
 20
-13.1088887089358792
 30
0.0
 40
0.140079856535719
 50
214.4646679851668978
 51
250.7361856737840924
  0
LINE
  5
9380
  8
0
 10
118.0275077889384931
 20
-13.1881596088898991
 30
0.0
 11
117.9663399602599014
 21
-13.1881596088898991
 31
0.0
  0
LINE
  5
9381
  8
0
 10
118.0295176119599034
 20
-13.1572578940898897
 30
0.0
 11
117.9663399602599014
 21
-13.1572578940898897
 31
0.0
  0
LINE
  5
9382
  8
0
 10
118.0849040757066035
 20
-13.1163511540765203
 30
0.0
 11
118.0398388893764974
 21
-13.1024252386950302
 31
0.0
  0
LINE
  5
9383
  8
0
 10
118.1552229133720004
 20
-13.0943792564627408
 30
0.0
 11
118.1105495674598984
 21
-13.0805744264898909
 31
0.0
  0
LINE
  5
9384
  8
0
 10
118.287991678959898
 20
-13.0773070026602607
 30
0.0
 11
118.287991678959898
 21
-13.0578619969898906
 31
0.0
  0
LINE
  5
9385
  8
0
 10
118.0295176119599034
 20
-13.1097050706898894
 30
0.0
 11
118.0295176119599034
 21
-13.1572578940898897
 31
0.0
  0
LINE
  5
9386
  8
0
 10
118.1552229134598946
 20
-13.0943792564441495
 30
0.0
 11
118.1552229134598946
 21
-13.0718012750895198
 31
0.0
  0
ARC
  5
9387
  8
0
 10
118.3441936886432018
 20
-14.4226297411447693
 30
0.0
 40
1.369332489729306
 50
90.2607170803780861
 51
93.5094487895820663
  0
ARC
  5
9388
  8
0
 10
118.3300213224636934
 20
-14.1641038267596908
 30
0.0
 40
1.1104251194133461
 50
93.5961023396321536
 51
99.0608179836806784
  0
ARC
  5
9389
  8
0
 10
118.2609195458044979
 20
-13.7307897510068599
 30
0.0
 40
0.6716357123135609
 50
99.0608179836806784
 51
105.9667212093073942
  0
ARC
  5
938A
  8
0
 10
118.1938248162751961
 20
-13.4962886521082694
 30
0.0
 40
0.4277249333076596
 50
105.9667212093073942
 51
116.6440931715600016
  0
ARC
  5
938B
  8
0
 10
118.0602059881805985
 20
-13.2299701251744697
 30
0.0
 40
0.1297659612837534
 50
116.6440931715600016
 51
137.8718740003014886
  0
ARC
  5
938C
  8
0
 10
117.9971068787090047
 20
-13.1728994158734807
 30
0.0
 40
0.0446862135394641
 50
137.8718740003014886
 51
199.4745630409501018
  0
ARC
  5
938D
  8
0
 10
118.0724636415928046
 20
-13.1093751527120492
 30
0.0
 40
0.1412554354346345
 50
213.7230808235088944
 51
255.1889424688137922
  0
ARC
  5
938E
  8
0
 10
118.3375417210720002
 20
-14.4237815983702902
 30
0.0
 40
1.4029180179378999
 50
89.9828054593528037
 51
94.2519240468068062
  0
ARC
  5
938F
  8
0
 10
118.3245351743868952
 20
-14.2488368649052308
 30
0.0
 40
1.2274904544712739
 50
94.2519240468076163
 51
98.5639319299003347
  0
ARC
  5
9390
  8
0
 10
118.2692020917071005
 20
-13.8813996457517703
 30
0.0
 40
0.855910234252186
 50
98.5639319299003347
 51
107.3911291476564998
  0
ARC
  5
9391
  8
0
 10
118.1118634408538952
 20
-13.3790588592987998
 30
0.0
 40
0.3295057160473083
 50
107.3911291476556045
 51
123.4357339820128061
  0
ARC
  5
9392
  8
0
 10
117.9811722655401951
 20
-13.1811240146409308
 30
0.0
 40
0.0923172128802999
 50
123.4357339820117971
 51
152.5841095035993931
  0
ARC
  5
9393
  8
0
 10
117.9494639221533987
 20
-13.1586415325875201
 30
0.0
 40
0.0540841388690653
 50
158.2690133767557938
 51
214.9752044778070115
  0
ARC
  5
9394
  8
0
 10
118.0899781213361024
 20
-12.9908382005360608
 30
0.0
 40
0.2714517480795343
 50
227.0862016463325119
 51
258.9804214801470152
  0
ARC
  5
9395
  8
0
 10
117.9436212665163026
 20
-13.1328278124156306
 30
0.0
 40
0.0686169875089141
 50
150.7474839356196981
 51
235.895422618192697
  0
ARC
  5
9396
  8
0
 10
118.3282710877927997
 20
-14.1591672071819907
 30
0.0
 40
1.1280037994569549
 50
89.5077166200498766
 51
99.73447895747654
  0
ARC
  5
9397
  8
0
 10
118.258204520440799
 20
-13.7507520707229194
 30
0.0
 40
0.7136220339993247
 50
99.7343278133591866
 51
109.6019132683672979
  0
ARC
  5
9398
  8
0
 10
118.097578390119196
 20
-13.2997091523096902
 30
0.0
 40
0.2348314033549939
 50
109.6019132683672979
 51
128.1470525390053865
  0
ARC
  5
9399
  8
0
 10
117.9957670618072001
 20
-13.1700837241739599
 30
0.0
 40
0.070003316573582
 50
128.1470525390053865
 51
156.3512913649989002
  0
ARC
  5
939A
  8
0
 10
117.970468571179893
 20
-13.1590054638875795
 30
0.0
 40
0.042385541880546
 50
156.351291364999895
 51
230.1343284794535009
  0
ARC
  5
939B
  8
0
 10
118.043689278182498
 20
-13.0954404196408394
 30
0.0
 40
0.1389707405037738
 50
223.7488341584823104
 51
246.6234556793702097
  0
ARC
  5
939C
  8
0
 10
116.962682031514106
 20
-13.8917436245232402
 30
0.0
 40
1.1287554648297491
 50
38.3396666307587921
 51
43.0990016055270431
  0
LINE
  5
939D
  8
0
 10
118.6378954187599959
 20
-13.2572849008894895
 30
0.0
 11
118.6500641354754038
 21
-13.1778084944079694
 31
0.0
  0
ARC
  5
939E
  8
0
 10
118.5555376292355021
 20
-13.2373058988926608
 30
0.0
 40
0.084746480848196
 50
298.169111581578818
 51
346.364149866502828
  0
ARC
  5
939F
  8
0
 10
118.5099995774993005
 20
-13.3356528227218298
 30
0.0
 40
0.1120554338176728
 50
46.9375904056831033
 51
67.0473117558297673
  0
ARC
  5
93A0
  8
0
 10
118.5599316523932032
 20
-13.2822240258310593
 30
0.0
 40
0.0389264488636173
 50
17.4995475090202284
 51
52.1086884282963467
  0
ARC
  5
93A1
  8
0
 10
118.566723807630396
 20
-13.2770771116707103
 30
0.0
 40
0.0310336238688487
 50
312.5325684546864977
 51
12.2000516194777404
  0
ARC
  5
93A2
  8
0
 10
118.5379394675593971
 20
-13.2462776826201107
 30
0.0
 40
0.0806426401291949
 50
296.4908601985799237
 51
325.857381177277091
  0
ARC
  5
93A3
  8
0
 10
118.583796471193196
 20
-13.2773749795333504
 30
0.0
 40
0.0252359017521174
 50
325.8573811772782278
 51
46.1255750775083797
  0
ARC
  5
93A4
  8
0
 10
118.5147607132553986
 20
-13.3338745404396803
 30
0.0
 40
0.1143046723091786
 50
40.8013898864815019
 51
73.7904508474550056
  0
ARC
  5
93A5
  8
0
 10
118.6186173698783932
 20
-13.1727194448135094
 30
0.0
 40
0.0318558863052444
 50
350.8074836283303739
 51
29.0360155409725884
  0
ARC
  5
93A6
  8
0
 10
118.5909662046711048
 20
-13.1880694656675903
 30
0.0
 40
0.0634819843501293
 50
29.0360155409722296
 51
55.8671229448698625
  0
ARC
  5
93A7
  8
0
 10
118.4680072300621987
 20
-13.3867325330388702
 30
0.0
 40
0.2970752934375349
 50
57.7372468430644119
 51
79.770719840971708
  0
ARC
  5
93A8
  8
0
 10
118.3486581255305055
 20
-13.9080269385496198
 30
0.0
 40
0.8316507867537613
 50
78.0566156994321005
 51
88.5337564576069838
  0
ARC
  5
93A9
  8
0
 10
118.3379953256629022
 20
-14.0815033170065895
 30
0.0
 40
1.0053624477431231
 50
88.1792526549129434
 51
90.0018571392923263
  0
ARC
  5
93AA
  8
0
 10
118.5223066467564053
 20
-12.7405552060113294
 30
0.0
 40
0.5539230403153156
 50
280.765395441644273
 51
298.6277094749781895
  0
ARC
  5
93AB
  8
0
 10
118.7286730666018002
 20
-13.1186228364406006
 30
0.0
 40
0.1232001219347993
 50
298.6277094749781895
 51
323.7596497460398837
  0
ARC
  5
93AC
  8
0
 10
118.7818510180867975
 20
-13.1576007540634805
 30
0.0
 40
0.0572670301950935
 50
323.759649746040111
 51
31.2195315535157789
  0
ARC
  5
93AD
  8
0
 10
118.3859514832264068
 20
-14.1276441475135801
 30
0.0
 40
1.1226867096411051
 50
75.1292103360222114
 51
85.4869884151066088
  0
ARC
  5
93AE
  8
0
 10
118.088212937495598
 20
-18.4733652396999197
 30
0.0
 40
5.478547437112308
 50
85.9589703370432119
 51
87.387159529543311
  0
ARC
  5
93AF
  8
0
 10
118.3382242409438021
 20
-14.5747918949150197
 30
0.0
 40
1.569135804800768
 50
86.1697625777500491
 51
90.0095485537900544
  0
ARC
  5
93B0
  8
0
 10
118.3534621987782032
 20
-14.3471881601823306
 30
0.0
 40
1.341022553490778
 50
79.2794362893972533
 51
86.1697576380646524
  0
ARC
  5
93B1
  8
0
 10
118.4649101748032933
 20
-13.7585245487203807
 30
0.0
 40
0.7419019489214597
 50
69.164157949702755
 51
79.2794362893972533
  0
ARC
  5
93B2
  8
0
 10
118.6301782907213038
 20
-13.32427167736844
 30
0.0
 40
0.277263265193445
 50
53.4856195419330476
 51
69.164157949702755
  0
ARC
  5
93B3
  8
0
 10
118.7327796830685998
 20
-13.1856866116061795
 30
0.0
 40
0.1048310577496916
 50
27.3788083379496108
 51
53.4856195419330476
  0
ARC
  5
93B4
  8
0
 10
118.7756382009460054
 20
-13.1577303876614806
 30
0.0
 40
0.0541591576872695
 50
321.1558344603814135
 51
21.9591603270366491
  0
ARC
  5
93B5
  8
0
 10
118.5818453178710001
 20
-12.9298571089257894
 30
0.0
 40
0.3524847597169859
 50
277.7270244914301998
 51
312.025521748480628
  0
ARC
  5
93B6
  8
0
 10
118.7064162950126018
 20
-13.2205577246238608
 30
0.0
 40
0.1551116618932778
 50
36.6727796276720781
 51
62.1736771990207373
  0
ARC
  5
93B7
  8
0
 10
118.5482287598331936
 20
-13.5202532631301793
 30
0.0
 40
0.4939932224520187
 50
62.1736771990207373
 51
75.2407047233459849
  0
ARC
  5
93B8
  8
0
 10
118.3499007676579993
 20
-14.0599725955532708
 30
0.0
 40
1.0028344085087071
 50
77.5887245027358716
 51
87.8229850325823236
  0
ARC
  5
93B9
  8
0
 10
118.5700876749941983
 20
-13.2833350143187694
 30
0.0
 40
0.1925937051114371
 50
50.9843393662852975
 51
69.9399750308247121
  0
ARC
  5
93BA
  8
0
 10
118.6499683032453021
 20
-13.1847457645936093
 30
0.0
 40
0.0657049548963248
 50
24.7306543761209916
 51
50.9843393662864415
  0
ARC
  5
93BB
  8
0
 10
118.5941547106420018
 20
-13.1088887089358792
 30
0.0
 40
0.140079856535719
 50
289.2638143262158223
 51
325.5353320148329885
  0
LINE
  5
93BC
  8
0
 10
118.6484792653813969
 20
-13.1881596088898991
 30
0.0
 11
118.7096470940599033
 21
-13.1881596088898991
 31
0.0
  0
LINE
  5
93BD
  8
0
 10
118.6464694423599013
 20
-13.1572578940898897
 30
0.0
 11
118.7096470940599033
 21
-13.1572578940898897
 31
0.0
  0
LINE
  5
93BE
  8
0
 10
118.5910829786133007
 20
-13.1163511540765203
 30
0.0
 11
118.6361481649432932
 21
-13.1024252386950302
 31
0.0
  0
LINE
  5
93BF
  8
0
 10
118.5207641409478043
 20
-13.0943792564627408
 30
0.0
 11
118.5654374868599064
 21
-13.0805744264898909
 31
0.0
  0
LINE
  5
93C0
  8
0
 10
118.3879953753599068
 20
-13.0773070026602607
 30
0.0
 11
118.3879953753599068
 21
-13.0578619969898906
 31
0.0
  0
LINE
  5
93C1
  8
0
 10
118.6464694423599013
 20
-13.1097050706898894
 30
0.0
 11
118.6464694423599013
 21
-13.1572578940898897
 31
0.0
  0
LINE
  5
93C2
  8
0
 10
118.520764140859896
 20
-13.0943792564441495
 30
0.0
 11
118.520764140859896
 21
-13.0718012750895198
 31
0.0
  0
ARC
  5
93C3
  8
0
 10
118.3318096539024964
 20
-14.4222839608845792
 30
0.0
 40
1.36898636086019
 50
86.4903457715731463
 51
89.7424759045697442
  0
ARC
  5
93C4
  8
0
 10
118.3459657318561966
 20
-14.1641038267596908
 30
0.0
 40
1.1104251194133461
 50
80.9391820163193358
 51
86.4038976603678464
  0
ARC
  5
93C5
  8
0
 10
118.4150675085153068
 20
-13.7307897510068599
 30
0.0
 40
0.6716357123135609
 50
74.0332787906926342
 51
80.9391820163193358
  0
ARC
  5
93C6
  8
0
 10
118.4821622380446939
 20
-13.4962886521082694
 30
0.0
 40
0.4277249333076596
 50
63.3559068284399984
 51
74.0332787906926342
  0
ARC
  5
93C7
  8
0
 10
118.6157810661392062
 20
-13.2299701251744697
 30
0.0
 40
0.1297659612837534
 50
42.12812599969849
 51
63.3559068284399984
  0
ARC
  5
93C8
  8
0
 10
118.6788801756108001
 20
-13.1728994158734807
 30
0.0
 40
0.0446862135394641
 50
340.5254369590498982
 51
42.12812599969849
  0
ARC
  5
93C9
  8
0
 10
118.6035234127270996
 20
-13.1093751527120492
 30
0.0
 40
0.1412554354346345
 50
284.8110575311861794
 51
326.2769191764907077
  0
ARC
  5
93CA
  8
0
 10
118.3384445405094993
 20
-14.42379584745402
 30
0.0
 40
1.402932286579027
 50
85.7480868125025069
 51
90.0196767967428571
  0
ARC
  5
93CB
  8
0
 10
118.3514518799328954
 20
-14.2488368649052308
 30
0.0
 40
1.2274904544712739
 50
81.4360680700996795
 51
85.7480759531915737
  0
ARC
  5
93CC
  8
0
 10
118.4067849626127042
 20
-13.8813996457517703
 30
0.0
 40
0.855910234252186
 50
72.608870852343486
 51
81.4360680700996795
  0
ARC
  5
93CD
  8
0
 10
118.5641236134658953
 20
-13.3790588592987998
 30
0.0
 40
0.3295057160473083
 50
56.5642660179871868
 51
72.6088708523443813
  0
ARC
  5
93CE
  8
0
 10
118.6948147887796949
 20
-13.1811240146409308
 30
0.0
 40
0.0923172128802999
 50
27.4158904964005998
 51
56.5642660179882029
  0
ARC
  5
93CF
  8
0
 10
118.7265231321664061
 20
-13.1586415325875201
 30
0.0
 40
0.0540841388690653
 50
325.024795522193017
 51
21.7309866232441493
  0
ARC
  5
93D0
  8
0
 10
118.5860089329837024
 20
-12.9908382005360608
 30
0.0
 40
0.2714517480795343
 50
281.0195785198529848
 51
312.9137983536675165
  0
ARC
  5
93D1
  8
0
 10
118.7323657878036016
 20
-13.1328278124156306
 30
0.0
 40
0.0686169875089141
 50
304.104577381807303
 51
29.252516064380341
  0
ARC
  5
93D2
  8
0
 10
118.3477076328834983
 20
-14.1592333847064094
 30
0.0
 40
1.128070433228014
 50
80.2656721866408134
 51
90.4949586828016805
  0
ARC
  5
93D3
  8
0
 10
118.4177825338791052
 20
-13.7507520707229194
 30
0.0
 40
0.7136220339993247
 50
70.3980867316327164
 51
80.2656721866408134
  0
ARC
  5
93D4
  8
0
 10
118.5784086642005946
 20
-13.2997091523096902
 30
0.0
 40
0.2348314033549939
 50
51.8529474609945424
 51
70.3980867316327164
  0
ARC
  5
93D5
  8
0
 10
118.6802199925126047
 20
-13.1700837241739599
 30
0.0
 40
0.070003316573582
 50
23.6487086350011211
 51
51.8529474609945424
  0
ARC
  5
93D6
  8
0
 10
118.705518483139997
 20
-13.1590054638875795
 30
0.0
 40
0.042385541880546
 50
309.8656715205465275
 51
23.6487086350000517
  0
ARC
  5
93D7
  8
0
 10
118.6322977761374062
 20
-13.0954404196408394
 30
0.0
 40
0.1389707405037738
 50
293.376544320629705
 51
316.251165841517718
  0
ARC
  5
93D8
  8
0
 10
118.3510492246792012
 20
-14.2486402227125097
 30
0.0
 40
1.2011592217464071
 50
90.6242430133293908
 51
95.5848865764177162
  0
ARC
  5
93D9
  8
0
 10
118.332402267465298
 20
-14.0579124921818703
 30
0.0
 40
1.0095221267096739
 50
95.5850711688170236
 51
102.1598176098082007
  0
ARC
  5
93DA
  8
0
 10
118.2052946086061951
 20
-13.4888533244375992
 30
0.0
 40
0.4264791777524762
 50
101.5700756099699049
 51
118.6610744279440013
  0
ARC
  5
93DB
  8
0
 10
117.9823138637892015
 20
-13.1635764010282106
 30
0.0
 40
0.0302137092511301
 50
159.3912173850779936
 51
190.3424968211062946
  0
ARC
  5
93DC
  8
0
 10
118.023509634679499
 20
-13.1790680806010307
 30
0.0
 40
0.0742260220195726
 50
123.3820164960909977
 51
159.3912173850777094
  0
ARC
  5
93DD
  8
0
 10
118.1770858522620955
 20
-13.4121377868734708
 30
0.0
 40
0.3533445319556291
 50
104.0985657815036944
 51
123.3820164960909977
  0
ARC
  5
93DE
  8
0
 10
118.3490866842288938
 20
-14.0969743551585491
 30
0.0
 40
1.0594503395069781
 50
96.1756731677001255
 51
104.0985657815036944
  0
ARC
  5
93DF
  8
0
 10
118.3417504545213035
 20
-14.0291855924871491
 30
0.0
 40
0.9912657620023527
 50
90.218932873150635
 51
96.1756080161897984
  0
ARC
  5
93E0
  8
0
 10
118.343661009484606
 20
-14.5355025505525894
 30
0.0
 40
1.4975863243530609
 50
84.1552983935701064
 51
90.2180092403614253
  0
ARC
  5
93E1
  8
0
 10
118.4326560996060067
 20
-13.6661047903746802
 30
0.0
 40
0.6236454845546257
 50
70.2845025832915979
 51
84.1552561229643032
  0
ARC
  5
93E2
  8
0
 10
118.5721098588692968
 20
-13.2769572364660409
 30
0.0
 40
0.2102653088256551
 50
48.3874722280401386
 51
70.2845025832915979
  0
ARC
  5
93E3
  8
0
 10
118.692651081276594
 20
-13.1412481679742097
 30
0.0
 40
0.0287518449438217
 50
17.3037552735452387
 51
48.3874722280412897
  0
ARC
  5
93E4
  8
0
 10
118.5790937206391931
 20
-13.0581998423165206
 30
0.0
 40
0.1968658715718374
 50
305.0569474258782066
 51
316.112802778276091
  0
ARC
  5
93E5
  8
0
 10
118.6872440415472028
 20
-13.1622286858855908
 30
0.0
 40
0.046804243542504
 50
316.112802778276091
 51
9.7857570612289884
  0
ARC
  5
93E6
  8
0
 10
118.6471272646094945
 20
-13.1924270751199906
 30
0.0
 40
0.0943028530083495
 50
23.8650778441933404
 51
66.9000064642326322
  0
ARC
  5
93E7
  8
0
 10
118.4380066206365001
 20
-13.6538082643479797
 30
0.0
 40
0.6008439392951312
 50
65.818882480269167
 51
84.8190274910244
  0
ARC
  5
93E8
  8
0
 10
118.3464793476952934
 20
-14.3405138484763501
 30
0.0
 40
1.2933374037225309
 50
83.5278823017694236
 51
88.8900107550645089
  0
ARC
  5
93E9
  8
0
 10
118.4290252399605947
 20
-31.7746205433491014
 30
0.0
 40
18.7272896519985217
 50
90.1758949462217743
 51
90.2786050546972234
  0
LINE
  5
93EA
  8
0
 10
118.1265188929541949
 20
-13.2307088807739106
 30
0.0
 11
118.1331494478981057
 21
-13.2416671478868295
 31
0.0
  0
LINE
  5
93EB
  8
0
 10
118.1331494478981057
 20
-13.2416671478868295
 30
0.0
 11
118.1528339098696989
 21
-13.2523538548002406
 31
0.0
  0
LINE
  5
93EC
  8
0
 10
118.1528339098696989
 20
-13.2523538548002406
 30
0.0
 11
118.1624916789296975
 21
-13.2469920319535994
 31
0.0
  0
LINE
  5
93ED
  8
0
 10
118.1624916789296975
 20
-13.2469920319535994
 30
0.0
 11
118.1624916789004942
 21
-13.2465896099683693
 31
0.0
  0
LINE
  5
93EE
  8
0
 10
118.1624916789004942
 20
-13.2465896099683693
 30
0.0
 11
118.1721494480091934
 21
-13.2401727917759899
 31
0.0
  0
LINE
  5
93EF
  8
0
 10
118.1721494480091934
 20
-13.2401727917759899
 30
0.0
 11
118.1918339099816961
 21
-13.2485199137558602
 31
0.0
  0
LINE
  5
93F0
  8
0
 10
118.1918339099816961
 20
-13.2485199137558602
 30
0.0
 11
118.2014916789598971
 21
-13.2628722092942706
 31
0.0
  0
LINE
  5
93F1
  8
0
 10
118.2014916789598971
 20
-13.2628722092942706
 30
0.0
 11
118.2014916789598971
 21
-13.2632649947372805
 31
0.0
  0
LINE
  5
93F2
  8
0
 10
118.2014916789598971
 20
-13.2632649947372805
 30
0.0
 11
118.2111494479598974
 21
-13.2763964385898898
 31
0.0
  0
LINE
  5
93F3
  8
0
 10
118.2111494479598974
 20
-13.2763964385898898
 30
0.0
 11
118.2308339099630956
 21
-13.2822285914803704
 31
0.0
  0
LINE
  5
93F4
  8
0
 10
118.2308339099630956
 20
-13.2822285914803704
 30
0.0
 11
118.2404916789114964
 21
-13.2749846586819906
 31
0.0
  0
LINE
  5
93F5
  8
0
 10
118.2404916789114964
 20
-13.2749846586819906
 30
0.0
 11
118.2404916789598985
 21
-13.2745982705430592
 31
0.0
  0
LINE
  5
93F6
  8
0
 10
118.2404916789598985
 20
-13.2745982705430592
 30
0.0
 11
118.2501494479598989
 21
-13.2663640190486198
 31
0.0
  0
LINE
  5
93F7
  8
0
 10
118.2501494479598989
 20
-13.2663640190486198
 30
0.0
 11
118.2698339099230935
 21
-13.2702572015147204
 31
0.0
  0
LINE
  5
93F8
  8
0
 10
118.2698339099230935
 20
-13.2702572015147204
 30
0.0
 11
118.2794916789599
 21
-13.2822066743363401
 31
0.0
  0
LINE
  5
93F9
  8
0
 10
118.2794916789599
 20
-13.2822066743363401
 30
0.0
 11
118.2794916789303983
 21
-13.2825891310407798
 31
0.0
  0
LINE
  5
93FA
  8
0
 10
118.2794916789303983
 20
-13.2825891310407798
 30
0.0
 11
118.2698339099598996
 21
-13.2907156146717504
 31
0.0
  0
LINE
  5
93FB
  8
0
 10
118.2698339099598996
 20
-13.2907156146717504
 30
0.0
 11
118.2502951895477992
 21
-13.28696005771471
 31
0.0
  0
LINE
  5
93FC
  8
0
 10
118.2502951895477992
 20
-13.28696005771471
 30
0.0
 11
118.2404916789598985
 21
-13.2749846586898901
 31
0.0
  0
LINE
  5
93FD
  8
0
 10
118.2794916789599
 20
-13.2825891310898907
 30
0.0
 11
118.289149448030102
 21
-13.2934781612145105
 31
0.0
  0
LINE
  5
93FE
  8
0
 10
118.289149448030102
 20
-13.2934781612145105
 30
0.0
 11
118.3088339099599011
 21
-13.2953433695898902
 31
0.0
  0
LINE
  5
93FF
  8
0
 10
118.3088339099599011
 20
-13.2953433695898902
 30
0.0
 11
118.3184916789599015
 21
-13.2863326630525194
 31
0.0
  0
LINE
  5
9400
  8
0
 10
118.3184916789599015
 20
-13.2863326630525194
 30
0.0
 11
118.3184916789421948
 21
-13.2859520822610797
 31
0.0
  0
LINE
  5
9401
  8
0
 10
118.3184916789421948
 20
-13.2859520822610797
 30
0.0
 11
118.3281494479599019
 21
-13.2759475713946102
 31
0.0
  0
LINE
  5
9402
  8
0
 10
118.3281494466469042
 20
-13.2962550932374395
 30
0.0
 11
118.3184916789599015
 21
-13.2863326630525194
 31
0.0
  0
LINE
  5
9403
  8
0
 10
118.3184916789421948
 20
-13.2859520822610797
 30
0.0
 11
118.3088339099095947
 21
-13.2750113323208598
 31
0.0
  0
LINE
  5
9404
  8
0
 10
118.3088339099095947
 20
-13.2750113323208598
 30
0.0
 11
118.2891494479599004
 21
-13.2730955829898907
 31
0.0
  0
LINE
  5
9405
  8
0
 10
118.2891494479599004
 20
-13.2730955829898907
 30
0.0
 11
118.2794916789599
 21
-13.2822066743363401
 31
0.0
  0
LINE
  5
9406
  8
0
 10
118.2404916789598985
 20
-13.2745982706240007
 30
0.0
 11
118.2308339099598982
 21
-13.2615296078113101
 31
0.0
  0
LINE
  5
9407
  8
0
 10
118.2308339099598982
 20
-13.2615296078113101
 30
0.0
 11
118.2111494480238036
 21
-13.2555251584971803
 31
0.0
  0
LINE
  5
9408
  8
0
 10
118.2111494480238036
 20
-13.2555251584971803
 30
0.0
 11
118.2014916789598971
 21
-13.2628722093898901
 31
0.0
  0
LINE
  5
9409
  8
0
 10
118.2014916789598971
 20
-13.2632649947372805
 30
0.0
 11
118.1918339098458972
 21
-13.2695996261205593
 31
0.0
  0
LINE
  5
940A
  8
0
 10
118.1918339098458972
 20
-13.2695996261205593
 30
0.0
 11
118.1721494479460972
 21
-13.2615119302577202
 31
0.0
  0
LINE
  5
940B
  8
0
 10
118.1721494479460972
 20
-13.2615119302577202
 30
0.0
 11
118.1624916789296975
 21
-13.2469920319535994
 31
0.0
  0
LINE
  5
940C
  8
0
 10
118.1624916789273954
 20
-13.2465896099519096
 30
0.0
 11
118.1528339099710934
 21
-13.2307048263160105
 31
0.0
  0
LINE
  5
940D
  8
0
 10
118.1528339099710934
 20
-13.2307048263160105
 30
0.0
 11
118.1419847437609008
 21
-13.2247893256121802
 31
0.0
  0
LINE
  5
940E
  8
0
 10
118.1626001172916034
 20
-13.2217282731280594
 30
0.0
 11
118.1626001172624996
 21
-13.2213258511428293
 31
0.0
  0
LINE
  5
940F
  8
0
 10
118.1626001172624996
 20
-13.2213258511428293
 30
0.0
 11
118.1709515414784022
 21
-13.2157769950625195
 31
0.0
  0
LINE
  5
9410
  8
0
 10
118.1779402498253972
 20
-13.2139890989307407
 30
0.0
 11
118.1918339099598967
 21
-13.2199890993898901
 31
0.0
  0
LINE
  5
9411
  8
0
 10
118.1918339099598967
 20
-13.2199890993898901
 30
0.0
 11
118.2016001173219024
 21
-13.2376084504687306
 31
0.0
  0
LINE
  5
9412
  8
0
 10
118.2016001173219024
 20
-13.2376084504687306
 30
0.0
 11
118.2016001173219024
 21
-13.2380012359117298
 31
0.0
  0
LINE
  5
9413
  8
0
 10
118.2016001173219024
 20
-13.2380012359117298
 30
0.0
 11
118.2111494480320033
 21
-13.2522437563210005
 31
0.0
  0
LINE
  5
9414
  8
0
 10
118.2111494480320033
 20
-13.2522437563210005
 30
0.0
 11
118.230942348325101
 21
-13.2582786516898903
 31
0.0
  0
LINE
  5
9415
  8
0
 10
118.230942348325101
 20
-13.2582786516898903
 30
0.0
 11
118.2406001172735017
 21
-13.2497208998564506
 31
0.0
  0
LINE
  5
9416
  8
0
 10
118.2406001172735017
 20
-13.2497208998564506
 30
0.0
 11
118.2406001173219039
 21
-13.2493345117175298
 31
0.0
  0
LINE
  5
9417
  8
0
 10
118.2406001173219039
 20
-13.2493345117175298
 30
0.0
 11
118.2501494479598989
 21
-13.2387013243250404
 31
0.0
  0
LINE
  5
9418
  8
0
 10
118.2501494479598989
 20
-13.2387013243250404
 30
0.0
 11
118.2698339099598996
 21
-13.2427716239898903
 31
0.0
  0
LINE
  5
9419
  8
0
 10
118.2698339099598996
 20
-13.2427716239898903
 30
0.0
 11
118.2796001173219054
 21
-13.2569429155108107
 31
0.0
  0
LINE
  5
941A
  8
0
 10
118.2796001173219054
 20
-13.2569429155108107
 30
0.0
 11
118.2796001172924036
 21
-13.2573253722152398
 31
0.0
  0
LINE
  5
941B
  8
0
 10
118.2796001172924036
 20
-13.2573253722152398
 30
0.0
 11
118.2698339099598996
 21
-13.2670486683174609
 31
0.0
  0
LINE
  5
941C
  8
0
 10
118.2698339099598996
 20
-13.2670486683174609
 30
0.0
 11
118.2501494479598989
 21
-13.2631368216956105
 31
0.0
  0
LINE
  5
941D
  8
0
 10
118.2501494479598989
 20
-13.2631368216956105
 30
0.0
 11
118.2406001173219039
 21
-13.2497208998643607
 31
0.0
  0
LINE
  5
941E
  8
0
 10
118.2796001173219054
 20
-13.2573253722643507
 30
0.0
 11
118.2891494479599004
 21
-13.2699004020028095
 31
0.0
  0
LINE
  5
941F
  8
0
 10
118.2891494479599004
 20
-13.2699004020028095
 30
0.0
 11
118.3088151183645067
 21
-13.2718236744055105
 31
0.0
  0
LINE
  5
9420
  8
0
 10
118.3088151183645067
 20
-13.2718236744055105
 30
0.0
 11
118.3186001173219069
 21
-13.2610689042269794
 31
0.0
  0
LINE
  5
9421
  8
0
 10
118.3186001173219069
 20
-13.2610689042269794
 30
0.0
 11
118.3186001173042001
 21
-13.2606883234355504
 31
0.0
  0
LINE
  5
9422
  8
0
 10
118.3186001173042001
 20
-13.2606883234355504
 30
0.0
 11
118.3281494479599019
 21
-13.2487136061749098
 31
0.0
  0
LINE
  5
9423
  8
0
 10
118.3281494479599019
 20
-13.2727655956739898
 30
0.0
 11
118.3186001173219069
 21
-13.2610689042269794
 31
0.0
  0
LINE
  5
9424
  8
0
 10
118.3186001173042001
 20
-13.2606883234355504
 30
0.0
 11
118.3088339099784037
 21
-13.2477365469064399
 31
0.0
  0
LINE
  5
9425
  8
0
 10
118.3088339099784037
 20
-13.2477365469064399
 30
0.0
 11
118.2891494479599004
 21
-13.2457365675979499
 31
0.0
  0
LINE
  5
9426
  8
0
 10
118.2891494479599004
 20
-13.2457365675979499
 30
0.0
 11
118.2796001173219054
 21
-13.2569429155108107
 31
0.0
  0
LINE
  5
9427
  8
0
 10
118.2406001173219039
 20
-13.2493345117984695
 30
0.0
 11
118.2308339099598982
 21
-13.2336410990898905
 31
0.0
  0
LINE
  5
9428
  8
0
 10
118.2308339099598982
 20
-13.2336410990898905
 30
0.0
 11
118.2111494479598974
 21
-13.2273466939297801
 31
0.0
  0
LINE
  5
9429
  8
0
 10
118.2111494479598974
 20
-13.2273466939297801
 30
0.0
 11
118.2016001173219024
 21
-13.2376084505643608
 31
0.0
  0
LINE
  5
942A
  8
0
 10
118.2016001173219024
 20
-13.2380012359117298
 30
0.0
 11
118.1918356551667983
 21
-13.2449494930307701
 31
0.0
  0
LINE
  5
942B
  8
0
 10
118.1918356551667983
 20
-13.2449494930307701
 30
0.0
 11
118.1722578863081026
 21
-13.2368582277275397
 31
0.0
  0
LINE
  5
942C
  8
0
 10
118.1722578863081026
 20
-13.2368582277275397
 30
0.0
 11
118.1626001172916034
 21
-13.2217282731280594
 31
0.0
  0
LINE
  5
942D
  8
0
 10
118.2021863228730041
 20
-13.2088556009345108
 30
0.0
 11
118.2111494479598974
 21
-13.2234466287918604
 31
0.0
  0
LINE
  5
942E
  8
0
 10
118.2111494479598974
 20
-13.2234466287918604
 30
0.0
 11
118.2308339099598982
 21
-13.2297862712689298
 31
0.0
  0
LINE
  5
942F
  8
0
 10
118.2308339099598982
 20
-13.2297862712689298
 30
0.0
 11
118.2406208986618026
 21
-13.2196548136267999
 31
0.0
  0
LINE
  5
9430
  8
0
 10
118.2406208986618026
 20
-13.2196548136267999
 30
0.0
 11
118.2406208987101053
 21
-13.2192684254878792
 31
0.0
  0
LINE
  5
9431
  8
0
 10
118.2406208987101053
 20
-13.2192684254878792
 30
0.0
 11
118.2501494479598989
 21
-13.2059940158207496
 31
0.0
  0
LINE
  5
9432
  8
0
 10
118.2501494479598989
 20
-13.2059940158207496
 30
0.0
 11
118.2699631296733003
 21
-13.2103248457898896
 31
0.0
  0
LINE
  5
9433
  8
0
 10
118.2699631296733003
 20
-13.2103248457898896
 30
0.0
 11
118.2796208987101068
 21
-13.22687682928116
 31
0.0
  0
LINE
  5
9434
  8
0
 10
118.2796208987101068
 20
-13.22687682928116
 30
0.0
 11
118.279620898680605
 21
-13.2272592859855909
 31
0.0
  0
LINE
  5
9435
  8
0
 10
118.279620898680605
 20
-13.2272592859855909
 30
0.0
 11
118.2693251845788041
 21
-13.2388871032670004
 31
0.0
  0
LINE
  5
9436
  8
0
 10
118.2693251845788041
 20
-13.2388871032670004
 30
0.0
 11
118.2501494479598989
 21
-13.2348816333992101
 31
0.0
  0
LINE
  5
9437
  8
0
 10
118.2501494479598989
 20
-13.2348816333992101
 30
0.0
 11
118.2406208987101053
 21
-13.2196548136346994
 31
0.0
  0
LINE
  5
9438
  8
0
 10
118.2796208987101068
 20
-13.2272592860347
 30
0.0
 11
118.2891494479501944
 21
-13.2419640040423499
 31
0.0
  0
LINE
  5
9439
  8
0
 10
118.2891494479501944
 20
-13.2419640040423499
 30
0.0
 11
118.3088339100169009
 21
-13.2439770296533599
 31
0.0
  0
LINE
  5
943A
  8
0
 10
118.3088339100169009
 20
-13.2439770296533599
 30
0.0
 11
118.318620898710094
 21
-13.2310028179973305
 31
0.0
  0
LINE
  5
943B
  8
0
 10
118.318620898710094
 20
-13.2310028179973305
 30
0.0
 11
118.3186208986924015
 21
-13.2306222372058997
 31
0.0
  0
LINE
  5
943C
  8
0
 10
118.3186208986924015
 20
-13.2306222372058997
 30
0.0
 11
118.3281494344894043
 21
-13.2166352204060296
 31
0.0
  0
LINE
  5
943D
  8
0
 10
118.3281494344894043
 20
-13.2449609392547298
 30
0.0
 11
118.318620898710094
 21
-13.2310028179973305
 31
0.0
  0
LINE
  5
943E
  8
0
 10
118.3186208986924015
 20
-13.2306222372058997
 30
0.0
 11
118.3087632870526988
 21
-13.2155928470179997
 31
0.0
  0
LINE
  5
943F
  8
0
 10
118.3087632870526988
 20
-13.2155928470179997
 30
0.0
 11
118.2891494479599004
 21
-13.2134753413898896
 31
0.0
  0
LINE
  5
9440
  8
0
 10
118.2891494479599004
 20
-13.2134753413898896
 30
0.0
 11
118.2796208987101068
 21
-13.22687682928116
 31
0.0
  0
LINE
  5
9441
  8
0
 10
118.2406208987101053
 20
-13.2192684255688206
 30
0.0
 11
118.2309631297101049
 21
-13.2061997627561194
 31
0.0
  0
LINE
  5
9442
  8
0
 10
118.2309631297101049
 20
-13.2061997627561194
 30
0.0
 11
118.2264077006329046
 21
-13.2048101975708096
 31
0.0
  0
ARC
  5
9443
  8
0
 10
118.3374060707593003
 20
-12.8927136806091198
 30
0.0
 40
0.4133790135683793
 50
239.5982397000416881
 51
244.6688350386341142
  0
ARC
  5
9444
  8
0
 10
118.3374060707593003
 20
-12.8927136806091198
 30
0.0
 40
0.4133790135683793
 50
245.2567611464596098
 51
250.5144816139801094
  0
ARC
  5
9445
  8
0
 10
118.3374060707593003
 20
-12.8927136806091198
 30
0.0
 40
0.4133790135683793
 50
251.0831537893213863
 51
256.1665036441420966
  0
ARC
  5
9446
  8
0
 10
118.3374060707593003
 20
-12.8927136806091198
 30
0.0
 40
0.4133790135683793
 50
256.7061919149207938
 51
261.6890117440538006
  0
ARC
  5
9447
  8
0
 10
118.3374060707593003
 20
-12.8927136806091198
 30
0.0
 40
0.4133790135683793
 50
262.206854960010503
 51
267.118049283398193
  0
ARC
  5
9448
  8
0
 10
118.3379062039238931
 20
-12.8781984404782008
 30
0.0
 40
0.4279025566486661
 50
267.6582427498169068
 51
270.0075699510724121
  0
LINE
  5
9449
  8
0
 10
118.2698531009009031
 20
-13.2935678900693297
 30
0.0
 11
118.2501876733264936
 21
-13.2897150281450607
 31
0.0
  0
LINE
  5
944A
  8
0
 10
118.2423518132698064
 20
-13.2950156778598103
 30
0.0
 11
118.2501876733264936
 21
-13.2897150281450607
 31
0.0
  0
LINE
  5
944B
  8
0
 10
118.2776537999208983
 20
-13.3017514233523002
 30
0.0
 11
118.2698531009009031
 21
-13.2935678900693297
 31
0.0
  0
LINE
  5
944C
  8
0
 10
118.281353101450506
 20
-13.3022747547976294
 30
0.0
 11
118.2891183814412983
 21
-13.2962604715929
 31
0.0
  0
LINE
  5
944D
  8
0
 10
118.3166220677823048
 20
-13.3055698711634403
 30
0.0
 11
118.3089042068577044
 21
-13.2981540033507404
 31
0.0
  0
LINE
  5
944E
  8
0
 10
118.3089042068577044
 20
-13.2981540033507404
 30
0.0
 11
118.2891183814412983
 21
-13.2962604715929
 31
0.0
  0
LINE
  5
944F
  8
0
 10
118.3204221070911046
 20
-13.3057436478474393
 30
0.0
 11
118.3282069979313036
 21
-13.2989255307084608
 31
0.0
  0
LINE
  5
9450
  8
0
 10
118.2385666678743945
 20
-13.2941024962182794
 30
0.0
 11
118.2309568007226943
 21
-13.2851593765705491
 31
0.0
  0
LINE
  5
9451
  8
0
 10
118.2033904241950069
 20
-13.2837661263689597
 30
0.0
 11
118.2110850691608022
 21
-13.2792016197958294
 31
0.0
  0
LINE
  5
9452
  8
0
 10
118.2309568007226943
 20
-13.2851593765705491
 30
0.0
 11
118.2110850691608022
 21
-13.2792016197958294
 31
0.0
  0
LINE
  5
9453
  8
0
 10
118.199515814332301
 20
-13.2824167548095708
 30
0.0
 11
118.1918388978228052
 21
-13.2724325768782894
 31
0.0
  0
LINE
  5
9454
  8
0
 10
118.1918388978228052
 20
-13.2724325768782894
 30
0.0
 11
118.1720461482246947
 21
-13.26445211269216
 31
0.0
  0
LINE
  5
9455
  8
0
 10
118.1643852223068052
 20
-13.2681414297960494
 30
0.0
 11
118.1720461482246947
 21
-13.26445211269216
 31
0.0
  0
LINE
  5
9456
  8
0
 10
118.1529426049603018
 20
-13.2554431279277907
 30
0.0
 11
118.1605420421711017
 21
-13.2663462865876802
 31
0.0
  0
LINE
  5
9457
  8
0
 10
118.1331398868150018
 20
-13.2446480123314796
 30
0.0
 11
118.1529426049603018
 21
-13.2554431279277907
 31
0.0
  0
LINE
  5
9458
  8
0
 10
118.1232976182415939
 20
-13.2481392286503503
 30
0.0
 11
118.1331398868150018
 21
-13.2446480123314796
 31
0.0
  0
LINE
  5
9459
  8
0
 10
118.1255493506429985
 20
-13.2515220899761808
 30
0.0
 11
118.1232976182415939
 21
-13.2481392286503503
 31
0.0
  0
LINE
  5
945A
  8
0
 10
118.128211378469004
 20
-13.2492523034486993
 30
0.0
 11
118.1255493506429985
 21
-13.2515220899761808
 31
0.0
  0
ARC
  5
945B
  8
0
 10
118.3379663167563933
 20
-12.9387661421465996
 30
0.0
 40
0.4177015219203724
 50
262.206639229339487
 51
267.0758433831687739
  0
ARC
  5
945C
  8
0
 10
118.3377424438725996
 20
-12.9403895413917205
 30
0.0
 40
0.4160626714511112
 50
256.7422120607541274
 51
261.6967254146358073
  0
ARC
  5
945D
  8
0
 10
118.3095827356819996
 20
-13.2705820119982505
 30
0.0
 40
0.0867581993920245
 50
250.9920660600600968
 51
256.3777232035944849
  0
ARC
  5
945E
  8
0
 10
118.3020983741804031
 20
-13.2566111147921397
 30
0.0
 40
0.1003742059185037
 50
273.8476816616577025
 51
278.3401948792280791
  0
ARC
  5
945F
  8
0
 10
118.3379561596159988
 20
-12.9433365244918903
 30
0.0
 40
0.414446993020608
 50
263.2369565812539918
 51
265.9706350818931924
  0
ARC
  5
9460
  8
0
 10
118.2730753829144987
 20
-13.2566703723825992
 30
0.0
 40
0.0955304418592017
 50
268.0555059218781935
 51
272.7493591564885946
  0
ARC
  5
9461
  8
0
 10
118.3377051666039961
 20
-12.9450423896306308
 30
0.0
 40
0.4127223013578617
 50
257.7520952042947897
 51
260.5348449444718995
  0
ARC
  5
9462
  8
0
 10
118.314752918433399
 20
-13.1686182848436797
 30
0.0
 40
0.1910092261043988
 50
247.716980780439286
 51
250.2314342268875862
  0
ARC
  5
9463
  8
0
 10
118.3371049679597036
 20
-12.9431010590907096
 30
0.0
 40
0.4132770806991502
 50
251.1129458271381054
 51
256.219004757097423
  0
ARC
  5
9464
  8
0
 10
118.2440268875702003
 20
-13.2527426161513802
 30
0.0
 40
0.0918956473113344
 50
261.7458228482540221
 51
266.6504638060706043
  0
ARC
  5
9465
  8
0
 10
118.336981073843603
 20
-12.9479717270384391
 30
0.0
 40
0.4097038577774396
 50
252.1137499967865949
 51
254.9843627888137121
  0
ARC
  5
9466
  8
0
 10
118.320937005345499
 20
-13.0986036082449608
 30
0.0
 40
0.263255671704776
 50
243.4641888089998076
 51
245.3522899373465123
  0
ARC
  5
9467
  8
0
 10
118.2270735138304047
 20
-13.1876639104210795
 30
0.0
 40
0.1477539274391769
 50
256.1156664389334878
 51
259.3067665599388079
  0
ARC
  5
9468
  8
0
 10
118.400548377241094
 20
-12.7987762535377403
 30
0.0
 40
0.5718577332972873
 50
246.4594397461173116
 51
248.5706545467351134
  0
ARC
  5
9469
  8
0
 10
118.1986631054244015
 20
-13.2683185677477695
 30
0.0
 40
0.0608086600157069
 50
235.6199267523977028
 51
244.1499249594459116
  0
ARC
  5
946A
  8
0
 10
118.3358376946558934
 20
-12.9468182997448196
 30
0.0
 40
0.4093495445982086
 50
245.2293684925051025
 51
250.5688347275329022
  0
ARC
  5
946B
  8
0
 10
118.2393209694411951
 20
-13.1190217230992392
 30
0.0
 40
0.2140637171224175
 50
222.588385182432603
 51
248.0277867388103914
  0
ARC
  5
946C
  8
0
 10
118.3411616061037961
 20
-12.9408658609603098
 30
0.0
 40
0.418307488665011
 50
244.2192247548680086
 51
263.4494755991075863
  0
ARC
  5
946D
  8
0
 10
118.3437225254264007
 20
-12.8006993072340993
 30
0.0
 40
0.5580131532859373
 50
264.8302103121712889
 51
269.4085850281932721
  0
ARC
  5
946E
  8
0
 10
118.3367644173718958
 20
-12.9346133724796104
 30
0.0
 40
0.4169275985047573
 50
253.4076168225780918
 51
270.1646781041084182
  0
ARC
  5
946F
  8
0
 10
118.3352915950076039
 20
-12.9381759136247005
 30
0.0
 40
0.4130930071120674
 50
239.5360418870812964
 51
253.4622882976196934
  0
LINE
  5
9470
  8
0
 10
118.0863082019356938
 20
-13.2571168054784501
 30
0.0
 11
118.0941494478914962
 21
-13.2665868209259301
 31
0.0
  0
LINE
  5
9471
  8
0
 10
118.0941494478914962
 20
-13.2665868209259301
 30
0.0
 11
118.1138339099598937
 21
-13.2798166121440104
 31
0.0
  0
LINE
  5
9472
  8
0
 10
118.1138339099598937
 20
-13.2798166121440104
 30
0.0
 11
118.1224960099291934
 21
-13.2808892005900994
 31
0.0
  0
LINE
  5
9473
  8
0
 10
118.1224961643599016
 20
-13.2796259240898902
 30
0.0
 11
118.1138339099734935
 21
-13.2692808305649308
 31
0.0
  0
LINE
  5
9474
  8
0
 10
118.1138339099734935
 20
-13.2692808305649308
 30
0.0
 11
118.094149447959893
 21
-13.2560510394899005
 31
0.0
  0
LINE
  5
9475
  8
0
 10
118.094149447959893
 20
-13.2560510394899005
 30
0.0
 11
118.0879538969649047
 21
-13.2552875479614602
 31
0.0
  0
LINE
  5
9476
  8
0
 10
118.0843072170386989
 20
-13.2642476297383798
 30
0.0
 11
118.094149447959893
 21
-13.2678219388863798
 31
0.0
  0
LINE
  5
9477
  8
0
 10
118.094149447959893
 20
-13.2678219388863798
 30
0.0
 11
118.1138339099598937
 21
-13.2810632923482803
 31
0.0
  0
LINE
  5
9478
  8
0
 10
118.1138339099598937
 20
-13.2810632923482803
 30
0.0
 11
118.1234916789696996
 21
-13.2908651199026497
 31
0.0
  0
LINE
  5
9479
  8
0
 10
118.1234916789696996
 20
-13.2908651199026497
 30
0.0
 11
118.1138339099598937
 21
-13.2878333276898903
 31
0.0
  0
LINE
  5
947A
  8
0
 10
118.1138339099598937
 20
-13.2878333276898903
 30
0.0
 11
118.0941494480172054
 21
-13.2744280440668696
 31
0.0
  0
LINE
  5
947B
  8
0
 10
118.0941494480172054
 20
-13.2744280440668696
 30
0.0
 11
118.0843072170386989
 21
-13.2642476297383798
 31
0.0
  0
LINE
  5
947C
  8
0
 10
118.0920870001511958
 20
-13.2514201699314693
 30
0.0
 11
118.094149447959893
 21
-13.25425438261842
 31
0.0
  0
LINE
  5
947D
  8
0
 10
118.094149447959893
 20
-13.25425438261842
 30
0.0
 11
118.1138339099598937
 21
-13.2674957362240704
 31
0.0
  0
LINE
  5
947E
  8
0
 10
118.1138339099598937
 20
-13.2674957362240704
 30
0.0
 11
118.1234916789598941
 21
-13.2668309830465692
 31
0.0
  0
LINE
  5
947F
  8
0
 10
118.1234916789598941
 20
-13.2668309830465692
 30
0.0
 11
118.1138339099598937
 21
-13.2531942085868106
 31
0.0
  0
LINE
  5
9480
  8
0
 10
118.1138339099598937
 20
-13.2531942085868106
 30
0.0
 11
118.1007630843236029
 21
-13.2445364198546205
 31
0.0
  0
ARC
  5
9481
  8
0
 10
118.3400723064167011
 20
-12.8915871269039197
 30
0.0
 40
0.4290555932658621
 50
240.0478931883887128
 51
269.7182886825717105
  0
LINE
  5
9482
  8
0
 10
118.1234916786564071
 20
-13.2908651198042893
 30
0.0
 11
118.1331494480680959
 21
-13.2824830449062805
 31
0.0
  0
LINE
  5
9483
  8
0
 10
118.1331494480680959
 20
-13.2824830449062805
 30
0.0
 11
118.149230196753507
 21
-13.27605890011173
 31
0.0
  0
LINE
  5
9484
  8
0
 10
118.1475605378303015
 20
-13.2752133726624901
 30
0.0
 11
118.1331494479598945
 21
-13.28096715768989
 31
0.0
  0
LINE
  5
9485
  8
0
 10
118.1331494479598945
 20
-13.28096715768989
 30
0.0
 11
118.1234916789598941
 21
-13.2799184496898892
 31
0.0
  0
LINE
  5
9486
  8
0
 10
118.1234916789598941
 20
-13.2799184496898892
 30
0.0
 11
118.1234916789598941
 21
-13.2797209892898902
 31
0.0
  0
LINE
  5
9487
  8
0
 10
118.1234916789598941
 20
-13.2797209892898902
 30
0.0
 11
118.1224961645273055
 21
-13.2796259242897499
 31
0.0
  0
LINE
  5
9488
  8
0
 10
118.1224954059401995
 20
-13.2808891258009005
 30
0.0
 11
118.1230878243446938
 21
-13.2803119005148496
 31
0.0
  0
LINE
  5
9489
  8
0
 10
118.1230878243446938
 20
-13.2803119005148496
 30
0.0
 11
118.1234916789643989
 21
-13.2799184496122304
 31
0.0
  0
LINE
  5
948A
  8
0
 10
118.1234916789598941
 20
-13.2797209892898902
 30
0.0
 11
118.1331494479598945
 21
-13.2704313761236605
 31
0.0
  0
LINE
  5
948B
  8
0
 10
118.1331494479598945
 20
-13.2704313761236605
 30
0.0
 11
118.1361649533839966
 21
-13.2691875726025703
 31
0.0
  0
LINE
  5
948C
  8
0
 10
118.1258551803080934
 20
-13.2633393629354597
 30
0.0
 11
118.1248138224890027
 21
-13.2663840625734402
 31
0.0
  0
LINE
  5
948D
  8
0
 10
118.1248138224890027
 20
-13.2663840625734402
 30
0.0
 11
118.1234916789598941
 21
-13.2668309829898892
 31
0.0
  0
LINE
  5
948E
  8
0
 10
118.1248138225333975
 20
-13.2663840625702996
 30
0.0
 11
118.127167247218793
 21
-13.2641052091406895
 31
0.0
  0
ARC
  5
948F
  8
0
 10
118.297492679052894
 20
-13.0224923255606004
 30
0.0
 40
0.3245527580362589
 50
237.5411442815747876
 51
245.0636657536261964
  0
ARC
  5
9490
  8
0
 10
118.1882710507361054
 20
-13.2294023095208395
 30
0.0
 40
0.0916459199625932
 50
247.2522649830061141
 51
252.4640060430319863
  0
ARC
  5
9491
  8
0
 10
118.1967643258501965
 20
-13.2091459019080109
 30
0.0
 40
0.1136108413496986
 50
235.948580817466393
 51
247.2522649830061141
  0
ARC
  5
9492
  8
0
 10
118.3065417777950046
 20
-13.0467087772411592
 30
0.0
 40
0.3096641719144309
 50
233.7208224827668914
 51
235.948580817466393
  0
LINE
  5
9493
  8
0
 10
118.2833617610565966
 20
-13.1987823979873404
 30
0.0
 11
118.2891494480837054
 21
-13.2090266562002103
 31
0.0
  0
LINE
  5
9494
  8
0
 10
118.2891494480837054
 20
-13.2090266562002103
 30
0.0
 11
118.3088339098766966
 21
-13.2111689938645291
 31
0.0
  0
LINE
  5
9495
  8
0
 10
118.3088339098766966
 20
-13.2111689938645291
 30
0.0
 11
118.3178013679657994
 21
-13.1972248498829501
 31
0.0
  0
LINE
  5
9496
  8
0
 10
118.3089042068577044
 20
-13.2981540033507404
 30
0.0
 11
118.3087220283453007
 21
-13.3050963118747401
 31
0.0
  0
LINE
  5
9497
  8
0
 10
118.2891183814412983
 20
-13.2962604715929
 30
0.0
 11
118.2884557673186947
 21
-13.3031842357672794
 31
0.0
  0
LINE
  5
9498
  8
0
 10
118.2698531009009031
 20
-13.2935678900693297
 30
0.0
 11
118.2700655631364981
 21
-13.3005708429734302
 31
0.0
  0
LINE
  5
9499
  8
0
 10
118.2501876733264936
 20
-13.2897150281450607
 30
0.0
 11
118.2501876733264936
 21
-13.2967868918073204
 31
0.0
  0
LINE
  5
949A
  8
0
 10
118.2110850691608022
 20
-13.2792016197958294
 30
0.0
 11
118.2110850691608022
 21
-13.2863190837909499
 31
0.0
  0
LINE
  5
949B
  8
0
 10
118.1918388978228052
 20
-13.2724325768782894
 30
0.0
 11
118.1918388978228052
 21
-13.2796147106181408
 31
0.0
  0
LINE
  5
949C
  8
0
 10
118.1720461482246947
 20
-13.26445211269216
 30
0.0
 11
118.1720461482246947
 21
-13.2715781746939303
 31
0.0
  0
LINE
  5
949D
  8
0
 10
118.1529426049603018
 20
-13.2554431279277907
 30
0.0
 11
118.1529426049603018
 21
-13.2626534576596598
 31
0.0
  0
LINE
  5
949E
  8
0
 10
118.1331398868150018
 20
-13.2446480123314796
 30
0.0
 11
118.1331398868150018
 21
-13.2520986204098996
 31
0.0
  0
LINE
  5
949F
  8
0
 10
118.1331494478981057
 20
-13.2416671478868295
 30
0.0
 11
118.1331494478981057
 21
-13.2280729094359106
 31
0.0
  0
LINE
  5
94A0
  8
0
 10
118.1528339098696989
 20
-13.2523538548002406
 30
0.0
 11
118.1528339099710934
 21
-13.2307048263160105
 31
0.0
  0
LINE
  5
94A1
  8
0
 10
118.1721494479460972
 20
-13.2615119302577202
 30
0.0
 11
118.1711986540422004
 21
-13.2408045186226104
 31
0.0
  0
LINE
  5
94A2
  8
0
 10
118.1918339098458972
 20
-13.2695996261205593
 30
0.0
 11
118.1918339099816961
 21
-13.2485199137558602
 31
0.0
  0
LINE
  5
94A3
  8
0
 10
118.1918339099598967
 20
-13.2199890993898901
 30
0.0
 11
118.1918356551667983
 21
-13.2449494930307701
 31
0.0
  0
LINE
  5
94A4
  8
0
 10
118.1722578863081026
 20
-13.2368582277275397
 30
0.0
 11
118.1722578863081026
 21
-13.2154316558052898
 31
0.0
  0
LINE
  5
94A5
  8
0
 10
118.2111494480320033
 20
-13.2522437563210005
 30
0.0
 11
118.2111494479598974
 21
-13.2273466939297801
 31
0.0
  0
LINE
  5
94A6
  8
0
 10
118.2111494479598974
 20
-13.2234466287918604
 30
0.0
 11
118.2111494479598974
 21
-13.2072533206775606
 31
0.0
  0
LINE
  5
94A7
  8
0
 10
118.2308339099598982
 20
-13.2297862712689298
 30
0.0
 11
118.2308339099598982
 21
-13.2066233854933408
 31
0.0
  0
LINE
  5
94A8
  8
0
 10
118.230942348325101
 20
-13.2582786516898903
 30
0.0
 11
118.2308339099598982
 21
-13.2336410990898905
 31
0.0
  0
LINE
  5
94A9
  8
0
 10
118.2308339099598982
 20
-13.2615296078113101
 30
0.0
 11
118.2308339099630956
 21
-13.2822285914803704
 31
0.0
  0
LINE
  5
94AA
  8
0
 10
118.2111494480238036
 20
-13.2555251584971803
 30
0.0
 11
118.2111494479598974
 21
-13.2763964385898898
 31
0.0
  0
LINE
  5
94AB
  8
0
 10
118.2309568007226943
 20
-13.2851593765705491
 30
0.0
 11
118.2309568007226943
 21
-13.2921517380941996
 31
0.0
  0
LINE
  5
94AC
  8
0
 10
118.2502951895477992
 20
-13.28696005771471
 30
0.0
 11
118.2501494479598989
 21
-13.2663640190486198
 31
0.0
  0
LINE
  5
94AD
  8
0
 10
118.2501494479598989
 20
-13.2631368216956105
 30
0.0
 11
118.2501494479598989
 21
-13.2387013243250404
 31
0.0
  0
LINE
  5
94AE
  8
0
 10
118.2501494479598989
 20
-13.2348816333992101
 30
0.0
 11
118.2501494479598989
 21
-13.2059940158207496
 31
0.0
  0
LINE
  5
94AF
  8
0
 10
118.2699631296733003
 20
-13.2103248457898896
 30
0.0
 11
118.2693251845788041
 21
-13.2388871032670004
 31
0.0
  0
LINE
  5
94B0
  8
0
 10
118.2698339099598996
 20
-13.2427716239898903
 30
0.0
 11
118.2698339099598996
 21
-13.2670486683174609
 31
0.0
  0
LINE
  5
94B1
  8
0
 10
118.2698339099230935
 20
-13.2702572015147204
 30
0.0
 11
118.2698339099598996
 21
-13.2907156146717504
 31
0.0
  0
LINE
  5
94B2
  8
0
 10
118.289149448030102
 20
-13.2934781612145105
 30
0.0
 11
118.2891494479599004
 21
-13.2730955829898907
 31
0.0
  0
LINE
  5
94B3
  8
0
 10
118.2891494479599004
 20
-13.2699004020028095
 30
0.0
 11
118.2891494479599004
 21
-13.2457365675979499
 31
0.0
  0
LINE
  5
94B4
  8
0
 10
118.2891494479501944
 20
-13.2419640040423499
 30
0.0
 11
118.2891494479599004
 21
-13.2134753413898896
 31
0.0
  0
LINE
  5
94B5
  8
0
 10
118.2891494480837054
 20
-13.2090266562002103
 30
0.0
 11
118.2891494480837054
 21
-13.19841973290327
 31
0.0
  0
LINE
  5
94B6
  8
0
 10
118.3088339098766966
 20
-13.2111689938645291
 30
0.0
 11
118.3088339098766966
 21
-13.1974915566739099
 31
0.0
  0
LINE
  5
94B7
  8
0
 10
118.3088339100169009
 20
-13.2439770296533599
 30
0.0
 11
118.3087632870526988
 21
-13.2155928470179997
 31
0.0
  0
LINE
  5
94B8
  8
0
 10
118.3088339099784037
 20
-13.2477365469064399
 30
0.0
 11
118.3088151183645067
 21
-13.2718236744055105
 31
0.0
  0
LINE
  5
94B9
  8
0
 10
118.3088339099095947
 20
-13.2750113323208598
 30
0.0
 11
118.3088339099599011
 21
-13.2953433695898902
 31
0.0
  0
LINE
  5
94BA
  8
0
 10
118.3281494480955018
 20
-13.2122149426898901
 30
0.0
 11
118.3191200731009047
 21
-13.1971938616470297
 31
0.0
  0
LINE
  5
94BB
  8
0
 10
118.3281494479599019
 20
-13.2727655956739898
 30
0.0
 11
118.3477291679237027
 21
-13.2727655956739898
 31
0.0
  0
LINE
  5
94BC
  8
0
 10
118.3281494466469042
 20
-13.2962550932374395
 30
0.0
 11
118.3478376076730001
 21
-13.2962550932374395
 31
0.0
  0
LINE
  5
94BD
  8
0
 10
118.3282069979313036
 20
-13.2989255307084608
 30
0.0
 11
118.3477800563885012
 21
-13.2989255307084608
 31
0.0
  0
LINE
  5
94BE
  8
0
 10
118.1138339099598937
 20
-13.2531942085868106
 30
0.0
 11
118.1138339099598937
 21
-13.2674957362240704
 31
0.0
  0
LINE
  5
94BF
  8
0
 10
118.094149447959893
 20
-13.25425438261842
 30
0.0
 11
118.094149447959893
 21
-13.2496544631009598
 31
0.0
  0
LINE
  5
94C0
  8
0
 10
118.0941494478914962
 20
-13.2665868209259301
 30
0.0
 11
118.094149447959893
 21
-13.2560510394899005
 31
0.0
  0
LINE
  5
94C1
  8
0
 10
118.1138339099734935
 20
-13.2692808305649308
 30
0.0
 11
118.1138339099598937
 21
-13.2798166121440104
 31
0.0
  0
LINE
  5
94C2
  8
0
 10
118.094149447959893
 20
-13.2678219388863798
 30
0.0
 11
118.0941494480172054
 21
-13.2744280440668696
 31
0.0
  0
LINE
  5
94C3
  8
0
 10
118.1138339099598937
 20
-13.2878333276898903
 30
0.0
 11
118.1138339099598937
 21
-13.2810632923482803
 31
0.0
  0
LINE
  5
94C4
  8
0
 10
118.1331494479598945
 20
-13.28096715768989
 30
0.0
 11
118.1331494479598945
 21
-13.2704313761236605
 31
0.0
  0
LINE
  5
94C5
  8
0
 10
118.1528339099598952
 20
-13.3139196669061892
 30
0.0
 11
118.1528339099598952
 21
-13.3130234482883392
 31
0.0
  0
LINE
  5
94C6
  8
0
 10
118.1331494479966011
 20
-13.30327650579353
 30
0.0
 11
118.1331494479966011
 21
-13.3023597855392399
 31
0.0
  0
LINE
  5
94C7
  8
0
 10
118.172149447959896
 20
-13.3230425944705893
 30
0.0
 11
118.172149447959896
 21
-13.3220158577810395
 31
0.0
  0
LINE
  5
94C8
  8
0
 10
118.1916180958265983
 20
-13.3311007829743904
 30
0.0
 11
118.1916180958265983
 21
-13.32992110184402
 31
0.0
  0
LINE
  5
94C9
  8
0
 10
118.2111494479599969
 20
-13.3378738339899208
 30
0.0
 11
118.2111494479599969
 21
-13.3367165471152802
 31
0.0
  0
LINE
  5
94CA
  8
0
 10
118.2308339098982941
 20
-13.3436863093627096
 30
0.0
 11
118.2308339098982941
 21
-13.3424810881979798
 31
0.0
  0
LINE
  5
94CB
  8
0
 10
118.2501494583906947
 20
-13.3483706628739007
 30
0.0
 11
118.2501494583906947
 21
-13.3471273137579001
 31
0.0
  0
LINE
  5
94CC
  8
0
 10
118.2698339099219993
 20
-13.3521458046918795
 30
0.0
 11
118.2698339099219993
 21
-13.3508728876942406
 31
0.0
  0
LINE
  5
94CD
  8
0
 10
118.2891494448122955
 20
-13.3548996601271206
 30
0.0
 11
118.2891494448122955
 21
-13.3536052367702691
 31
0.0
  0
LINE
  5
94CE
  8
0
 10
118.3088339099599011
 20
-13.3567590741898901
 30
0.0
 11
118.3088339099599011
 21
-13.3554505122504406
 31
0.0
  0
LINE
  5
94CF
  8
0
 10
118.1258551802599044
 20
-13.2942410778898896
 30
0.0
 11
118.1296580699671068
 21
-13.2926134304868704
 31
0.0
  0
LINE
  5
94D0
  8
0
 10
118.1296580699671068
 20
-13.2926134304868704
 30
0.0
 11
118.1296580699576992
 21
-13.2855132469716501
 31
0.0
  0
LINE
  5
94D1
  8
0
 10
118.1296580699599019
 20
-13.2926134304899204
 30
0.0
 11
118.1248138225005988
 21
-13.2921001713838791
 31
0.0
  0
LINE
  5
94D2
  8
0
 10
118.1248138225005988
 20
-13.2921001713838791
 30
0.0
 11
118.1234916786564071
 21
-13.2908651198042893
 31
0.0
  0
LINE
  5
94D3
  8
0
 10
118.1258551802599044
 20
-13.2942410778898896
 30
0.0
 11
118.1248138225005988
 21
-13.2921001713838791
 31
0.0
  0
ARC
  5
94D4
  8
0
 10
118.3326897228498069
 20
-12.2198487407338305
 30
0.0
 40
1.142443945674557
 50
270.2644529079224185
 51
273.0857384850231142
  0
ARC
  5
94D5
  8
0
 10
118.3466262811216012
 20
-12.6028737555133308
 30
0.0
 40
0.7592536502048784
 50
273.5914990099810211
 51
281.7917097104746063
  0
ARC
  5
94D6
  8
0
 10
118.3381494788654038
 20
-14.0217857476169296
 30
0.0
 40
0.8248042959535512
 50
85.3461293955386964
 51
90.0129720785274259
  0
ARC
  5
94D7
  8
0
 10
118.3501024663092949
 20
-13.8749504130974906
 30
0.0
 40
0.6774832541018763
 50
78.7660252212854601
 51
85.3461239366808258
  0
ARC
  5
94D8
  8
0
 10
118.410600504658504
 20
-13.5703610283315008
 30
0.0
 40
0.3669438750269739
 50
67.0473117558297673
 51
78.7660252212846217
  0
ARC
  5
94D9
  8
0
 10
118.4673931571106067
 20
-13.1516914671602194
 30
0.0
 40
0.1909285126027903
 50
281.4819887561652081
 51
309.0596686333096272
  0
ARC
  5
94DA
  8
0
 10
118.3461481739783068
 20
-12.6664587400583901
 30
0.0
 40
0.690943089858399
 50
273.0196253423407029
 51
283.3255568229172923
  0
ARC
  5
94DB
  8
0
 10
118.3379671818643004
 20
-12.4770410522524209
 30
0.0
 40
0.8838868028383507
 50
270.0017077687375036
 51
275.1444884460606772
  0
ARC
  5
94DC
  8
0
 10
118.3616725439577948
 20
-12.7403452270465003
 30
0.0
 40
0.6195176808592949
 50
275.1444884460606772
 51
283.9905790142996125
  0
ARC
  5
94DD
  8
0
 10
118.4375304209711999
 20
-13.0448078143926907
 30
0.0
 40
0.3057472479015213
 50
283.9905790142996125
 51
296.4908601985799237
  0
ARC
  5
94DE
  8
0
 10
118.3904278941666064
 20
-13.6686187865236395
 30
0.0
 40
0.4711644751581943
 50
70.6337007222849707
 51
82.6150274108895246
  0
ARC
  5
94DF
  8
0
 10
118.3437731020831052
 20
-13.9665897110020207
 30
0.0
 40
0.7727015835494522
 50
82.0241942676697136
 51
87.1789679034588829
  0
ARC
  5
94E0
  8
0
 10
118.3381168425168966
 20
-14.0597166065316408
 30
0.0
 40
0.8659946590785759
 50
87.1084371589241186
 51
90.0101957915436799
  0
LINE
  5
94E1
  8
0
 10
118.5494681613655956
 20
-13.2307088807739106
 30
0.0
 11
118.5428376064216991
 21
-13.2416671478868295
 31
0.0
  0
LINE
  5
94E2
  8
0
 10
118.5428376064216991
 20
-13.2416671478868295
 30
0.0
 11
118.5231531444501059
 21
-13.2523538548002406
 31
0.0
  0
LINE
  5
94E3
  8
0
 10
118.5231531444501059
 20
-13.2523538548002406
 30
0.0
 11
118.513495375390093
 21
-13.2469920319535994
 31
0.0
  0
LINE
  5
94E4
  8
0
 10
118.513495375390093
 20
-13.2469920319535994
 30
0.0
 11
118.5134953754192964
 21
-13.2465896099683693
 31
0.0
  0
LINE
  5
94E5
  8
0
 10
118.5134953754192964
 20
-13.2465896099683693
 30
0.0
 11
118.5038376063106966
 21
-13.2401727917759899
 31
0.0
  0
LINE
  5
94E6
  8
0
 10
118.5038376063106966
 20
-13.2401727917759899
 30
0.0
 11
118.4841531443381939
 21
-13.2485199137558602
 31
0.0
  0
LINE
  5
94E7
  8
0
 10
118.4841531443381939
 20
-13.2485199137558602
 30
0.0
 11
118.4744953753598935
 21
-13.2628722092942706
 31
0.0
  0
LINE
  5
94E8
  8
0
 10
118.4744953753598935
 20
-13.2628722092942706
 30
0.0
 11
118.4744953753598935
 21
-13.2632649947372805
 31
0.0
  0
LINE
  5
94E9
  8
0
 10
118.4744953753598935
 20
-13.2632649947372805
 30
0.0
 11
118.4648376063598931
 21
-13.2763964385898898
 31
0.0
  0
LINE
  5
94EA
  8
0
 10
118.4648376063598931
 20
-13.2763964385898898
 30
0.0
 11
118.445153144356695
 21
-13.2822285914803704
 31
0.0
  0
LINE
  5
94EB
  8
0
 10
118.445153144356695
 20
-13.2822285914803704
 30
0.0
 11
118.4354953754082942
 21
-13.2749846586819906
 31
0.0
  0
LINE
  5
94EC
  8
0
 10
118.4354953754082942
 20
-13.2749846586819906
 30
0.0
 11
118.4354953753599062
 21
-13.2745982705430592
 31
0.0
  0
LINE
  5
94ED
  8
0
 10
118.4354953753599062
 20
-13.2745982705430592
 30
0.0
 11
118.4258376063599059
 21
-13.2663640190486198
 31
0.0
  0
LINE
  5
94EE
  8
0
 10
118.4258376063599059
 20
-13.2663640190486198
 30
0.0
 11
118.406153144396697
 21
-13.2702572015147204
 31
0.0
  0
LINE
  5
94EF
  8
0
 10
118.406153144396697
 20
-13.2702572015147204
 30
0.0
 11
118.3964953753599048
 21
-13.2822066743363401
 31
0.0
  0
LINE
  5
94F0
  8
0
 10
118.3964953753599048
 20
-13.2822066743363401
 30
0.0
 11
118.3964953753894065
 21
-13.2825891310407798
 31
0.0
  0
LINE
  5
94F1
  8
0
 10
118.3964953753894065
 20
-13.2825891310407798
 30
0.0
 11
118.4061531443599051
 21
-13.2907156146717504
 31
0.0
  0
LINE
  5
94F2
  8
0
 10
118.4061531443599051
 20
-13.2907156146717504
 30
0.0
 11
118.4256918647720056
 21
-13.28696005771471
 31
0.0
  0
LINE
  5
94F3
  8
0
 10
118.4256918647720056
 20
-13.28696005771471
 30
0.0
 11
118.4354953753599062
 21
-13.2749846586898901
 31
0.0
  0
LINE
  5
94F4
  8
0
 10
118.3964953753599048
 20
-13.2825891310898907
 30
0.0
 11
118.3868376062897028
 21
-13.2934781612145105
 31
0.0
  0
LINE
  5
94F5
  8
0
 10
118.3868376062897028
 20
-13.2934781612145105
 30
0.0
 11
118.3671531443599036
 21
-13.2953433695898902
 31
0.0
  0
LINE
  5
94F6
  8
0
 10
118.3671531443599036
 20
-13.2953433695898902
 30
0.0
 11
118.3574953753599033
 21
-13.2863326630525194
 31
0.0
  0
LINE
  5
94F7
  8
0
 10
118.3574953753599033
 20
-13.2863326630525194
 30
0.0
 11
118.3574953753775958
 21
-13.2859520822610797
 31
0.0
  0
LINE
  5
94F8
  8
0
 10
118.3574953753775958
 20
-13.2859520822610797
 30
0.0
 11
118.3478376063599029
 21
-13.2759475713946102
 31
0.0
  0
LINE
  5
94F9
  8
0
 10
118.3478376076730001
 20
-13.2962550932374395
 30
0.0
 11
118.3574953753599033
 21
-13.2863326630525194
 31
0.0
  0
LINE
  5
94FA
  8
0
 10
118.3574953753775958
 20
-13.2859520822610797
 30
0.0
 11
118.3671531444101959
 21
-13.2750113323208598
 31
0.0
  0
LINE
  5
94FB
  8
0
 10
118.3671531444101959
 20
-13.2750113323208598
 30
0.0
 11
118.3868376063599044
 21
-13.2730955829898907
 31
0.0
  0
LINE
  5
94FC
  8
0
 10
118.3868376063599044
 20
-13.2730955829898907
 30
0.0
 11
118.3964953753599048
 21
-13.2822066743363401
 31
0.0
  0
LINE
  5
94FD
  8
0
 10
118.4354953753599062
 20
-13.2745982706240007
 30
0.0
 11
118.4451531443599066
 21
-13.2615296078113101
 31
0.0
  0
LINE
  5
94FE
  8
0
 10
118.4451531443599066
 20
-13.2615296078113101
 30
0.0
 11
118.4648376062960011
 21
-13.2555251584971803
 31
0.0
  0
LINE
  5
94FF
  8
0
 10
118.4648376062960011
 20
-13.2555251584971803
 30
0.0
 11
118.4744953753598935
 21
-13.2628722093898901
 31
0.0
  0
LINE
  5
9500
  8
0
 10
118.4744953753598935
 20
-13.2632649947372805
 30
0.0
 11
118.4841531444738933
 21
-13.2695996261205593
 31
0.0
  0
LINE
  5
9501
  8
0
 10
118.4841531444738933
 20
-13.2695996261205593
 30
0.0
 11
118.5038376063736933
 21
-13.2615119302577202
 31
0.0
  0
LINE
  5
9502
  8
0
 10
118.5038376063736933
 20
-13.2615119302577202
 30
0.0
 11
118.513495375390093
 21
-13.2469920319535994
 31
0.0
  0
LINE
  5
9503
  8
0
 10
118.5134953753924947
 20
-13.2465896099519096
 30
0.0
 11
118.5231531443487967
 21
-13.2307048263160105
 31
0.0
  0
LINE
  5
9504
  8
0
 10
118.5231531443487967
 20
-13.2307048263160105
 30
0.0
 11
118.534002310558904
 21
-13.2247893256121802
 31
0.0
  0
LINE
  5
9505
  8
0
 10
118.5133869370282014
 20
-13.2217282731280594
 30
0.0
 11
118.5133869370574047
 21
-13.2213258511428293
 31
0.0
  0
LINE
  5
9506
  8
0
 10
118.5133869370574047
 20
-13.2213258511428293
 30
0.0
 11
118.5050355128415021
 21
-13.2157769950625195
 31
0.0
  0
LINE
  5
9507
  8
0
 10
118.4980468044943933
 20
-13.2139890989307407
 30
0.0
 11
118.4841531443598939
 21
-13.2199890993898901
 31
0.0
  0
LINE
  5
9508
  8
0
 10
118.4841531443598939
 20
-13.2199890993898901
 30
0.0
 11
118.4743869369980018
 21
-13.2376084504687306
 31
0.0
  0
LINE
  5
9509
  8
0
 10
118.4743869369980018
 20
-13.2376084504687306
 30
0.0
 11
118.4743869369980018
 21
-13.2380012359117298
 31
0.0
  0
LINE
  5
950A
  8
0
 10
118.4743869369980018
 20
-13.2380012359117298
 30
0.0
 11
118.4648376062879009
 21
-13.2522437563210005
 31
0.0
  0
LINE
  5
950B
  8
0
 10
118.4648376062879009
 20
-13.2522437563210005
 30
0.0
 11
118.4450447059948033
 21
-13.2582786516898903
 31
0.0
  0
LINE
  5
950C
  8
0
 10
118.4450447059948033
 20
-13.2582786516898903
 30
0.0
 11
118.435386937046303
 21
-13.2497208998564506
 31
0.0
  0
LINE
  5
950D
  8
0
 10
118.435386937046303
 20
-13.2497208998564506
 30
0.0
 11
118.4353869369980004
 21
-13.2493345117175298
 31
0.0
  0
LINE
  5
950E
  8
0
 10
118.4353869369980004
 20
-13.2493345117175298
 30
0.0
 11
118.4258376063599059
 21
-13.2387013243250404
 31
0.0
  0
LINE
  5
950F
  8
0
 10
118.4258376063599059
 20
-13.2387013243250404
 30
0.0
 11
118.4061531443599051
 21
-13.2427716239898903
 31
0.0
  0
LINE
  5
9510
  8
0
 10
118.4061531443599051
 20
-13.2427716239898903
 30
0.0
 11
118.3963869369979989
 21
-13.2569429155108107
 31
0.0
  0
LINE
  5
9511
  8
0
 10
118.3963869369979989
 20
-13.2569429155108107
 30
0.0
 11
118.3963869370275006
 21
-13.2573253722152398
 31
0.0
  0
LINE
  5
9512
  8
0
 10
118.3963869370275006
 20
-13.2573253722152398
 30
0.0
 11
118.4061531443599051
 21
-13.2670486683174609
 31
0.0
  0
LINE
  5
9513
  8
0
 10
118.4061531443599051
 20
-13.2670486683174609
 30
0.0
 11
118.4258376063599059
 21
-13.2631368216956105
 31
0.0
  0
LINE
  5
9514
  8
0
 10
118.4258376063599059
 20
-13.2631368216956105
 30
0.0
 11
118.4353869369980004
 21
-13.2497208998643607
 31
0.0
  0
LINE
  5
9515
  8
0
 10
118.3963869369979989
 20
-13.2573253722643507
 30
0.0
 11
118.3868376063599044
 21
-13.2699004020028095
 31
0.0
  0
LINE
  5
9516
  8
0
 10
118.3868376063599044
 20
-13.2699004020028095
 30
0.0
 11
118.3671719359553975
 21
-13.2718236744055105
 31
0.0
  0
LINE
  5
9517
  8
0
 10
118.3671719359553975
 20
-13.2718236744055105
 30
0.0
 11
118.3573869369979974
 21
-13.2610689042269794
 31
0.0
  0
LINE
  5
9518
  8
0
 10
118.3573869369979974
 20
-13.2610689042269794
 30
0.0
 11
118.3573869370157041
 21
-13.2606883234355504
 31
0.0
  0
LINE
  5
9519
  8
0
 10
118.3573869370157041
 20
-13.2606883234355504
 30
0.0
 11
118.3477291679237027
 21
-13.2487136061749098
 31
0.0
  0
LINE
  5
951A
  8
0
 10
118.3477291679237027
 20
-13.2727655956739898
 30
0.0
 11
118.3573869369979974
 21
-13.2610689042269794
 31
0.0
  0
LINE
  5
951B
  8
0
 10
118.3573869370157041
 20
-13.2606883234355504
 30
0.0
 11
118.3671531443415006
 21
-13.2477365469064399
 31
0.0
  0
LINE
  5
951C
  8
0
 10
118.3671531443415006
 20
-13.2477365469064399
 30
0.0
 11
118.3868376063599044
 21
-13.2457365675979499
 31
0.0
  0
LINE
  5
951D
  8
0
 10
118.3868376063599044
 20
-13.2457365675979499
 30
0.0
 11
118.3963869369979989
 21
-13.2569429155108107
 31
0.0
  0
LINE
  5
951E
  8
0
 10
118.4353869369980004
 20
-13.2493345117984695
 30
0.0
 11
118.4451531443599066
 21
-13.2336410990898905
 31
0.0
  0
LINE
  5
951F
  8
0
 10
118.4451531443599066
 20
-13.2336410990898905
 30
0.0
 11
118.4648376063598931
 21
-13.2273466939297801
 31
0.0
  0
LINE
  5
9520
  8
0
 10
118.4648376063598931
 20
-13.2273466939297801
 30
0.0
 11
118.4743869369980018
 21
-13.2376084505643608
 31
0.0
  0
LINE
  5
9521
  8
0
 10
118.4743869369980018
 20
-13.2380012359117298
 30
0.0
 11
118.4841513991530064
 21
-13.2449494930307701
 31
0.0
  0
LINE
  5
9522
  8
0
 10
118.4841513991530064
 20
-13.2449494930307701
 30
0.0
 11
118.5037291680118017
 21
-13.2368582277275397
 31
0.0
  0
LINE
  5
9523
  8
0
 10
118.5037291680118017
 20
-13.2368582277275397
 30
0.0
 11
118.5133869370282014
 21
-13.2217282731280594
 31
0.0
  0
LINE
  5
9524
  8
0
 10
118.4738007314468007
 20
-13.2088556009345108
 30
0.0
 11
118.4648376063598931
 21
-13.2234466287918604
 31
0.0
  0
LINE
  5
9525
  8
0
 10
118.4648376063598931
 20
-13.2234466287918604
 30
0.0
 11
118.4451531443599066
 21
-13.2297862712689298
 31
0.0
  0
LINE
  5
9526
  8
0
 10
118.4451531443599066
 20
-13.2297862712689298
 30
0.0
 11
118.4353661556581017
 21
-13.2196548136267999
 31
0.0
  0
LINE
  5
9527
  8
0
 10
118.4353661556581017
 20
-13.2196548136267999
 30
0.0
 11
118.4353661556096995
 21
-13.2192684254878792
 31
0.0
  0
LINE
  5
9528
  8
0
 10
118.4353661556096995
 20
-13.2192684254878792
 30
0.0
 11
118.4258376063599059
 21
-13.2059940158207496
 31
0.0
  0
LINE
  5
9529
  8
0
 10
118.4258376063599059
 20
-13.2059940158207496
 30
0.0
 11
118.406023924646604
 21
-13.2103248457898896
 31
0.0
  0
LINE
  5
952A
  8
0
 10
118.406023924646604
 20
-13.2103248457898896
 30
0.0
 11
118.396366155609698
 21
-13.22687682928116
 31
0.0
  0
LINE
  5
952B
  8
0
 10
118.396366155609698
 20
-13.22687682928116
 30
0.0
 11
118.3963661556391997
 21
-13.2272592859855909
 31
0.0
  0
LINE
  5
952C
  8
0
 10
118.3963661556391997
 20
-13.2272592859855909
 30
0.0
 11
118.4066618697411002
 21
-13.2388871032670004
 31
0.0
  0
LINE
  5
952D
  8
0
 10
118.4066618697411002
 20
-13.2388871032670004
 30
0.0
 11
118.4258376063599059
 21
-13.2348816333992101
 31
0.0
  0
LINE
  5
952E
  8
0
 10
118.4258376063599059
 20
-13.2348816333992101
 30
0.0
 11
118.4353661556096995
 21
-13.2196548136346994
 31
0.0
  0
LINE
  5
952F
  8
0
 10
118.396366155609698
 20
-13.2272592860347
 30
0.0
 11
118.3868376063695962
 21
-13.2419640040423499
 31
0.0
  0
LINE
  5
9530
  8
0
 10
118.3868376063695962
 20
-13.2419640040423499
 30
0.0
 11
118.3671531443030034
 21
-13.2439770296533599
 31
0.0
  0
LINE
  5
9531
  8
0
 10
118.3671531443030034
 20
-13.2439770296533599
 30
0.0
 11
118.3573661556096965
 21
-13.2310028179973305
 31
0.0
  0
LINE
  5
9532
  8
0
 10
118.3573661556096965
 20
-13.2310028179973305
 30
0.0
 11
118.3573661556274033
 21
-13.2306222372058997
 31
0.0
  0
LINE
  5
9533
  8
0
 10
118.3573661556274033
 20
-13.2306222372058997
 30
0.0
 11
118.3478376063257969
 21
-13.2166352204060296
 31
0.0
  0
LINE
  5
9534
  8
0
 10
118.3478376198304005
 20
-13.2449609392547298
 30
0.0
 11
118.3573661556096965
 21
-13.2310028179973305
 31
0.0
  0
LINE
  5
9535
  8
0
 10
118.3573661556274033
 20
-13.2306222372058997
 30
0.0
 11
118.3672237672671059
 21
-13.2155928470179997
 31
0.0
  0
LINE
  5
9536
  8
0
 10
118.3672237672671059
 20
-13.2155928470179997
 30
0.0
 11
118.3868376063599044
 21
-13.2134753413898896
 31
0.0
  0
LINE
  5
9537
  8
0
 10
118.3868376063599044
 20
-13.2134753413898896
 30
0.0
 11
118.396366155609698
 21
-13.22687682928116
 31
0.0
  0
LINE
  5
9538
  8
0
 10
118.4353661556096995
 20
-13.2192684255688206
 30
0.0
 11
118.4450239246096999
 21
-13.2061997627561194
 31
0.0
  0
LINE
  5
9539
  8
0
 10
118.4450239246096999
 20
-13.2061997627561194
 30
0.0
 11
118.4495793536869002
 21
-13.2048101975708096
 31
0.0
  0
ARC
  5
953A
  8
0
 10
118.338580983560604
 20
-12.8927136806091198
 30
0.0
 40
0.4133790135683793
 50
295.3311649613659142
 51
300.4017602999583119
  0
ARC
  5
953B
  8
0
 10
118.338580983560604
 20
-12.8927136806091198
 30
0.0
 40
0.4133790135683793
 50
289.485518386019919
 51
294.7432388535402765
  0
ARC
  5
953C
  8
0
 10
118.338580983560604
 20
-12.8927136806091198
 30
0.0
 40
0.4133790135683793
 50
283.8334963558571076
 51
288.9168462106787274
  0
ARC
  5
953D
  8
0
 10
118.338580983560604
 20
-12.8927136806091198
 30
0.0
 40
0.4133790135683793
 50
278.3109882559469952
 51
283.2938080850792062
  0
ARC
  5
953E
  8
0
 10
118.338580983560604
 20
-12.8927136806091198
 30
0.0
 40
0.4133790135683793
 50
272.881950716601807
 51
277.7931450399885875
  0
ARC
  5
953F
  8
0
 10
118.3380799434577
 20
-12.8781688136576093
 30
0.0
 40
0.4279321957849499
 50
269.9843074656051272
 51
272.3417164980045868
  0
LINE
  5
9540
  8
0
 10
118.4061339534190012
 20
-13.2935678900693297
 30
0.0
 11
118.4257993809933964
 21
-13.2897150281450607
 31
0.0
  0
LINE
  5
9541
  8
0
 10
118.4336352410499984
 20
-13.2950156778598103
 30
0.0
 11
118.4257993809933964
 21
-13.2897150281450607
 31
0.0
  0
LINE
  5
9542
  8
0
 10
118.3983332543989064
 20
-13.3017514233523002
 30
0.0
 11
118.4061339534190012
 21
-13.2935678900693297
 31
0.0
  0
LINE
  5
9543
  8
0
 10
118.3946339528692988
 20
-13.3022747547976294
 30
0.0
 11
118.3868686728785065
 21
-13.2962604715929
 31
0.0
  0
LINE
  5
9544
  8
0
 10
118.3593649865374999
 20
-13.3055698711634403
 30
0.0
 11
118.3670828474621004
 21
-13.2981540033507404
 31
0.0
  0
LINE
  5
9545
  8
0
 10
118.3670828474621004
 20
-13.2981540033507404
 30
0.0
 11
118.3868686728785065
 21
-13.2962604715929
 31
0.0
  0
LINE
  5
9546
  8
0
 10
118.3555649472287001
 20
-13.3057436478474393
 30
0.0
 11
118.3477800563885012
 21
-13.2989255307084608
 31
0.0
  0
LINE
  5
9547
  8
0
 10
118.4374203864454955
 20
-13.2941024962182794
 30
0.0
 11
118.4450302535970962
 21
-13.2851593765705491
 31
0.0
  0
LINE
  5
9548
  8
0
 10
118.4725966301247979
 20
-13.2837661263689597
 30
0.0
 11
118.4649019851590026
 21
-13.2792016197958294
 31
0.0
  0
LINE
  5
9549
  8
0
 10
118.4450302535970962
 20
-13.2851593765705491
 30
0.0
 11
118.4649019851590026
 21
-13.2792016197958294
 31
0.0
  0
LINE
  5
954A
  8
0
 10
118.4764712399875037
 20
-13.2824167548095708
 30
0.0
 11
118.4841481564970991
 21
-13.2724325768782894
 31
0.0
  0
LINE
  5
954B
  8
0
 10
118.4841481564970991
 20
-13.2724325768782894
 30
0.0
 11
118.5039409060950959
 21
-13.26445211269216
 31
0.0
  0
LINE
  5
954C
  8
0
 10
118.5116018320129996
 20
-13.2681414297960494
 30
0.0
 11
118.5039409060950959
 21
-13.26445211269216
 31
0.0
  0
LINE
  5
954D
  8
0
 10
118.523044449359503
 20
-13.2554431279277907
 30
0.0
 11
118.5154450121487031
 21
-13.2663462865876802
 31
0.0
  0
LINE
  5
954E
  8
0
 10
118.5428471675049025
 20
-13.2446480123314796
 30
0.0
 11
118.523044449359503
 21
-13.2554431279277907
 31
0.0
  0
LINE
  5
954F
  8
0
 10
118.5526894360781966
 20
-13.2481392286503503
 30
0.0
 11
118.5428471675049025
 21
-13.2446480123314796
 31
0.0
  0
LINE
  5
9550
  8
0
 10
118.5504377036769057
 20
-13.2515220899761808
 30
0.0
 11
118.5526894360781966
 21
-13.2481392286503503
 31
0.0
  0
LINE
  5
9551
  8
0
 10
118.5477756758508008
 20
-13.2492523034486993
 30
0.0
 11
118.5504377036769057
 21
-13.2515220899761808
 31
0.0
  0
ARC
  5
9552
  8
0
 10
118.3380207375633972
 20
-12.9387661421465996
 30
0.0
 40
0.4177015219203724
 50
272.9241566168312261
 51
277.793360770660513
  0
ARC
  5
9553
  8
0
 10
118.3382446104472052
 20
-12.9403895413917205
 30
0.0
 40
0.4160626714511112
 50
278.3032745853641927
 51
283.2577879392458726
  0
ARC
  5
9554
  8
0
 10
118.3664043186379047
 20
-13.2705820119982505
 30
0.0
 40
0.0867581993920245
 50
283.6222767964055151
 51
289.0079339399397895
  0
ARC
  5
9555
  8
0
 10
118.3738886801394017
 20
-13.2566111147921397
 30
0.0
 40
0.1003742059185037
 50
261.6598051207719209
 51
266.1523183383415017
  0
ARC
  5
9556
  8
0
 10
118.338030894703806
 20
-12.9433365244918903
 30
0.0
 40
0.414446993020608
 50
274.0293649181069213
 51
276.7630434187460082
  0
ARC
  5
9557
  8
0
 10
118.402911671405306
 20
-13.2566703723825992
 30
0.0
 40
0.0955304418592017
 50
267.2506408435112917
 51
271.9444940781210107
  0
ARC
  5
9558
  8
0
 10
118.3382818877157945
 20
-12.9450423896306308
 30
0.0
 40
0.4127223013578617
 50
279.4651550555279869
 51
282.2479047957052103
  0
ARC
  5
9559
  8
0
 10
118.3612341358865052
 20
-13.1686182848436797
 30
0.0
 40
0.1910092261043988
 50
289.7685657731123001
 51
292.283019219559776
  0
ARC
  5
955A
  8
0
 10
118.3388820863602007
 20
-12.9431010590907096
 30
0.0
 40
0.4132770806991502
 50
283.780995242902577
 51
288.8870541728620083
  0
ARC
  5
955B
  8
0
 10
118.4319601667496045
 20
-13.2527426161513802
 30
0.0
 40
0.0918956473113344
 50
273.3495361939293957
 51
278.2541771517459779
  0
ARC
  5
955C
  8
0
 10
118.3390059804762018
 20
-12.9479717270384391
 30
0.0
 40
0.4097038577774396
 50
285.0156372111854921
 51
287.8862500032133767
  0
ARC
  5
955D
  8
0
 10
118.3550500489743058
 20
-13.0986036082449608
 30
0.0
 40
0.263255671704776
 50
294.6477100626535162
 51
296.5358111909999934
  0
ARC
  5
955E
  8
0
 10
118.4489135404894
 20
-13.1876639104210795
 30
0.0
 40
0.1477539274391769
 50
280.6932334400610785
 51
283.8843335610665122
  0
ARC
  5
955F
  8
0
 10
118.2754386770786965
 20
-12.7987762535377403
 30
0.0
 40
0.5718577332972873
 50
291.4293454532650003
 51
293.5405602538817789
  0
ARC
  5
9560
  8
0
 10
118.4773239488954033
 20
-13.2683185677477695
 30
0.0
 40
0.0608086600157069
 50
295.8500750405539748
 51
304.3800732476022972
  0
ARC
  5
9561
  8
0
 10
118.3401493596638971
 20
-12.9468182997448196
 30
0.0
 40
0.4093495445982086
 50
289.4311652724671831
 51
294.7706315074948975
  0
ARC
  5
9562
  8
0
 10
118.3348254482160939
 20
-12.9408658609603098
 30
0.0
 40
0.418307488665011
 50
276.5505244008923
 51
295.7807752451320198
  0
ARC
  5
9563
  8
0
 10
118.3336930396608011
 20
-12.8289705331571202
 30
0.0
 40
0.5297294079292447
 50
270.4618176324140109
 51
275.291443148282724
  0
ARC
  5
9564
  8
0
 10
118.3392208077903973
 20
-12.9346050542215298
 30
0.0
 40
0.4169360927315788
 50
269.8271146045772184
 51
286.5922976496960928
  0
ARC
  5
9565
  8
0
 10
118.3406954593122009
 20
-12.9381759136247005
 30
0.0
 40
0.4130930071120674
 50
286.5377117023803066
 51
300.4639581129187036
  0
LINE
  5
9566
  8
0
 10
118.5896788523840968
 20
-13.2571168054784501
 30
0.0
 11
118.5818376064282944
 21
-13.2665868209259301
 31
0.0
  0
LINE
  5
9567
  8
0
 10
118.5818376064282944
 20
-13.2665868209259301
 30
0.0
 11
118.5621531443598968
 21
-13.2798166121440104
 31
0.0
  0
LINE
  5
9568
  8
0
 10
118.5621531443598968
 20
-13.2798166121440104
 30
0.0
 11
118.5534910443906966
 21
-13.2808892005900994
 31
0.0
  0
LINE
  5
9569
  8
0
 10
118.5534908899599031
 20
-13.2796259240898902
 30
0.0
 11
118.562153144346297
 21
-13.2692808305649308
 31
0.0
  0
LINE
  5
956A
  8
0
 10
118.562153144346297
 20
-13.2692808305649308
 30
0.0
 11
118.5818376063598976
 21
-13.2560510394899005
 31
0.0
  0
LINE
  5
956B
  8
0
 10
118.5818376063598976
 20
-13.2560510394899005
 30
0.0
 11
118.5880331573549
 21
-13.2552875479614602
 31
0.0
  0
LINE
  5
956C
  8
0
 10
118.5916798372812053
 20
-13.2642476297383798
 30
0.0
 11
118.5818376063598976
 21
-13.2678219388863798
 31
0.0
  0
LINE
  5
956D
  8
0
 10
118.5818376063598976
 20
-13.2678219388863798
 30
0.0
 11
118.5621531443598968
 21
-13.2810632923482803
 31
0.0
  0
LINE
  5
956E
  8
0
 10
118.5621531443598968
 20
-13.2810632923482803
 30
0.0
 11
118.5524953753501052
 21
-13.2908651199026497
 31
0.0
  0
LINE
  5
956F
  8
0
 10
118.5524953753501052
 20
-13.2908651199026497
 30
0.0
 11
118.5621531443598968
 21
-13.2878333276898903
 31
0.0
  0
LINE
  5
9570
  8
0
 10
118.5621531443598968
 20
-13.2878333276898903
 30
0.0
 11
118.5818376063025994
 21
-13.2744280440668696
 31
0.0
  0
LINE
  5
9571
  8
0
 10
118.5818376063025994
 20
-13.2744280440668696
 30
0.0
 11
118.5916798372812053
 21
-13.2642476297383798
 31
0.0
  0
LINE
  5
9572
  8
0
 10
118.5838389356851934
 20
-13.2515041588598699
 30
0.0
 11
118.5818376063598976
 21
-13.25425438261842
 31
0.0
  0
LINE
  5
9573
  8
0
 10
118.5818376063598976
 20
-13.25425438261842
 30
0.0
 11
118.5621531443598968
 21
-13.2674957362240704
 31
0.0
  0
LINE
  5
9574
  8
0
 10
118.5621531443598968
 20
-13.2674957362240704
 30
0.0
 11
118.5524953753598965
 21
-13.2668309830465692
 31
0.0
  0
LINE
  5
9575
  8
0
 10
118.5524953753598965
 20
-13.2668309830465692
 30
0.0
 11
118.5621531443598968
 21
-13.2531942085868106
 31
0.0
  0
LINE
  5
9576
  8
0
 10
118.5621531443598968
 20
-13.2531942085868106
 30
0.0
 11
118.5752239699963013
 21
-13.2445364198546205
 31
0.0
  0
ARC
  5
9577
  8
0
 10
118.3370557156430039
 20
-12.8958097771090703
 30
0.0
 40
0.4248287251621605
 50
270.1223284275027936
 51
300.1031164728458975
  0
LINE
  5
9578
  8
0
 10
118.5524953756634972
 20
-13.2908651198042893
 30
0.0
 11
118.5428376062517941
 21
-13.2824830449062805
 31
0.0
  0
LINE
  5
9579
  8
0
 10
118.5428376062517941
 20
-13.2824830449062805
 30
0.0
 11
118.5267568575663972
 21
-13.27605890011173
 31
0.0
  0
LINE
  5
957A
  8
0
 10
118.5284265164896027
 20
-13.2752133726624901
 30
0.0
 11
118.5428376063598961
 21
-13.28096715768989
 31
0.0
  0
LINE
  5
957B
  8
0
 10
118.5428376063598961
 20
-13.28096715768989
 30
0.0
 11
118.5524953753598965
 21
-13.2799184496898892
 31
0.0
  0
LINE
  5
957C
  8
0
 10
118.5524953753598965
 20
-13.2799184496898892
 30
0.0
 11
118.5524953753598965
 21
-13.2797209892898902
 31
0.0
  0
LINE
  5
957D
  8
0
 10
118.5524953753598965
 20
-13.2797209892898902
 30
0.0
 11
118.5534908897925988
 21
-13.2796259242897499
 31
0.0
  0
LINE
  5
957E
  8
0
 10
118.5534916483796053
 20
-13.2808891258009005
 30
0.0
 11
118.5528992299750968
 21
-13.2803119005148496
 31
0.0
  0
LINE
  5
957F
  8
0
 10
118.5528992299750968
 20
-13.2803119005148496
 30
0.0
 11
118.5524953753554058
 21
-13.2799184496122304
 31
0.0
  0
LINE
  5
9580
  8
0
 10
118.5524953753598965
 20
-13.2797209892898902
 30
0.0
 11
118.5428376063598961
 21
-13.2704313761236605
 31
0.0
  0
LINE
  5
9581
  8
0
 10
118.5428376063598961
 20
-13.2704313761236605
 30
0.0
 11
118.5398221009358934
 21
-13.2691875726025703
 31
0.0
  0
LINE
  5
9582
  8
0
 10
118.5501318740117966
 20
-13.2633393629354597
 30
0.0
 11
118.551173231830802
 21
-13.2663840625734402
 31
0.0
  0
LINE
  5
9583
  8
0
 10
118.551173231830802
 20
-13.2663840625734402
 30
0.0
 11
118.5524953753598965
 21
-13.2668309829898892
 31
0.0
  0
LINE
  5
9584
  8
0
 10
118.5511732317863931
 20
-13.2663840625702996
 30
0.0
 11
118.5488198071009975
 21
-13.2641052091406895
 31
0.0
  0
ARC
  5
9585
  8
0
 10
118.3784943752668966
 20
-13.0224923255606004
 30
0.0
 40
0.3245527580362589
 50
294.9363342463728941
 51
302.4588557184251272
  0
ARC
  5
9586
  8
0
 10
118.4877160035837989
 20
-13.2294023095208395
 30
0.0
 40
0.0916459199625932
 50
287.5359939569680137
 51
292.7477350169938859
  0
ARC
  5
9587
  8
0
 10
118.4792227284696935
 20
-13.2091459019080109
 30
0.0
 40
0.1136108413496986
 50
292.7477350169938859
 51
304.051419182533607
  0
ARC
  5
9588
  8
0
 10
118.3694452765248002
 20
-13.0467087772411592
 30
0.0
 40
0.3096641719144309
 50
304.051419182533607
 51
306.2791775172331086
  0
LINE
  5
9589
  8
0
 10
118.3926252932632934
 20
-13.1987823979873404
 30
0.0
 11
118.3868376062361989
 21
-13.2090266562002103
 31
0.0
  0
LINE
  5
958A
  8
0
 10
118.3868376062361989
 20
-13.2090266562002103
 30
0.0
 11
118.367153144443094
 21
-13.2111689938645291
 31
0.0
  0
LINE
  5
958B
  8
0
 10
118.367153144443094
 20
-13.2111689938645291
 30
0.0
 11
118.3581856863540054
 21
-13.1972248498829501
 31
0.0
  0
LINE
  5
958C
  8
0
 10
118.3670828474621004
 20
-13.2981540033507404
 30
0.0
 11
118.3672650259746035
 21
-13.3050963118747401
 31
0.0
  0
LINE
  5
958D
  8
0
 10
118.3868686728785065
 20
-13.2962604715929
 30
0.0
 11
118.3875312870010958
 21
-13.3031842357672794
 31
0.0
  0
LINE
  5
958E
  8
0
 10
118.4061339534190012
 20
-13.2935678900693297
 30
0.0
 11
118.4059214911834061
 21
-13.3005708429734302
 31
0.0
  0
LINE
  5
958F
  8
0
 10
118.4257993809933964
 20
-13.2897150281450607
 30
0.0
 11
118.4257993809933964
 21
-13.2967868918073204
 31
0.0
  0
LINE
  5
9590
  8
0
 10
118.4649019851590026
 20
-13.2792016197958294
 30
0.0
 11
118.4649019851590026
 21
-13.2863190837909499
 31
0.0
  0
LINE
  5
9591
  8
0
 10
118.4841481564970991
 20
-13.2724325768782894
 30
0.0
 11
118.4841481564970991
 21
-13.2796147106181408
 31
0.0
  0
LINE
  5
9592
  8
0
 10
118.5039409060950959
 20
-13.26445211269216
 30
0.0
 11
118.5039409060950959
 21
-13.2715781746939303
 31
0.0
  0
LINE
  5
9593
  8
0
 10
118.523044449359503
 20
-13.2554431279277907
 30
0.0
 11
118.523044449359503
 21
-13.2626534576596598
 31
0.0
  0
LINE
  5
9594
  8
0
 10
118.5428471675049025
 20
-13.2446480123314796
 30
0.0
 11
118.5428471675049025
 21
-13.2520986204098996
 31
0.0
  0
LINE
  5
9595
  8
0
 10
118.5428376064216991
 20
-13.2416671478868295
 30
0.0
 11
118.5428376064216991
 21
-13.2280729094359106
 31
0.0
  0
LINE
  5
9596
  8
0
 10
118.5231531444501059
 20
-13.2523538548002406
 30
0.0
 11
118.5231531443487967
 21
-13.2307048263160105
 31
0.0
  0
LINE
  5
9597
  8
0
 10
118.5038376063736933
 20
-13.2615119302577202
 30
0.0
 11
118.5047884002776044
 21
-13.2408045186226104
 31
0.0
  0
LINE
  5
9598
  8
0
 10
118.4841531444738933
 20
-13.2695996261205593
 30
0.0
 11
118.4841531443381939
 21
-13.2485199137558602
 31
0.0
  0
LINE
  5
9599
  8
0
 10
118.4841531443598939
 20
-13.2199890993898901
 30
0.0
 11
118.4841513991530064
 21
-13.2449494930307701
 31
0.0
  0
LINE
  5
959A
  8
0
 10
118.5037291680118017
 20
-13.2368582277275397
 30
0.0
 11
118.5037291680118017
 21
-13.2154316558052898
 31
0.0
  0
LINE
  5
959B
  8
0
 10
118.4648376062879009
 20
-13.2522437563210005
 30
0.0
 11
118.4648376063598931
 21
-13.2273466939297801
 31
0.0
  0
LINE
  5
959C
  8
0
 10
118.4648376063598931
 20
-13.2234466287918604
 30
0.0
 11
118.4648376063598931
 21
-13.2072533206775606
 31
0.0
  0
LINE
  5
959D
  8
0
 10
118.4451531443599066
 20
-13.2297862712689298
 30
0.0
 11
118.4451531443599066
 21
-13.2066233854933408
 31
0.0
  0
LINE
  5
959E
  8
0
 10
118.4450447059948033
 20
-13.2582786516898903
 30
0.0
 11
118.4451531443599066
 21
-13.2336410990898905
 31
0.0
  0
LINE
  5
959F
  8
0
 10
118.4451531443599066
 20
-13.2615296078113101
 30
0.0
 11
118.445153144356695
 21
-13.2822285914803704
 31
0.0
  0
LINE
  5
95A0
  8
0
 10
118.4648376062960011
 20
-13.2555251584971803
 30
0.0
 11
118.4648376063598931
 21
-13.2763964385898898
 31
0.0
  0
LINE
  5
95A1
  8
0
 10
118.4450302535970962
 20
-13.2851593765705491
 30
0.0
 11
118.4450302535970962
 21
-13.2921517380941996
 31
0.0
  0
LINE
  5
95A2
  8
0
 10
118.4256918647720056
 20
-13.28696005771471
 30
0.0
 11
118.4258376063599059
 21
-13.2663640190486198
 31
0.0
  0
LINE
  5
95A3
  8
0
 10
118.4258376063599059
 20
-13.2631368216956105
 30
0.0
 11
118.4258376063599059
 21
-13.2387013243250404
 31
0.0
  0
LINE
  5
95A4
  8
0
 10
118.4258376063599059
 20
-13.2348816333992101
 30
0.0
 11
118.4258376063599059
 21
-13.2059940158207496
 31
0.0
  0
LINE
  5
95A5
  8
0
 10
118.406023924646604
 20
-13.2103248457898896
 30
0.0
 11
118.4066618697411002
 21
-13.2388871032670004
 31
0.0
  0
LINE
  5
95A6
  8
0
 10
118.4061531443599051
 20
-13.2427716239898903
 30
0.0
 11
118.4061531443599051
 21
-13.2670486683174609
 31
0.0
  0
LINE
  5
95A7
  8
0
 10
118.406153144396697
 20
-13.2702572015147204
 30
0.0
 11
118.4061531443599051
 21
-13.2907156146717504
 31
0.0
  0
LINE
  5
95A8
  8
0
 10
118.3868376062897028
 20
-13.2934781612145105
 30
0.0
 11
118.3868376063599044
 21
-13.2730955829898907
 31
0.0
  0
LINE
  5
95A9
  8
0
 10
118.3868376063599044
 20
-13.2699004020028095
 30
0.0
 11
118.3868376063599044
 21
-13.2457365675979499
 31
0.0
  0
LINE
  5
95AA
  8
0
 10
118.3868376063695962
 20
-13.2419640040423499
 30
0.0
 11
118.3868376063599044
 21
-13.2134753413898896
 31
0.0
  0
LINE
  5
95AB
  8
0
 10
118.3868376062361989
 20
-13.2090266562002103
 30
0.0
 11
118.3868376062361989
 21
-13.19841973290327
 31
0.0
  0
LINE
  5
95AC
  8
0
 10
118.367153144443094
 20
-13.2111689938645291
 30
0.0
 11
118.367153144443094
 21
-13.1974915566739099
 31
0.0
  0
LINE
  5
95AD
  8
0
 10
118.3671531443030034
 20
-13.2439770296533599
 30
0.0
 11
118.3672237672671059
 21
-13.2155928470179997
 31
0.0
  0
LINE
  5
95AE
  8
0
 10
118.3671531443415006
 20
-13.2477365469064399
 30
0.0
 11
118.3671719359553975
 21
-13.2718236744055105
 31
0.0
  0
LINE
  5
95AF
  8
0
 10
118.3671531444101959
 20
-13.2750113323208598
 30
0.0
 11
118.3671531443599036
 21
-13.2953433695898902
 31
0.0
  0
LINE
  5
95B0
  8
0
 10
118.3478376198304005
 20
-13.2449609392547298
 30
0.0
 11
118.3281494344894043
 21
-13.2449609392547298
 31
0.0
  0
LINE
  5
95B1
  8
0
 10
118.3478376063257969
 20
-13.2166352204060296
 30
0.0
 11
118.3281494344894043
 21
-13.2166352204060296
 31
0.0
  0
LINE
  5
95B2
  8
0
 10
118.3478376062243029
 20
-13.2122149426898901
 30
0.0
 11
118.3281494480955018
 21
-13.2122149426898901
 31
0.0
  0
LINE
  5
95B3
  8
0
 10
118.3478376062243029
 20
-13.2122149426898901
 30
0.0
 11
118.3568669812189
 21
-13.1971938616470297
 31
0.0
  0
LINE
  5
95B4
  8
0
 10
118.3477291679237027
 20
-13.2487136061749098
 30
0.0
 11
118.3281494479599019
 21
-13.2487136061749098
 31
0.0
  0
LINE
  5
95B5
  8
0
 10
118.3478376063599029
 20
-13.2759475713946102
 30
0.0
 11
118.3281494479599019
 21
-13.2759475713946102
 31
0.0
  0
LINE
  5
95B6
  8
0
 10
118.5621531443598968
 20
-13.2531942085868106
 30
0.0
 11
118.5621531443598968
 21
-13.2674957362240704
 31
0.0
  0
LINE
  5
95B7
  8
0
 10
118.5818376063598976
 20
-13.25425438261842
 30
0.0
 11
118.5818376063598976
 21
-13.2496544631009598
 31
0.0
  0
LINE
  5
95B8
  8
0
 10
118.5818376064282944
 20
-13.2665868209259301
 30
0.0
 11
118.5818376063598976
 21
-13.2560510394899005
 31
0.0
  0
LINE
  5
95B9
  8
0
 10
118.562153144346297
 20
-13.2692808305649308
 30
0.0
 11
118.5621531443598968
 21
-13.2798166121440104
 31
0.0
  0
LINE
  5
95BA
  8
0
 10
118.5818376063598976
 20
-13.2678219388863798
 30
0.0
 11
118.5818376063025994
 21
-13.2744280440668696
 31
0.0
  0
LINE
  5
95BB
  8
0
 10
118.5621531443598968
 20
-13.2878333276898903
 30
0.0
 11
118.5621531443598968
 21
-13.2810632923482803
 31
0.0
  0
LINE
  5
95BC
  8
0
 10
118.5428376063598961
 20
-13.28096715768989
 30
0.0
 11
118.5428376063598961
 21
-13.2704313761236605
 31
0.0
  0
LINE
  5
95BD
  8
0
 10
118.5231531443598954
 20
-13.3139196669061892
 30
0.0
 11
118.5231531443598954
 21
-13.3130234482883392
 31
0.0
  0
LINE
  5
95BE
  8
0
 10
118.5428376063233031
 20
-13.30327650579353
 30
0.0
 11
118.5428376063233031
 21
-13.3023597855392399
 31
0.0
  0
LINE
  5
95BF
  8
0
 10
118.5038376063598946
 20
-13.3230425944705893
 30
0.0
 11
118.5038376063598946
 21
-13.3220158577810395
 31
0.0
  0
LINE
  5
95C0
  8
0
 10
118.484368958493306
 20
-13.3311007829743904
 30
0.0
 11
118.484368958493306
 21
-13.32992110184402
 31
0.0
  0
LINE
  5
95C1
  8
0
 10
118.4648376063597937
 20
-13.3378738339899208
 30
0.0
 11
118.4648376063597937
 21
-13.3367165471152802
 31
0.0
  0
LINE
  5
95C2
  8
0
 10
118.4451531444215959
 20
-13.3436863093627096
 30
0.0
 11
118.4451531444215959
 21
-13.3424810881979798
 31
0.0
  0
LINE
  5
95C3
  8
0
 10
118.4258375959290959
 20
-13.3483706628739007
 30
0.0
 11
118.4258375959290959
 21
-13.3471273137579001
 31
0.0
  0
LINE
  5
95C4
  8
0
 10
118.406153144397905
 20
-13.3521458046918795
 30
0.0
 11
118.406153144397905
 21
-13.3508728876942406
 31
0.0
  0
LINE
  5
95C5
  8
0
 10
118.386837609507495
 20
-13.3548996601271206
 30
0.0
 11
118.386837609507495
 21
-13.3536052367702691
 31
0.0
  0
LINE
  5
95C6
  8
0
 10
118.3671531443599036
 20
-13.3567590741898901
 30
0.0
 11
118.3671531443599036
 21
-13.3554505122504406
 31
0.0
  0
LINE
  5
95C7
  8
0
 10
118.5501318740599004
 20
-13.2942410778898896
 30
0.0
 11
118.5463289843527974
 21
-13.2926134304868704
 31
0.0
  0
LINE
  5
95C8
  8
0
 10
118.5463289843527974
 20
-13.2926134304868704
 30
0.0
 11
118.5463289843621055
 21
-13.2855132469716501
 31
0.0
  0
LINE
  5
95C9
  8
0
 10
118.5463289843599028
 20
-13.2926134304899204
 30
0.0
 11
118.551173231819206
 21
-13.2921001713838791
 31
0.0
  0
LINE
  5
95CA
  8
0
 10
118.551173231819206
 20
-13.2921001713838791
 30
0.0
 11
118.5524953756634972
 21
-13.2908651198042893
 31
0.0
  0
LINE
  5
95CB
  8
0
 10
118.5501318740599004
 20
-13.2942410778898896
 30
0.0
 11
118.551173231819206
 21
-13.2921001713838791
 31
0.0
  0
ARC
  5
95CC
  8
0
 10
118.4302141513784932
 20
-13.0032757379653408
 30
0.0
 40
0.3502198134559196
 50
281.7917097104746063
 51
298.169111581578818
  0
LINE
  5
95CD
  8
0
 10
118.3281494480955018
 20
-13.2122149426898901
 30
0.0
 11
118.3281494480955018
 21
-13.1970383557163302
 31
0.0
  0
LINE
  5
95CE
  8
0
 10
118.3478376062243029
 20
-13.2122149426898901
 30
0.0
 11
118.3478376062243029
 21
-13.1970383557163302
 31
0.0
  0
LINE
  5
95CF
  8
0
 10
118.3281494344894043
 20
-13.2449609392547298
 30
0.0
 11
118.3281494344894043
 21
-13.2166352204060296
 31
0.0
  0
LINE
  5
95D0
  8
0
 10
118.3478376198304005
 20
-13.2449609392547298
 30
0.0
 11
118.3478376063257969
 21
-13.2166352204060296
 31
0.0
  0
LINE
  5
95D1
  8
0
 10
118.3477291679237027
 20
-13.2727655956739898
 30
0.0
 11
118.3477291679237027
 21
-13.2487136061749098
 31
0.0
  0
LINE
  5
95D2
  8
0
 10
118.3281494479599019
 20
-13.2727655956739898
 30
0.0
 11
118.3281494479599019
 21
-13.2487136061749098
 31
0.0
  0
LINE
  5
95D3
  8
0
 10
118.3281494466469042
 20
-13.2962550932374395
 30
0.0
 11
118.3281494479599019
 21
-13.2759475713946102
 31
0.0
  0
LINE
  5
95D4
  8
0
 10
118.3478376076730001
 20
-13.2962550932374395
 30
0.0
 11
118.3478376063599029
 21
-13.2759475713946102
 31
0.0
  0
LINE
  5
95D5
  8
0
 10
118.3282069979313036
 20
-13.2989255307084608
 30
0.0
 11
118.3282069979313036
 21
-13.3059910577468603
 31
0.0
  0
LINE
  5
95D6
  8
0
 10
118.3477800563885012
 20
-13.2989255307084608
 30
0.0
 11
118.3477800563885012
 21
-13.3059910577468603
 31
0.0
  0
ARC
  5
95D7
  8
0
 10
118.4366660848785955
 20
-13.1190217230992392
 30
0.0
 40
0.2140637171224175
 50
291.9722132611894949
 51
317.4116148175672265
  0
ARC
  5
95D8
  8
0
 10
118.3348254482160939
 20
-12.9408658609603098
 30
0.0
 40
0.418307488665011
 50
276.550524400917709
 51
295.7807752451320198
  0
LINE
  5
95D9
  8
0
 10
118.156325287959902
 20
-13.2821687963898896
 30
0.0
 11
118.1594718508242039
 21
-13.2810428159973704
 31
0.0
  0
LINE
  5
95DA
  8
0
 10
118.1563252879328019
 20
-13.2821687963541493
 30
0.0
 11
118.1582362785919003
 21
-13.2804597413537895
 31
0.0
  0
LINE
  5
95DB
  8
0
 10
118.1563252878480057
 20
-13.2821687964299304
 30
0.0
 11
118.1563252879827957
 21
-13.2795481830798501
 31
0.0
  0
ARC
  5
95DC
  8
0
 10
118.1791777394394956
 20
-13.2826190560149904
 30
0.0
 40
0.056760671689893
 50
165.0229231491366022
 51
176.9772367701318103
  0
LINE
  5
95DD
  8
0
 10
118.1234916789598941
 20
-13.2668309830465692
 30
0.0
 11
118.1243452675488044
 21
-13.2679502496229205
 31
0.0
  0
LINE
  5
95DE
  8
0
 10
118.1243452675488044
 20
-13.2679502496229205
 30
0.0
 11
118.1331494479561997
 21
-13.2689154888476804
 31
0.0
  0
LINE
  5
95DF
  8
0
 10
118.1331494479561997
 20
-13.2689154888476804
 30
0.0
 11
118.1345692182626976
 21
-13.2683282236162103
 31
0.0
  0
LINE
  5
95E0
  8
0
 10
118.133149444700706
 20
-13.2689154884907694
 30
0.0
 11
118.1331494512884035
 21
-13.26751681818868
 31
0.0
  0
LINE
  5
95E1
  8
0
 10
118.5196580698480062
 20
-13.2821687963898896
 30
0.0
 11
118.516513605462805
 21
-13.2810435669266909
 31
0.0
  0
LINE
  5
95E2
  8
0
 10
118.5196580698752058
 20
-13.2821687963541493
 30
0.0
 11
118.5177483595421961
 21
-13.2804608863869902
 31
0.0
  0
LINE
  5
95E3
  8
0
 10
118.5196580699599025
 20
-13.2821687964299304
 30
0.0
 11
118.5196580698251978
 21
-13.2795499578228693
 31
0.0
  0
ARC
  5
95E4
  8
0
 10
118.4968091914803949
 20
-13.2826190676149896
 30
0.0
 40
0.056760671689893
 50
3.0227632298686462
 51
14.9770768508634102
  0
LINE
  5
95E5
  8
0
 10
118.5524953753598965
 20
-13.2668309829898892
 30
0.0
 11
118.5516416633711003
 21
-13.2679502612229197
 31
0.0
  0
LINE
  5
95E6
  8
0
 10
118.5516416633711003
 20
-13.2679502612229197
 30
0.0
 11
118.542837482963705
 21
-13.2689155004476795
 31
0.0
  0
LINE
  5
95E7
  8
0
 10
118.542837482963705
 20
-13.2689155004476795
 30
0.0
 11
118.5413963284498067
 21
-13.2683193899816008
 31
0.0
  0
LINE
  5
95E8
  8
0
 10
118.5428374862190992
 20
-13.2689155000907704
 30
0.0
 11
118.5428374796317001
 21
-13.26751688722279
 31
0.0
  0
ARC
  5
95E9
  8
0
 10
118.3379915871304036
 20
-12.9382816740066797
 30
0.0
 40
0.4181866615994437
 50
267.578871243561025
 51
269.9960474684526162
  0
ARC
  5
95EA
  8
0
 10
118.3379917684358986
 20
-12.9382816566504406
 30
0.0
 40
0.4181866789682268
 50
269.9960226279479798
 51
272.4211290704366206
  0
ARC
  5
95EB
  8
0
 10
118.3306323071169999
 20
-13.2518646103493101
 30
0.0
 40
0.1071925826278157
 50
279.2343993026029807
 51
283.5009726612386203
  0
ARC
  5
95EC
  8
0
 10
118.3379918726481037
 20
-12.9428268792706298
 30
0.0
 40
0.4149578514050864
 50
268.6408685056011905
 51
269.9959772904084048
  0
ARC
  5
95ED
  8
0
 10
118.3379914884855992
 20
-12.9428270184198393
 30
0.0
 40
0.4149577122290867
 50
269.9960303327558222
 51
271.3591315116781857
  0
ARC
  5
95EE
  8
0
 10
118.3452897244010984
 20
-13.2521696461913994
 30
0.0
 40
0.1068816593508406
 50
256.492818681415315
 51
260.7718091024217983
  0
LINE
  5
95EF
  8
0
 10
118.3478339099826968
 20
-13.3576679875603901
 30
0.0
 11
118.3478339099826968
 21
-13.3563525007209893
 31
0.0
  0
LINE
  5
95F0
  8
0
 10
118.3281494479748943
 20
-13.3576679875510003
 30
0.0
 11
118.3281494479748943
 21
-13.3563525007616697
 31
0.0
  0
LINE
  5
95F1
  8
0
 10
118.0295176119599034
 20
-13.1097050706898894
 30
0.0
 11
118.0320240142035004
 21
-13.1054733667478995
 31
0.0
  0
LINE
  5
95F2
  8
0
 10
118.0295176119599034
 20
-13.1097050706898894
 30
0.0
 11
118.0225628451764948
 21
-13.1097050706898894
 31
0.0
  0
LINE
  5
95F3
  8
0
 10
118.6464694423599013
 20
-13.1097050706898894
 30
0.0
 11
118.6534242091432958
 21
-13.1097050706898894
 31
0.0
  0
LINE
  5
95F4
  8
0
 10
118.6464694423599013
 20
-13.1097050706898894
 30
0.0
 11
118.6439558268577059
 21
-13.1054703708709201
 31
0.0
  0
ENDSEC
  0
EOF
