  0
SECTION
  2
HEADER
  9
$ACADVER
  1
AC1009
  9
$INSBASE
 10
103.1764380285527949
 20
-7.3506742736379733
 30
0.0
  9
$EXTMIN
 10
98.4338985850814367
 20
-7.3554686647248531
 30
0.0
  9
$EXTMAX
 10
104.1213302950539941
 20
-1.738470292148929
 30
0.0
  9
$LIMMIN
 10
0.0
 20
0.0
  9
$LIMMAX
 10
11.6929133858000007
 20
8.2677165353999982
  9
$ORTHOMODE
 70
     0
  9
$REGENMODE
 70
     1
  9
$FILLMODE
 70
     1
  9
$QTEXTMODE
 70
     0
  9
$MIRRTEXT
 70
     0
  9
$DRAGMODE
 70
     2
  9
$LTSCALE
 40
0.6431102362
  9
$OSMODE
 70
  3839
  9
$ATTMODE
 70
     1
  9
$TEXTSIZE
 40
0.2
  9
$TRACEWID
 40
0.05
  9
$TEXTSTYLE
  7
STANDARD
  9
$CLAYER
  8
0
  9
$CELTYPE
  6
BYLAYER
  9
$CECOLOR
 62
   256
  9
$DIMSCALE
 40
1.0
  9
$DIMASZ
 40
0.1875
  9
$DIMEXO
 40
0.0625
  9
$DIMDLI
 40
0.4443307087
  9
$DIMRND
 40
0.0
  9
$DIMDLE
 40
0.0
  9
$DIMEXE
 40
0.125
  9
$DIMTP
 40
0.01
  9
$DIMTM
 40
0.01
  9
$DIMTXT
 40
1.0
  9
$DIMCEN
 40
0.1052362205
  9
$DIMTSZ
 40
0.0
  9
$DIMTOL
 70
     1
  9
$DIMLIM
 70
     0
  9
$DIMTIH
 70
     1
  9
$DIMTOH
 70
     1
  9
$DIMSE1
 70
     0
  9
$DIMSE2
 70
     0
  9
$DIMTAD
 70
     0
  9
$DIMZIN
 70
     0
  9
$DIMBLK
  1

  9
$DIMASO
 70
     1
  9
$DIMSHO
 70
     1
  9
$DIMPOST
  1
\X
  9
$DIMAPOST
  1

  9
$DIMALT
 70
     1
  9
$DIMALTD
 70
     2
  9
$DIMALTF
 40
25.3999999999999986
  9
$DIMLFAC
 40
1.0
  9
$DIMTOFL
 70
     0
  9
$DIMTVP
 40
0.0
  9
$DIMTIX
 70
     0
  9
$DIMSOXD
 70
     0
  9
$DIMSAH
 70
     0
  9
$DIMBLK1
  1

  9
$DIMBLK2
  1

  9
$DIMSTYLE
  2
STANDARD
  9
$DIMCLRD
 70
     0
  9
$DIMCLRE
 70
     0
  9
$DIMCLRT
 70
     0
  9
$DIMTFAC
 40
1.0
  9
$DIMGAP
 40
0.09
  9
$LUNITS
 70
     2
  9
$LUPREC
 70
     4
  9
$SKETCHINC
 40
0.1
  9
$FILLETRAD
 40
0.0
  9
$AUNITS
 70
     0
  9
$AUPREC
 70
     0
  9
$MENU
  1
.
  9
$ELEVATION
 40
0.0
  9
$PELEVATION
 40
0.0
  9
$THICKNESS
 40
0.0
  9
$LIMCHECK
 70
     0
  9
$BLIPMODE
 70
     0
  9
$CHAMFERA
 40
0.0
  9
$CHAMFERB
 40
0.0
  9
$SKPOLY
 70
     0
  9
$TDCREATE
 40
2458172.4620254631154239
  9
$TDUPDATE
 40
2459097.6362499999813735
  9
$TDINDWG
 40
0.0944388079
  9
$TDUSRTIMER
 40
0.0944388079
  9
$USRTIMER
 70
     1
  9
$ANGBASE
 50
0.0
  9
$ANGDIR
 70
     0
  9
$PDMODE
 70
     0
  9
$PDSIZE
 40
0.3125
  9
$PLINEWID
 40
0.0
  9
$COORDS
 70
     1
  9
$SPLFRAME
 70
     0
  9
$SPLINETYPE
 70
     6
  9
$SPLINESEGS
 70
     8
  9
$ATTDIA
 70
     1
  9
$ATTREQ
 70
     1
  9
$HANDLING
 70
     1
  9
$HANDSEED
  5
75CB
  9
$SURFTAB1
 70
     6
  9
$SURFTAB2
 70
     6
  9
$SURFTYPE
 70
     6
  9
$SURFU
 70
     6
  9
$SURFV
 70
     6
  9
$UCSNAME
  2

  9
$UCSORG
 10
0.0
 20
0.0
 30
0.0
  9
$UCSXDIR
 10
1.0
 20
0.0
 30
0.0
  9
$UCSYDIR
 10
0.0
 20
1.0
 30
0.0
  9
$PUCSNAME
  2

  9
$PUCSORG
 10
0.0
 20
0.0
 30
0.0
  9
$PUCSXDIR
 10
1.0
 20
0.0
 30
0.0
  9
$PUCSYDIR
 10
0.0
 20
1.0
 30
0.0
  9
$USERI1
 70
     0
  9
$USERI2
 70
     0
  9
$USERI3
 70
     0
  9
$USERI4
 70
     0
  9
$USERI5
 70
     0
  9
$USERR1
 40
0.0
  9
$USERR2
 40
0.0
  9
$USERR3
 40
0.0
  9
$USERR4
 40
0.0
  9
$USERR5
 40
0.0
  9
$WORLDVIEW
 70
     1
  9
$SHADEDGE
 70
     3
  9
$SHADEDIF
 70
    70
  9
$TILEMODE
 70
     1
  9
$MAXACTVP
 70
    64
  9
$PLIMCHECK
 70
     0
  9
$PEXTMIN
 10
1.0000000000000000E+20
 20
1.0000000000000000E+20
 30
1.0000000000000000E+20
  9
$PEXTMAX
 10
-1.0000000000000000E+20
 20
-1.0000000000000000E+20
 30
-1.0000000000000000E+20
  9
$PLIMMIN
 10
0.0
 20
0.0
  9
$PLIMMAX
 10
12.0
 20
9.0
  9
$UNITMODE
 70
     0
  9
$VISRETAIN
 70
     1
  9
$PLINEGEN
 70
     0
  9
$PSLTSCALE
 70
     1
  0
ENDSEC
  0
SECTION
  2
TABLES
  0
TABLE
  2
VPORT
 70
     1
  0
VPORT
  2
*ACTIVE
 70
     0
 10
0.0
 20
0.0
 11
1.0
 21
1.0
 12
0.0
 22
0.0
 13
0.0
 23
0.0
 14
1.0
 24
1.0
 15
0.0
 25
0.0
 16
-0.0000000000000142
 26
0.0
 36
33.185516668329619
 17
101.2776603698730042
 27
-4.5469694903290403
 37
0.0
 40
7.9935288987016726
 41
3.314341846758349
 42
50.0
 43
0.0
 44
0.0
 50
0.0
 51
0.0
 71
     0
 72
   100
 73
     1
 74
     1
 75
     0
 76
     0
 77
     0
 78
     0
  0
ENDTAB
  0
TABLE
  2
LTYPE
 70
     2
  0
LTYPE
  2
CONTINUOUS
 70
     0
  3
Solid line
 72
    65
 73
     0
 40
0.0
  0
LTYPE
  2
PHANTOM2
 70
     0
  3
___ _ _ ___ _ _ ___ _ _ ___ _ _
 72
    65
 73
     6
 40
1.25
 49
0.625
 49
-0.125
 49
0.125
 49
-0.125
 49
0.125
 49
-0.125
  0
ENDTAB
  0
TABLE
  2
LAYER
 70
     2
  0
LAYER
  2
0
 70
     0
 62
   255
  6
CONTINUOUS
  0
LAYER
  2
DEFPOINTS
 70
     0
 62
     7
  6
CONTINUOUS
  0
ENDTAB
  0
TABLE
  2
STYLE
 70
     1
  0
STYLE
  2
STANDARD
 70
     0
 40
0.0
 41
0.8
 50
0.0
 71
     0
 42
0.2
  3
txt
  4

  0
ENDTAB
  0
TABLE
  2
VIEW
 70
     0
  0
ENDTAB
  0
TABLE
  2
UCS
 70
     0
  0
ENDTAB
  0
TABLE
  2
APPID
 70
     9
  0
APPID
  2
ACAD
 70
     0
  0
APPID
  2
ACAD_MLEADERVER
 70
     0
  0
APPID
  2
ACAD_EXEMPT_FROM_CAD_STANDARDS
 70
     0
  0
APPID
  2
ACAD_DSTYLE_DIMJAG
 70
     0
  0
APPID
  2
ACAD_DSTYLE_DIMTALN
 70
     0
  0
APPID
  2
ACAD_NAV_VCDISPLAY
 70
     0
  0
APPID
  2
ACAECLAYERSTANDARD
 70
     0
  0
APPID
  2
ACCMTRANSPARENCY
 70
     0
  0
APPID
  2
ACDBATTR
 70
     0
  0
ENDTAB
  0
TABLE
  2
DIMSTYLE
 70
     1
  0
DIMSTYLE
  2
STANDARD
 70
     0
  3

  4

  5

  6

  7

 40
1.0
 41
0.1875
 42
0.0625
 43
0.38
 44
0.125
 45
0.0
 46
0.0
 47
0.01
 48
0.01
140
0.15625
141
0.09
142
0.0
143
25.3999999999999986
144
1.0
145
0.0
146
1.0
147
0.09
 71
     1
 72
     0
 73
     1
 74
     1
 75
     0
 76
     0
 77
     0
 78
     4
170
     0
171
     2
172
     0
173
     0
174
     0
175
     0
176
     0
177
     0
178
     0
  0
ENDTAB
  0
ENDSEC
  0
SECTION
  2
BLOCKS
  0
BLOCK
  8
0
  2
$MODEL_SPACE
 70
     0
 10
0.0
 20
0.0
 30
0.0
  3
$MODEL_SPACE
  1

  0
ENDBLK
  5
21
  8
0
  0
BLOCK
 67
     1
  8
0
  2
$PAPER_SPACE
 70
     0
 10
0.0
 20
0.0
 30
0.0
  3
$PAPER_SPACE
  1

  0
ENDBLK
  5
1D
 67
     1
  8
0
  0
BLOCK
  8
0
  2
_FILLED
 70
     0
 10
0.0
 20
0.0
 30
0.0
  3
_FILLED
  1

  0
SOLID
  5
3BD9
  8
0
  6
BYBLOCK
 62
     0
 10
0.0
 20
0.0
 30
0.0
 11
-1.0
 21
0.1666666667
 31
0.0
 12
-1.0
 22
-0.1666666667
 32
0.0
 13
-1.0
 23
-0.1666666667
 33
0.0
  0
ENDBLK
  5
3BDA
  8
0
  6
BYBLOCK
 62
     0
  0
BLOCK
  8
0
  2
A$C226D500F
 70
     2
 10
0.0
 20
0.0
 30
0.0
  3
A$C226D500F
  1

  0
ATTDEF
  5
564D
  8
DEFPOINTS
 10
0.000291919742196
 20
0.0005288174062983
 30
0.0
 40
0.001
  1
BATHROOM SINK FAUCET
  3

  2
PRODUCT
 70
     0
1001
ACDBATTR
1070
     0
1070
     1
  0
ATTDEF
  5
564E
  8
DEFPOINTS
 10
0.000291919742196
 20
0.0021954840729634
 30
0.0
 40
0.001
  1
ALEO
  3

  2
TRADENAME
 70
     0
1001
ACDBATTR
1070
     0
1070
     1
  0
ATTDEF
  5
564F
  8
DEFPOINTS
 10
0.000291919742196
 20
0.0038621507396286
 30
0.0
 40
0.001
  1
K-98868T-4
  3

  2
MODELNUMBER
 70
     0
1001
ACDBATTR
1070
     0
1070
     1
  0
ENDBLK
  5
5653
  8
0
  0
BLOCK
  8
0
  2
A$C393A5527
 70
     2
 10
0.0
 20
0.0
 30
0.0
  3
A$C393A5527
  1

  0
ATTDEF
  5
5655
  8
DEFPOINTS
 10
0.0000000879847164
 20
-0.0000001116000696
 30
0.0
 40
0.001
  1
BATHROOM SINK FAUCET
  3

  2
PRODUCT
 70
     0
1001
ACDBATTR
1070
     0
1070
     1
  0
ATTDEF
  5
5656
  8
DEFPOINTS
 10
0.0000000879847164
 20
0.0016665550665955
 30
0.0
 40
0.001
  1
ALEO
  3

  2
TRADENAME
 70
     0
1001
ACDBATTR
1070
     0
1070
     1
  0
ATTDEF
  5
5657
  8
DEFPOINTS
 10
0.0000000879847164
 20
0.0033332217332607
 30
0.0
 40
0.001
  1
K-98868T-4
  3

  2
MODELNUMBER
 70
     0
1001
ACDBATTR
1070
     0
1070
     1
  0
ENDBLK
  5
565B
  8
0
  0
ENDSEC
  0
SECTION
  2
ENTITIES
  0
ATTDEF
  5
383D
  8
DEFPOINTS
 10
103.1652167503741993
 20
-7.3521353313915228
 30
0.0
 40
0.001
  1
K-72275IN-4ND
  3

  2
MODELNUMBER
 70
     0
1001
ACDBATTR
1070
     0
1070
     1
  0
ATTDEF
  5
383E
  8
DEFPOINTS
 10
103.1652167503741993
 20
-7.3538019980581879
 30
0.0
 40
0.001
  1
ALEO
  3

  2
TRADENAME
 70
     0
1001
ACDBATTR
1070
     0
1070
     1
  0
ATTDEF
  5
383F
  8
DEFPOINTS
 10
103.1652167503741993
 20
-7.3554686647248531
 30
0.0
 40
0.001
  1
BATHROOM SINK FAUCET
  3

  2
PRODUCT
 70
     0
1001
ACDBATTR
1070
     0
1070
     1
  0
LINE
  5
716E
  8
0
 10
98.5036545733218816
 20
-3.407214141516941
 30
0.0
 11
102.0222246839282008
 21
-3.407214088147108
 31
0.0
  0
LINE
  5
716F
  8
0
 10
102.2315457620515957
 20
-7.3506742736379733
 30
0.0
 11
104.1213302950539941
 21
-7.3506742736379733
 31
0.0
  0
LINE
  5
7170
  8
0
 10
98.4646577971439143
 20
-3.1853199429379719
 30
0.0
 11
104.0898336822296955
 21
-3.1853199429379728
 31
0.0
  0
LINE
  5
7171
  8
0
 10
102.1331439688517975
 20
-3.0770529693477831
 30
0.0
 11
102.964017869491002
 21
-3.0770529693477831
 31
0.0
  0
ARC
  5
7172
  8
0
 10
104.0775605367465033
 20
-1.758155337049609
 30
0.0
 40
0.0196850496075271
 50
0.0000459569976068
 51
89.9603781762829442
  0
LINE
  5
7173
  8
0
 10
104.077574149572996
 20
-1.7384702921489319
 30
0.0
 11
99.545769402354054
 21
-1.7384702921489319
 31
0.0
  0
ARC
  5
7174
  8
0
 10
99.5457694023273945
 20
-1.7581548477524691
 30
0.0
 40
0.0196845556035381
 50
89.9999999224380218
 51
202.6512080028506944
  0
ARC
  5
7175
  8
0
 10
99.7288277481198122
 20
-1.6817629846192541
 30
0.0
 40
0.2180430056812233
 50
202.6512080008446901
 51
216.9434213943297038
  0
ARC
  5
7176
  8
0
 10
99.7814415144552669
 20
-1.621935725731084
 30
0.0
 40
0.2964937637073275
 50
220.0742754337817075
 51
249.7110615026255971
  0
ARC
  5
7177
  8
0
 10
100.043155762792793
 20
-0.8837164829989276
 30
0.0
 40
1.079712568668485
 50
250.2684985462867076
 51
266.6232891938939815
  0
ARC
  5
7178
  8
0
 10
100.3017500057253955
 20
1.8875558278597739
 30
0.0
 40
3.8625712650330262
 50
265.215208051631123
 51
268.3647380272793725
  0
ARC
  5
7179
  8
0
 10
92.4887736464083758
 20
-2.8610702964053312
 30
0.0
 40
9.6467884516785514
 50
358.7170932835128951
 51
1.0789627904926209
  0
ARC
  5
717A
  8
0
 10
101.3974201268064945
 20
-2.6932877034360558
 30
0.0
 40
0.7365621295690797
 50
1.078962790492723
 51
39.3143937768505296
  0
ARC
  5
717B
  8
0
 10
101.4774147344927968
 20
-2.7264706855821079
 30
0.0
 40
0.6998733723344119
 50
45.5777867724929209
 51
79.0869185398994716
  0
ARC
  5
717C
  8
0
 10
101.0874418848687952
 20
-5.0593859016888416
 30
0.0
 40
3.0649915749249992
 50
80.1851659432152246
 51
89.1028933377652947
  0
ARC
  5
717D
  8
0
 10
100.1290882224508039
 20
-33.0614040931436435
 30
0.0
 40
31.0829290166614989
 50
88.1446661608429451
 51
89.3550785585862002
  0
ARC
  5
717E
  8
0
 10
101.1525252501908057
 20
31.5732023109064599
 30
0.0
 40
33.5604066134863075
 50
268.3591135428500252
 51
268.8499665646367021
  0
LINE
  5
717F
  8
0
 10
104.0972455863540063
 20
-1.7581553329477799
 30
0.0
 11
104.097227955153997
 21
-2.6058202043477832
 31
0.0
  0
LINE
  5
7180
  8
0
 10
104.097227955153997
 20
-2.6058202043477832
 30
0.0
 11
103.2053216982804003
 21
-3.021722922221969
 31
0.0
  0
ARC
  5
7181
  8
0
 10
102.9557440208554056
 20
-2.4865018656990689
 30
0.0
 40
0.5905510955153255
 50
280.4628461198078071
 51
294.9999999967088797
  0
ARC
  5
7182
  8
0
 10
102.9557437768026062
 20
-2.486500544126323
 30
0.0
 40
0.5905524394335713
 50
275.5438225718218064
 51
280.4628461198078071
  0
ARC
  5
7183
  8
0
 10
102.9540595188686041
 20
-2.469147980706623
 30
0.0
 40
0.6079865491620066
 50
270.9385026321897953
 51
275.5438225718218064
  0
ARC
  5
7184
  8
0
 10
103.1370783278108973
 20
-3.3034309212562651
 30
0.0
 40
0.9251968489255968
 50
11.2910773100479993
 51
39.1690610572798477
  0
ARC
  5
7185
  8
0
 10
103.7355219766590011
 20
-3.1839469942043839
 30
0.0
 40
0.3149418123464204
 50
359.7502255527903117
 51
11.2910773100479993
  0
ARC
  5
7186
  8
0
 10
104.0898329561628941
 20
-3.2168173092347141
 30
0.0
 40
0.0314973663051137
 50
0.0755961073482154
 51
89.9986792368701742
  0
LINE
  5
7187
  8
0
 10
104.1213302950524024
 20
-3.2167757515905739
 30
0.0
 11
104.121330295051493
 21
-7.3506742736379733
 31
0.0
  0
LINE
  5
7189
  8
0
 10
102.2315457622539014
 20
-7.3506742737425581
 30
0.0
 11
102.2315457622539014
 21
-4.8243357428952178
 31
0.0
  0
ARC
  5
718A
  8
0
 10
101.2557006068253997
 20
-4.8469474222443703
 30
0.0
 40
0.9761070921861925
 50
1.3273847755084409
 51
63.6555663788241688
  0
ARC
  5
718B
  8
0
 10
101.2483025789431963
 20
-4.8588400756576871
 30
0.0
 40
0.9900485237164303
 50
63.577316374611442
 51
84.2412320354168571
  0
ARC
  5
718C
  8
0
 10
100.4760787068287016
 20
-17.5254864639254286
 30
0.0
 40
13.67949171017084
 50
86.3470220739225311
 51
91.2819096249348405
  0
ARC
  5
718D
  8
0
 10
100.1954527645332007
 20
-4.8592729042106688
 30
0.0
 40
1.0101740478295671
 50
91.4412175116468404
 51
106.2251729391761046
  0
ARC
  5
718E
  8
0
 10
94.7696603353291636
 20
14.9539517096192895
 30
0.0
 40
19.53267392172787
 50
284.5837788003394735
 51
285.2677375958966763
  0
LINE
  5
718F
  8
0
 10
99.6878973247112157
 20
-3.94938914454778
 30
0.0
 11
98.7324589321112285
 21
-3.7111715972477839
 31
0.0
  0
ARC
  5
7190
  8
0
 10
99.4139378186386438
 20
-2.9600923915768971
 30
0.0
 40
1.0141663798282039
 50
195.130378700172713
 51
227.7815076427040992
  0
ARC
  5
7191
  8
0
 10
98.4654053984922655
 20
-3.216817885466476
 30
0.0
 40
0.0315068134108326
 50
91.3596558299610564
 51
194.6876533119888109
  0
LINE
  5
7192
  8
0
 10
98.8626154606112379
 20
-3.8410040799477798
 30
0.0
 11
99.5120259860112242
 21
-4.0029203092477852
 31
0.0
  0
LINE
  5
7193
  8
0
 10
99.5120259860112242
 20
-4.0029203092477852
 30
0.0
 11
99.5219101784598479
 21
-3.996981287292023
 31
0.0
  0
ARC
  5
7194
  8
0
 10
99.5016330890112357
 20
-3.9632345431477849
 30
0.0
 40
0.0393700786999967
 50
300.9999998402582264
 51
345.9999999542188789
  0
LINE
  5
7195
  8
0
 10
99.5398337081093842
 20
-3.9727590272473212
 30
0.0
 11
99.5539850572318983
 21
-3.9160010661961242
 31
0.0
  0
LINE
  5
7196
  8
0
 10
98.866373912779892
 20
-3.7445603520735138
 30
0.0
 11
98.8522225587120431
 21
-3.801318332996289
 31
0.0
  0
ARC
  5
7197
  8
0
 10
98.8904231288481981
 20
-3.8108428048820251
 30
0.0
 40
0.0393700282376012
 50
165.9999999629739875
 51
208.9137680979748097
  0
LINE
  5
7198
  8
0
 10
98.8566764385112435
 20
-3.8311198874477839
 30
0.0
 11
99.5219101784598479
 21
-3.996981287292023
 31
0.0
  0
ARC
  5
7199
  8
0
 10
99.3701235249681929
 20
-3.5298979008213398
 30
0.0
 40
0.5952742981836117
 50
210.2607335470547127
 51
211.508603736898209
  0
LINE
  5
719A
  8
0
 10
99.1376411882384758
 20
-3.9096554879674059
 30
0.0
 11
99.12389201933496
 21
-3.9648003923243111
 31
0.0
  0
ARC
  5
719B
  8
0
 10
99.3214119004229445
 20
-3.3967076558375462
 30
0.0
 40
0.6014511290820135
 50
231.0627414959189991
 51
250.8279733717542967
  0
ARC
  5
719C
  8
0
 10
99.2406681546268885
 20
-3.5041907649985911
 30
0.0
 40
0.4671261984588692
 50
229.5606664707486004
 51
230.4807880507808875
  0
LINE
  5
719D
  8
0
 10
99.1070994230714462
 20
-3.901960778026393
 30
0.0
 11
99.1057438272314357
 21
-3.9073977760170031
 31
0.0
  0
LINE
  5
719E
  8
0
 10
99.1057438272314357
 20
-3.9073977760170031
 30
0.0
 11
99.1049103459162382
 21
-3.907271040093363
 31
0.0
  0
LINE
  5
719F
  8
0
 10
99.1049103459162382
 20
-3.907271040093363
 30
0.0
 11
99.1062849727594966
 21
-3.90175771275673
 31
0.0
  0
ARC
  5
71A0
  8
0
 10
99.3705118444037652
 20
-3.541475336958257
 30
0.0
 40
0.4520516037256479
 50
232.1666445574441013
 51
234.016881776048109
  0
LINE
  5
71A1
  8
0
 10
99.0888044758872866
 20
-3.897399335383505
 30
0.0
 11
99.0950496202689948
 21
-3.9022145092306251
 31
0.0
  0
LINE
  5
71A2
  8
0
 10
99.0950496202689948
 20
-3.9022145092306251
 30
0.0
 11
99.0930806166421263
 21
-3.9101117513972099
 31
0.0
  0
LINE
  5
71A3
  8
0
 10
99.0930806166421263
 20
-3.9101117513972099
 30
0.0
 11
99.0764084192758645
 21
-3.9065123155272521
 31
0.0
  0
LINE
  5
71A4
  8
0
 10
99.0764084192758645
 20
-3.9065123155272521
 30
0.0
 11
99.0617013816761869
 21
-3.8950310547296141
 31
0.0
  0
LINE
  5
71A5
  8
0
 10
99.0617013816761869
 20
-3.8950310547296141
 30
0.0
 11
99.0627317026774961
 21
-3.8908986629114541
 31
0.0
  0
LINE
  5
71A6
  8
0
 10
99.0792730559201402
 20
-3.8950228854791762
 30
0.0
 11
99.0764084171935622
 21
-3.9065123139016942
 31
0.0
  0
LINE
  5
71A7
  8
0
 10
99.0865235912016828
 20
-3.9105483182389449
 30
0.0
 11
99.0848308131213855
 21
-3.9173376801743061
 31
0.0
  0
LINE
  5
71A8
  8
0
 10
99.0848308131213855
 20
-3.9173376801743061
 30
0.0
 11
99.0999148038382316
 21
-3.9273070646528869
 31
0.0
  0
LINE
  5
71A9
  8
0
 10
99.0999148038382316
 20
-3.9273070646528869
 30
0.0
 11
99.1007292541966933
 21
-3.927510129933605
 31
0.0
  0
LINE
  5
71AA
  8
0
 10
99.1007292541966933
 20
-3.927510129933605
 30
0.0
 11
99.1040218776262662
 21
-3.9143041386240331
 31
0.0
  0
LINE
  5
71AB
  8
0
 10
99.1040218776262662
 20
-3.9143041386240331
 30
0.0
 11
99.1032846364570048
 21
-3.9137914040467701
 31
0.0
  0
LINE
  5
71AC
  8
0
 10
99.1032846364570048
 20
-3.9137914040467701
 30
0.0
 11
99.0865235912016828
 21
-3.9105483182389449
 31
0.0
  0
LINE
  5
71AD
  8
0
 10
99.1032846365159514
 20
-3.9137914040159041
 30
0.0
 11
99.099914803913407
 21
-3.9273070646423638
 31
0.0
  0
LINE
  5
71AE
  8
0
 10
99.0822202051644183
 20
-3.927808256674453
 30
0.0
 11
99.0810468521729462
 21
-3.9325143187249978
 31
0.0
  0
LINE
  5
71AF
  8
0
 10
99.0810468521729462
 20
-3.9325143187249978
 30
0.0
 11
99.0963971223978746
 21
-3.94141571423242
 31
0.0
  0
LINE
  5
71B0
  8
0
 10
99.0963971223978746
 20
-3.94141571423242
 30
0.0
 11
99.0972115727562937
 21
-3.9416187795131421
 31
0.0
  0
LINE
  5
71B1
  8
0
 10
99.0972115727562937
 20
-3.9416187795131421
 30
0.0
 11
99.0994898607127368
 21
-3.9324810657961362
 31
0.0
  0
LINE
  5
71B2
  8
0
 10
99.0987384455567053
 20
-3.9320251798420931
 30
0.0
 11
99.0822202051644183
 21
-3.927808256674453
 31
0.0
  0
LINE
  5
71B3
  8
0
 10
99.0987384456156235
 20
-3.9320251798112271
 30
0.0
 11
99.0963971224730074
 21
-3.9414157142218968
 31
0.0
  0
LINE
  5
71B4
  8
0
 10
99.0987384456055764
 20
-3.93202517985155
 30
0.0
 11
99.0994898607127368
 21
-3.9324810657961362
 31
0.0
  0
LINE
  5
71B5
  8
0
 10
99.0778203079171504
 20
-3.945455280872622
 30
0.0
 11
99.0775921922241167
 21
-3.9463702029677501
 31
0.0
  0
LINE
  5
71B6
  8
0
 10
99.0775921922234204
 20
-3.9463702029704919
 30
0.0
 11
99.0831332123371453
 21
-3.948945582349431
 31
0.0
  0
LINE
  5
71B7
  8
0
 10
99.0778203079171504
 20
-3.945455280872622
 30
0.0
 11
99.0938834821710373
 21
-3.951497374110176
 31
0.0
  0
LINE
  5
71B8
  8
0
 10
99.0938834821710373
 20
-3.951497374110176
 30
0.0
 11
99.0946594650914676
 21
-3.9518547243198658
 31
0.0
  0
LINE
  5
71B9
  8
0
 10
99.0946594650914676
 20
-3.9518547243198658
 30
0.0
 11
99.094224282282994
 21
-3.9536001471120561
 31
0.0
  0
LINE
  5
71BA
  8
0
 10
99.0938834821710373
 20
-3.951497374110176
 30
0.0
 11
99.0934392160908146
 21
-3.953279228838213
 31
0.0
  0
LINE
  5
71BB
  8
0
 10
99.0964006779547901
 20
-3.9448711010347042
 30
0.0
 11
99.0950593067571361
 21
-3.9502510470151302
 31
0.0
  0
LINE
  5
71BC
  8
0
 10
99.0950593067571361
 20
-3.9502510470151302
 30
0.0
 11
99.0942448564100005
 21
-3.9500479817394378
 31
0.0
  0
LINE
  5
71BD
  8
0
 10
99.0942448564100005
 20
-3.9500479817394378
 30
0.0
 11
99.0786577235114265
 21
-3.9420965901366292
 31
0.0
  0
LINE
  5
71BE
  8
0
 10
99.0786577235114265
 20
-3.9420965901366292
 30
0.0
 11
99.0793483842382159
 21
-3.9393265014949961
 31
0.0
  0
LINE
  5
71BF
  8
0
 10
99.0793483842382159
 20
-3.9393265014949961
 30
0.0
 11
99.0956365193797524
 21
-3.94446632531848
 31
0.0
  0
LINE
  5
71C0
  8
0
 10
99.0956365193797524
 20
-3.94446632531848
 30
0.0
 11
99.0964006779547901
 21
-3.9448711010347042
 31
0.0
  0
LINE
  5
71C1
  8
0
 10
99.0956365193797524
 20
-3.94446632531848
 30
0.0
 11
99.0942448561659006
 21
-3.9500479816785732
 31
0.0
  0
LINE
  5
71C2
  8
0
 10
99.0837790215392147
 20
-3.9474184116247391
 30
0.0
 11
99.0842360019508988
 21
-3.9455855630944372
 31
0.0
  0
LINE
  5
71C3
  8
0
 10
99.0842360019508988
 20
-3.9455855630944372
 30
0.0
 11
99.0687200669248114
 21
-3.937348612664004
 31
0.0
  0
LINE
  5
71C4
  8
0
 10
99.0687200669248114
 20
-3.937348612664004
 30
0.0
 11
99.0527479762206156
 21
-3.9309412022897812
 31
0.0
  0
LINE
  5
71C5
  8
0
 10
99.0527479762206156
 20
-3.9309412022897812
 30
0.0
 11
99.0522857532563563
 21
-3.932795077328386
 31
0.0
  0
LINE
  5
71C6
  8
0
 10
99.0522857532563563
 20
-3.932795077328386
 30
0.0
 11
99.0678009045302019
 21
-3.9410351715537901
 31
0.0
  0
LINE
  5
71C7
  8
0
 10
99.0678009045302019
 20
-3.9410351715537901
 30
0.0
 11
99.0837790215392147
 21
-3.9474184116247391
 31
0.0
  0
LINE
  5
71C8
  8
0
 10
99.0687200668825483
 20
-3.9373486127352502
 30
0.0
 11
99.067800904485054
 21
-3.941035171529812
 31
0.0
  0
LINE
  5
71C9
  8
0
 10
99.0854970525000311
 20
-3.9405277658649749
 30
0.0
 11
99.0864239088148935
 21
-3.9368103478071288
 31
0.0
  0
LINE
  5
71CA
  8
0
 10
99.0864239088148935
 20
-3.9368103478071288
 30
0.0
 11
99.0711588220175372
 21
-3.9275673002694562
 31
0.0
  0
LINE
  5
71CB
  8
0
 10
99.0711588220175372
 20
-3.9275673002694562
 30
0.0
 11
99.0549614727607661
 21
-3.9220633526181641
 31
0.0
  0
LINE
  5
71CC
  8
0
 10
99.0549614727607661
 20
-3.9220633526181641
 30
0.0
 11
99.0540037842171444
 21
-3.9259044315686258
 31
0.0
  0
LINE
  5
71CD
  8
0
 10
99.0540037842171444
 20
-3.9259044315686258
 30
0.0
 11
99.0692942327812034
 21
-3.9350457594257269
 31
0.0
  0
LINE
  5
71CE
  8
0
 10
99.0692942327812034
 20
-3.9350457594257269
 30
0.0
 11
99.0854970525000311
 21
-3.9405277658649749
 31
0.0
  0
LINE
  5
71CF
  8
0
 10
99.0711588219752741
 20
-3.927567300340705
 30
0.0
 11
99.0692942327360413
 21
-3.9350457594017461
 31
0.0
  0
LINE
  5
71D0
  8
0
 10
99.0885660182102299
 20
-3.9282188168224512
 30
0.0
 11
99.0899904455772003
 21
-3.9225057505625012
 31
0.0
  0
LINE
  5
71D1
  8
0
 10
99.0899904455772003
 20
-3.9225057505625012
 30
0.0
 11
99.0750007909853139
 21
-3.91215800435711
 31
0.0
  0
LINE
  5
71D2
  8
0
 10
99.0750007909853139
 20
-3.91215800435711
 30
0.0
 11
99.0585715425984148
 21
-3.907584153358123
 31
0.0
  0
LINE
  5
71D3
  8
0
 10
99.0585715425984148
 20
-3.907584153358123
 30
0.0
 11
99.0571294493707342
 21
-3.913368073475965
 31
0.0
  0
LINE
  5
71D4
  8
0
 10
99.0571294493707342
 20
-3.913368073475965
 30
0.0
 11
99.0721343111707853
 21
-3.9236548269714082
 31
0.0
  0
LINE
  5
71D5
  8
0
 10
99.0721343111707853
 20
-3.9236548269714082
 30
0.0
 11
99.0885660182102299
 21
-3.9282188168224512
 31
0.0
  0
LINE
  5
71D6
  8
0
 10
99.0750007909430508
 20
-3.9121580044283641
 30
0.0
 11
99.072134311125609
 21
-3.9236548269474341
 31
0.0
  0
LINE
  5
71D7
  8
0
 10
99.0649476809081619
 20
-3.907873085188946
 30
0.0
 11
99.066654159949934
 21
-3.9010287716666712
 31
0.0
  0
LINE
  5
71D8
  8
0
 10
99.066654159949934
 20
-3.9010287716666712
 30
0.0
 11
99.0520484488359756
 21
-3.8891411121238422
 31
0.0
  0
LINE
  5
71D9
  8
0
 10
99.0520484488359756
 20
-3.8891411121238422
 30
0.0
 11
99.0357010556672748
 21
-3.8842389582210259
 31
0.0
  0
LINE
  5
71DA
  8
0
 10
99.0357010556672748
 20
-3.8842389582210259
 30
0.0
 11
99.0339794734468057
 21
-3.8911438472356328
 31
0.0
  0
LINE
  5
71DB
  8
0
 10
99.0339794734468057
 20
-3.8911438472356328
 30
0.0
 11
99.0486075472070837
 21
-3.902941815257194
 31
0.0
  0
LINE
  5
71DC
  8
0
 10
99.0486075472070837
 20
-3.902941815257194
 30
0.0
 11
99.0649476809081619
 21
-3.907873085188946
 31
0.0
  0
LINE
  5
71DD
  8
0
 10
99.0520484487937267
 20
-3.889141112195091
 30
0.0
 11
99.0486075471619074
 21
-3.9029418152332198
 31
0.0
  0
LINE
  5
71DE
  8
0
 10
99.0611343295320523
 20
-3.923167601965766
 30
0.0
 11
99.0623166191298594
 21
-3.9184256968505631
 31
0.0
  0
LINE
  5
71DF
  8
0
 10
99.0623166191298594
 20
-3.9184256968505631
 30
0.0
 11
99.0474072340229839
 21
-3.9077560082719178
 31
0.0
  0
LINE
  5
71E0
  8
0
 10
99.0474072340229839
 20
-3.9077560082719178
 30
0.0
 11
99.0313065675430551
 21
-3.9018642873978
 31
0.0
  0
LINE
  5
71E1
  8
0
 10
99.0313065675430551
 20
-3.9018642873978
 30
0.0
 11
99.030106013269247
 21
-3.9066794473083988
 31
0.0
  0
LINE
  5
71E2
  8
0
 10
99.030106013269247
 20
-3.9066794473083988
 30
0.0
 11
99.0450245301414611
 21
-3.9173125117036069
 31
0.0
  0
LINE
  5
71E3
  8
0
 10
99.0450245301414611
 20
-3.9173125117036069
 30
0.0
 11
99.0611343295320523
 21
-3.923167601965766
 31
0.0
  0
LINE
  5
71E4
  8
0
 10
99.0474072339807208
 20
-3.9077560083431711
 30
0.0
 11
99.045024530096299
 21
-3.9173125116796261
 31
0.0
  0
LINE
  5
71E5
  8
0
 10
99.0587274164452367
 20
-3.9328212031561032
 30
0.0
 11
99.0594231957821449
 21
-3.9300305843409662
 31
0.0
  0
LINE
  5
71E6
  8
0
 10
99.0594231957821449
 20
-3.9300305843409662
 30
0.0
 11
99.0442441404825331
 21
-3.9204424831559059
 31
0.0
  0
LINE
  5
71E7
  8
0
 10
99.0442441404825331
 20
-3.9204424831559059
 30
0.0
 11
99.0283690124476124
 21
-3.9136461771427098
 31
0.0
  0
LINE
  5
71E8
  8
0
 10
99.0283690124476124
 20
-3.9136461771427098
 30
0.0
 11
99.0276629016163383
 21
-3.916478232802433
 31
0.0
  0
LINE
  5
71E9
  8
0
 10
99.0276629016163383
 20
-3.916478232802433
 30
0.0
 11
99.0428431059482648
 21
-3.9260617260986739
 31
0.0
  0
LINE
  5
71EA
  8
0
 10
99.0428431059482648
 20
-3.9260617260986739
 30
0.0
 11
99.0587274164452367
 21
-3.9328212031561032
 31
0.0
  0
LINE
  5
71EB
  8
0
 10
99.0442441404402842
 20
-3.920442483227156
 30
0.0
 11
99.0428431059031311
 21
-3.9260617260747002
 31
0.0
  0
LINE
  5
71EC
  8
0
 10
99.0343694136101504
 20
-3.915442108427801
 30
0.0
 11
99.0353161472679062
 21
-3.911644966872537
 31
0.0
  0
LINE
  5
71ED
  8
0
 10
99.0353161472679062
 20
-3.911644966872537
 30
0.0
 11
99.0204949304602167
 21
-3.9006216535901541
 31
0.0
  0
LINE
  5
71EE
  8
0
 10
99.0204949304602167
 20
-3.9006216535901541
 30
0.0
 11
99.0047247304902385
 21
-3.8934045042534149
 31
0.0
  0
LINE
  5
71EF
  8
0
 10
99.0047247304902385
 20
-3.8934045042534149
 30
0.0
 11
99.003760329487335
 21
-3.897272505322495
 31
0.0
  0
LINE
  5
71F0
  8
0
 10
99.003760329487335
 20
-3.897272505322495
 30
0.0
 11
99.0187275213702236
 21
-3.908354498512701
 31
0.0
  0
LINE
  5
71F1
  8
0
 10
99.0187275213702236
 20
-3.908354498512701
 30
0.0
 11
99.0343694136101504
 21
-3.915442108427801
 31
0.0
  0
LINE
  5
71F2
  8
0
 10
99.0204949304179962
 20
-3.9006216536614038
 30
0.0
 11
99.0187275213250331
 21
-3.9083544984887268
 31
0.0
  0
LINE
  5
71F3
  8
0
 10
99.0326152528788128
 20
-3.9224776626671489
 30
0.0
 11
99.0330817543743649
 21
-3.9206066276326981
 31
0.0
  0
LINE
  5
71F4
  8
0
 10
99.0330817543743649
 20
-3.9206066276326981
 30
0.0
 11
99.0179958294852156
 21
-3.9106450003075608
 31
0.0
  0
LINE
  5
71F5
  8
0
 10
99.0179958294852156
 20
-3.9106450003075608
 30
0.0
 11
99.0024490427633452
 21
-3.902531788907674
 31
0.0
  0
LINE
  5
71F6
  8
0
 10
99.0024490427633452
 20
-3.902531788907674
 30
0.0
 11
99.0019740935335619
 21
-3.904436706572036
 31
0.0
  0
LINE
  5
71F7
  8
0
 10
99.0019740935335619
 20
-3.904436706572036
 30
0.0
 11
99.0170544882690962
 21
-3.9144205139432851
 31
0.0
  0
LINE
  5
71F8
  8
0
 10
99.0170544882690962
 20
-3.9144205139432851
 30
0.0
 11
99.0326152528788128
 21
-3.9224776626671489
 31
0.0
  0
LINE
  5
71F9
  8
0
 10
99.0179958294429952
 20
-3.910645000378814
 30
0.0
 11
99.0170544882239199
 21
-3.9144205139193038
 31
0.0
  0
LINE
  5
71FA
  8
0
 10
99.0082749281532415
 20
-3.9050276647522262
 30
0.0
 11
99.0089892015878803
 21
-3.9021628702955842
 31
0.0
  0
LINE
  5
71FB
  8
0
 10
99.0089892015878803
 20
-3.9021628702955842
 30
0.0
 11
98.9942654164764519
 21
-3.8907487799263412
 31
0.0
  0
LINE
  5
71FC
  8
0
 10
98.9942654164764519
 20
-3.8907487799263412
 30
0.0
 11
98.9788327378895616
 21
-3.882177906085623
 31
0.0
  0
LINE
  5
71FD
  8
0
 10
98.9788327378895616
 20
-3.882177906085623
 30
0.0
 11
98.9781026477159145
 21
-3.8851061378782612
 31
0.0
  0
LINE
  5
71FE
  8
0
 10
98.9781026477159145
 20
-3.8851061378782612
 30
0.0
 11
98.9928212967257934
 21
-3.8965408279332481
 31
0.0
  0
LINE
  5
71FF
  8
0
 10
98.9928212967257934
 20
-3.8965408279332481
 30
0.0
 11
99.0082749281532415
 21
-3.9050276647522262
 31
0.0
  0
LINE
  5
7200
  8
0
 10
98.9942654164341889
 20
-3.8907487799975908
 30
0.0
 11
98.9928212966806456
 21
-3.8965408279092699
 31
0.0
  0
LINE
  5
7201
  8
0
 10
99.037505268786532
 20
-3.9028648800015731
 30
0.0
 11
99.0389618155924722
 21
-3.897022990080786
 31
0.0
  0
LINE
  5
7202
  8
0
 10
99.0389618155924722
 20
-3.897022990080786
 30
0.0
 11
99.0244366396209159
 21
-3.884812321894366
 31
0.0
  0
LINE
  5
7203
  8
0
 10
99.0244366396209159
 20
-3.884812321894366
 30
0.0
 11
99.0084408793126869
 21
-3.8784998451458819
 31
0.0
  0
LINE
  5
7204
  8
0
 10
99.0084408793126869
 20
-3.8784998451458819
 30
0.0
 11
99.0069556959595616
 21
-3.884456590238571
 31
0.0
  0
LINE
  5
7205
  8
0
 10
99.0069556959595616
 20
-3.884456590238571
 30
0.0
 11
99.0214951882641401
 21
-3.8966098385759409
 31
0.0
  0
LINE
  5
7206
  8
0
 10
99.0214951882641401
 20
-3.8966098385759409
 30
0.0
 11
99.037505268786532
 21
-3.9028648800015731
 31
0.0
  0
LINE
  5
7207
  8
0
 10
99.024436639578667
 20
-3.8848123219656192
 30
0.0
 11
99.0214951882190064
 21
-3.8966098385519641
 31
0.0
  0
LINE
  5
7208
  8
0
 10
99.0107466543989574
 20
-3.8951141122292978
 30
0.0
 11
99.0119616622035323
 21
-3.8902409823024162
 31
0.0
  0
LINE
  5
7209
  8
0
 10
99.0119616622035323
 20
-3.8902409823024162
 30
0.0
 11
98.997527450223771
 21
-3.877665477394995
 31
0.0
  0
LINE
  5
720A
  8
0
 10
98.997527450223771
 20
-3.877665477394995
 30
0.0
 11
98.9816772219188437
 21
-3.8707693036452762
 31
0.0
  0
LINE
  5
720B
  8
0
 10
98.9816772219188437
 20
-3.8707693036452762
 30
0.0
 11
98.9806298576820041
 21
-3.8749700524046742
 31
0.0
  0
LINE
  5
720C
  8
0
 10
98.9806298576820041
 20
-3.8749700524046742
 30
0.0
 11
98.9950697679444431
 21
-3.8875227028436261
 31
0.0
  0
LINE
  5
720D
  8
0
 10
98.9950697679444431
 20
-3.8875227028436261
 30
0.0
 11
99.0107466543989574
 21
-3.8951141122292978
 31
0.0
  0
LINE
  5
720E
  8
0
 10
98.9975274501815505
 20
-3.8776654774662451
 30
0.0
 11
98.9950697678992952
 21
-3.8875227028196488
 31
0.0
  0
LINE
  5
720F
  8
0
 10
98.9828646982577993
 20
-3.891868821956102
 30
0.0
 11
98.9833461895316873
 21
-3.8899376661760461
 31
0.0
  0
LINE
  5
7210
  8
0
 10
98.9833461895316873
 20
-3.8899376661760461
 30
0.0
 11
98.9687309201295164
 21
-3.8780883425388599
 31
0.0
  0
LINE
  5
7211
  8
0
 10
98.9687309201295164
 20
-3.8780883425388599
 30
0.0
 11
98.9536484725452112
 21
-3.8681127689009149
 31
0.0
  0
LINE
  5
7212
  8
0
 10
98.9536484725452112
 20
-3.8681127689009149
 30
0.0
 11
98.953154452331745
 21
-3.8700941759935721
 31
0.0
  0
LINE
  5
7213
  8
0
 10
98.953154452331745
 20
-3.8700941759935721
 30
0.0
 11
98.9677556450990039
 21
-3.8819999576081732
 31
0.0
  0
LINE
  5
7214
  8
0
 10
98.9677556450990039
 20
-3.8819999576081732
 30
0.0
 11
98.9828646982577993
 21
-3.891868821956102
 31
0.0
  0
LINE
  5
7215
  8
0
 10
98.9687309200872534
 20
-3.8780883426101131
 30
0.0
 11
98.9677556450538845
 21
-3.8819999575841919
 31
0.0
  0
LINE
  5
7216
  8
0
 10
98.9846757844802738
 20
-3.884604952133714
 30
0.0
 11
98.9856538865641653
 21
-3.8806819985318839
 31
0.0
  0
LINE
  5
7217
  8
0
 10
98.9856538865641653
 20
-3.8806819985318839
 30
0.0
 11
98.9710774403845335
 21
-3.8680466887451819
 31
0.0
  0
LINE
  5
7218
  8
0
 10
98.9536447391616747
 20
-3.8681277427987628
 30
0.0
 11
98.9531825161974155
 21
-3.869981617837368
 31
0.0
  0
LINE
  5
7219
  8
0
 10
98.9570392656053457
 20
-3.8645465786644309
 30
0.0
 11
98.9693405510942625
 21
-3.875643246593818
 31
0.0
  0
LINE
  5
721A
  8
0
 10
98.9693405510942625
 20
-3.875643246593818
 30
0.0
 11
98.9846757844802738
 21
-3.884604952133714
 31
0.0
  0
LINE
  5
721B
  8
0
 10
98.9712066584544345
 20
-3.8681586989240131
 30
0.0
 11
98.9693405510491431
 21
-3.8756432465698372
 31
0.0
  0
LINE
  5
721C
  8
0
 10
98.9593075924484538
 20
-3.8712775043836558
 30
0.0
 11
98.960049803002164
 21
-3.8683006607923791
 31
0.0
  0
LINE
  5
721D
  8
0
 10
98.960049803002164
 20
-3.8683006607923791
 30
0.0
 11
98.9555740399373462
 21
-3.8641812568749652
 31
0.0
  0
LINE
  5
721E
  8
0
 10
98.9453501819838266
 20
-3.8616321627904289
 30
0.0
 11
98.9593075924484538
 21
-3.8712775043836558
 31
0.0
  0
LINE
  5
721F
  8
0
 10
98.9413839430073949
 20
-3.8606432683477721
 30
0.0
 11
98.9439153451873068
 21
-3.8625444694751261
 31
0.0
  0
LINE
  5
7220
  8
0
 10
98.9439153451873068
 20
-3.8625444694751261
 30
0.0
 11
98.9584085649258327
 21
-3.8748833072140099
 31
0.0
  0
LINE
  5
7221
  8
0
 10
98.9584085649258327
 20
-3.8748833072140099
 30
0.0
 11
98.9581637906736375
 21
-3.875865042925323
 31
0.0
  0
LINE
  5
7222
  8
0
 10
98.9581637906736375
 20
-3.875865042925323
 30
0.0
 11
98.9471621749514725
 21
-3.8675373529240389
 31
0.0
  0
LINE
  5
7223
  8
0
 10
98.9439153451984765
 20
-3.862544469430333
 30
0.0
 11
98.9434185086306854
 21
-3.864537172259312
 31
0.0
  0
LINE
  5
7224
  8
0
 10
99.236981528226039
 20
-3.9343440239049952
 30
0.0
 11
99.2232136291254818
 21
-3.9895640509828501
 31
0.0
  0
ARC
  5
7225
  8
0
 10
99.315517311047401
 20
-3.3952379696287811
 30
0.0
 40
0.6014511290820135
 50
261.1720265641793048
 51
281.6696611518797226
  0
LINE
  5
7226
  8
0
 10
99.2675420235783861
 20
-3.9419636111759968
 30
0.0
 11
99.2661864276909682
 21
-3.9474006092471541
 31
0.0
  0
LINE
  5
7227
  8
0
 10
99.2661864276909682
 20
-3.9474006092471541
 30
0.0
 11
99.2669818469237271
 21
-3.9476800038449298
 31
0.0
  0
LINE
  5
7228
  8
0
 10
99.2669818469237271
 20
-3.9476800038449298
 30
0.0
 11
99.2683564738903499
 21
-3.9421666764456629
 31
0.0
  0
ARC
  5
7229
  8
0
 10
99.2042003240862158
 20
-3.5000092176402342
 30
0.0
 40
0.4520516037256479
 50
277.9831181598859757
 51
279.8333554119132032
  0
LINE
  5
722A
  8
0
 10
99.2858369710108661
 20
-3.9465250538808019
 30
0.0
 11
99.2780622483439856
 21
-3.9478446823836539
 31
0.0
  0
LINE
  5
722B
  8
0
 10
99.2780622483439856
 20
-3.9478446823836539
 30
0.0
 11
99.2760932447262547
 21
-3.9557419245525129
 31
0.0
  0
LINE
  5
722C
  8
0
 10
99.2760932447262547
 20
-3.9557419245525129
 30
0.0
 11
99.2925037540362609
 21
-3.960390933886452
 31
0.0
  0
LINE
  5
722D
  8
0
 10
99.2925037540362609
 20
-3.960390933886452
 30
0.0
 11
99.310879422935983
 21
-3.9571581182485969
 31
0.0
  0
LINE
  5
722E
  8
0
 10
99.310879422935983
 20
-3.9571581182485969
 30
0.0
 11
99.3119097439723646
 21
-3.9530257262909321
 31
0.0
  0
LINE
  5
722F
  8
0
 10
99.295368390729692
 20
-3.948901503723214
 30
0.0
 11
99.2925037566379558
 21
-3.9603909334287382
 31
0.0
  0
LINE
  5
7230
  8
0
 10
99.2816777988338401
 20
-3.9592057271815269
 30
0.0
 11
99.279985020799387
 21
-3.9659950891283211
 31
0.0
  0
LINE
  5
7231
  8
0
 10
99.279985020799387
 20
-3.9659950891283211
 30
0.0
 11
99.2619863049921349
 21
-3.9677160284409512
 31
0.0
  0
LINE
  5
7232
  8
0
 10
99.2619863049921349
 20
-3.9677160284409512
 30
0.0
 11
99.2611718546341848
 21
-3.9675129631582569
 31
0.0
  0
LINE
  5
7233
  8
0
 10
99.2611718546341848
 20
-3.9675129631582569
 30
0.0
 11
99.2644644780958458
 21
-3.9543069718566888
 31
0.0
  0
LINE
  5
7234
  8
0
 10
99.2644644780958458
 20
-3.9543069718566888
 30
0.0
 11
99.2653561377150027
 21
-3.9542003678607931
 31
0.0
  0
LINE
  5
7235
  8
0
 10
99.2653561377150027
 20
-3.9542003678607931
 30
0.0
 11
99.2816777988338401
 21
-3.9592057271815269
 31
0.0
  0
LINE
  5
7236
  8
0
 10
99.2653561376774718
 20
-3.9542003678058748
 30
0.0
 11
99.2619863049307014
 21
-3.9677160283963819
 31
0.0
  0
LINE
  5
7237
  8
0
 10
99.2773744128863882
 20
-3.9764656656394348
 30
0.0
 11
99.2762010597751043
 21
-3.9811717276601049
 31
0.0
  0
LINE
  5
7238
  8
0
 10
99.2762010597751043
 20
-3.9811717276601049
 30
0.0
 11
99.2584686235696836
 21
-3.9818246780249571
 31
0.0
  0
LINE
  5
7239
  8
0
 10
99.2584686235696836
 20
-3.9818246780249571
 30
0.0
 11
99.2576541732117335
 21
-3.9816216127422601
 31
0.0
  0
LINE
  5
723A
  8
0
 10
99.2576541732117335
 20
-3.9816216127422601
 30
0.0
 11
99.2599324610939959
 21
-3.972483899006761
 31
0.0
  0
LINE
  5
723B
  8
0
 10
99.2608099467886262
 20
-3.9724341436496151
 30
0.0
 11
99.2773744128863882
 21
-3.9764656656394348
 31
0.0
  0
LINE
  5
723C
  8
0
 10
99.2608099467510669
 20
-3.9724341435946902
 30
0.0
 11
99.2584686235082643
 21
-3.9818246779803879
 31
0.0
  0
LINE
  5
723D
  8
0
 10
99.2608099467410057
 20
-3.972434143635021
 30
0.0
 11
99.2599324610939959
 21
-3.972483899006761
 31
0.0
  0
LINE
  5
723E
  8
0
 10
99.2729745155211418
 20
-3.9941126898081838
 30
0.0
 11
99.2727463998163131
 21
-3.995027611900384
 31
0.0
  0
LINE
  5
723F
  8
0
 10
99.2727463998156452
 20
-3.9950276119031258
 30
0.0
 11
99.2666449020628505
 21
-3.994700185547412
 31
0.0
  0
LINE
  5
7240
  8
0
 10
99.2729745155211418
 20
-3.9941126898081838
 30
0.0
 11
99.2559549835277153
 21
-3.991906337948802
 31
0.0
  0
LINE
  5
7241
  8
0
 10
99.2559549835277153
 20
-3.991906337948802
 30
0.0
 11
99.2551020655146772
 21
-3.9918575575409538
 31
0.0
  0
LINE
  5
7242
  8
0
 10
99.2551020655146772
 20
-3.9918575575409538
 30
0.0
 11
99.2546668827599632
 21
-3.9936029803465449
 31
0.0
  0
LINE
  5
7243
  8
0
 10
99.2559549835277153
 20
-3.991906337948802
 30
0.0
 11
99.255510717068006
 21
-3.9936881925822232
 31
0.0
  0
LINE
  5
7244
  8
0
 10
99.2568432783537702
 20
-3.984873934249745
 30
0.0
 11
99.2555019071706965
 21
-3.9902538802338232
 31
0.0
  0
LINE
  5
7245
  8
0
 10
99.2555019071706965
 20
-3.9902538802338232
 30
0.0
 11
99.2563163575162832
 21
-3.990456945515636
 31
0.0
  0
LINE
  5
7246
  8
0
 10
99.2563163575162832
 20
-3.990456945515636
 30
0.0
 11
99.2738119312304264
 21
-3.990753999100868
 31
0.0
  0
LINE
  5
7247
  8
0
 10
99.2738119312304264
 20
-3.990753999100868
 30
0.0
 11
99.2745025918509612
 21
-3.9879839104327428
 31
0.0
  0
LINE
  5
7248
  8
0
 10
99.2745025918509612
 20
-3.9879839104327428
 30
0.0
 11
99.2577080210162137
 21
-3.9848752892268711
 31
0.0
  0
LINE
  5
7249
  8
0
 10
99.2577080210162137
 20
-3.9848752892268711
 30
0.0
 11
99.2568432783537702
 21
-3.984873934249745
 31
0.0
  0
LINE
  5
724A
  8
0
 10
99.2577080210162137
 20
-3.9848752892268711
 30
0.0
 11
99.2563163577603973
 21
-3.9904569455765011
 31
0.0
  0
LINE
  5
724B
  8
0
 10
99.2667916496110365
 20
-3.9930485847769721
 30
0.0
 11
99.2672486301224666
 21
-3.9912157362715419
 31
0.0
  0
LINE
  5
724C
  8
0
 10
99.2672486301224666
 20
-3.9912157362715419
 30
0.0
 11
99.2848154015958642
 21
-3.9912272310009129
 31
0.0
  0
LINE
  5
724D
  8
0
 10
99.2848154015958642
 20
-3.9912272310009129
 30
0.0
 11
99.3019260175957754
 21
-3.9930682658375289
 31
0.0
  0
LINE
  5
724E
  8
0
 10
99.3019260175957754
 20
-3.9930682658375289
 30
0.0
 11
99.3014637946357936
 21
-3.9949221408771942
 31
0.0
  0
LINE
  5
724F
  8
0
 10
99.3014637946357936
 20
-3.9949221408771942
 30
0.0
 11
99.2838962392522006
 21
-3.9949137899034
 31
0.0
  0
LINE
  5
7250
  8
0
 10
99.2838962392522006
 20
-3.9949137899034
 30
0.0
 11
99.2667916496110365
 21
-3.9930485847769721
 31
0.0
  0
LINE
  5
7251
  8
0
 10
99.2848154015997153
 20
-3.9912272310836632
 30
0.0
 11
99.2838962393033171
 21
-3.9949137899034288
 31
0.0
  0
LINE
  5
7252
  8
0
 10
99.2685096805508635
 20
-3.9861579390119819
 30
0.0
 11
99.2694365370680316
 21
-3.9824405210045768
 31
0.0
  0
LINE
  5
7253
  8
0
 10
99.2694365370680316
 20
-3.9824405210045768
 30
0.0
 11
99.2872541566840852
 21
-3.9814459186052389
 31
0.0
  0
LINE
  5
7254
  8
0
 10
99.2872541566840852
 20
-3.9814459186052389
 30
0.0
 11
99.3041395141233068
 21
-3.9841904161627539
 31
0.0
  0
LINE
  5
7255
  8
0
 10
99.3041395141233068
 20
-3.9841904161627539
 30
0.0
 11
99.3031818255756349
 21
-3.9880314951122111
 31
0.0
  0
LINE
  5
7256
  8
0
 10
99.3031818255756349
 20
-3.9880314951122111
 30
0.0
 11
99.2853895673462716
 21
-3.9889243777362191
 31
0.0
  0
LINE
  5
7257
  8
0
 10
99.2853895673462716
 20
-3.9889243777362191
 30
0.0
 11
99.2685096805508635
 21
-3.9861579390119819
 31
0.0
  0
LINE
  5
7258
  8
0
 10
99.2872541566879079
 20
-3.9814459186879891
 30
0.0
 11
99.2853895673974165
 21
-3.9889243777362431
 31
0.0
  0
LINE
  5
7259
  8
0
 10
99.2715786462214851
 20
-3.9738489899595821
 30
0.0
 11
99.2730030736583444
 21
-3.9681359237170639
 31
0.0
  0
LINE
  5
725A
  8
0
 10
99.2730030736583444
 20
-3.9681359237170639
 30
0.0
 11
99.2910961256827704
 21
-3.9660366227006101
 31
0.0
  0
LINE
  5
725B
  8
0
 10
99.2910961256827704
 20
-3.9660366227006101
 30
0.0
 11
99.3077495839708035
 21
-3.9697112169051749
 31
0.0
  0
LINE
  5
725C
  8
0
 10
99.3077495839708035
 20
-3.9697112169051749
 30
0.0
 11
99.3063074906916086
 21
-3.9754951370101779
 31
0.0
  0
LINE
  5
725D
  8
0
 10
99.3063074906916086
 20
-3.9754951370101779
 30
0.0
 11
99.2882296458423355
 21
-3.977533445308453
 31
0.0
  0
LINE
  5
725E
  8
0
 10
99.2882296458423355
 20
-3.977533445308453
 30
0.0
 11
99.2715786462214851
 21
-3.9738489899595821
 31
0.0
  0
LINE
  5
725F
  8
0
 10
99.2910961256866074
 20
-3.9660366227833568
 30
0.0
 11
99.2882296458934235
 21
-3.977533445308481
 31
0.0
  0
LINE
  5
7260
  8
0
 10
99.3019841427233843
 20
-3.9669729129464391
 30
0.0
 11
99.3036906217343329
 21
-3.9601285994164792
 31
0.0
  0
LINE
  5
7261
  8
0
 10
99.3036906217343329
 20
-3.9601285994164792
 30
0.0
 11
99.322167617311905
 21
-3.956489385081337
 31
0.0
  0
LINE
  5
7262
  8
0
 10
99.322167617311905
 20
-3.956489385081337
 30
0.0
 11
99.33890293060972
 21
-3.9598356763301119
 31
0.0
  0
LINE
  5
7263
  8
0
 10
99.33890293060972
 20
-3.9598356763301119
 30
0.0
 11
99.3371813484429538
 21
-3.9667405653581089
 31
0.0
  0
LINE
  5
7264
  8
0
 10
99.3371813484429538
 20
-3.9667405653581089
 30
0.0
 11
99.3187267154393965
 21
-3.97029008815396
 31
0.0
  0
LINE
  5
7265
  8
0
 10
99.3187267154393965
 20
-3.97029008815396
 30
0.0
 11
99.3019841427233843
 21
-3.9669729129464391
 31
0.0
  0
LINE
  5
7266
  8
0
 10
99.3221676173157562
 20
-3.9564893851640841
 30
0.0
 11
99.3187267154905271
 21
-3.970290088153984
 31
0.0
  0
LINE
  5
7267
  8
0
 10
99.298170791431275
 20
-3.9822674297441978
 30
0.0
 11
99.2993530812871228
 21
-3.9775255246933341
 31
0.0
  0
LINE
  5
7268
  8
0
 10
99.2993530812871228
 20
-3.9775255246933341
 30
0.0
 11
99.3175264023523994
 21
-3.9751042811928881
 31
0.0
  0
LINE
  5
7269
  8
0
 10
99.3175264023523994
 20
-3.9751042811928881
 30
0.0
 11
99.3345084424679214
 21
-3.9774610055024979
 31
0.0
  0
LINE
  5
726A
  8
0
 10
99.3345084424679214
 20
-3.9774610055024979
 30
0.0
 11
99.3333078883204053
 21
-3.9822761654446031
 31
0.0
  0
LINE
  5
726B
  8
0
 10
99.3333078883204053
 20
-3.9822761654446031
 30
0.0
 11
99.3151436983975771
 21
-3.984660784606302
 31
0.0
  0
LINE
  5
726C
  8
0
 10
99.3151436983975771
 20
-3.984660784606302
 30
0.0
 11
99.298170791431275
 21
-3.9822674297441978
 31
0.0
  0
LINE
  5
726D
  8
0
 10
99.3175264023562647
 20
-3.9751042812756379
 30
0.0
 11
99.3151436984487077
 21
-3.9846607846063269
 31
0.0
  0
LINE
  5
726E
  8
0
 10
99.2957638782993399
 20
-3.9919210309232831
 30
0.0
 11
99.2964596577880627
 21
-3.9891304121460038
 31
0.0
  0
LINE
  5
726F
  8
0
 10
99.2964596577880627
 20
-3.9891304121460038
 30
0.0
 11
99.3143633089757145
 21
-3.9877907561177039
 31
0.0
  0
LINE
  5
7270
  8
0
 10
99.3143633089757145
 20
-3.9877907561177039
 30
0.0
 11
99.3315708874640535
 21
-3.9892428952702521
 31
0.0
  0
LINE
  5
7271
  8
0
 10
99.3315708874640535
 20
-3.9892428952702521
 30
0.0
 11
99.3308647767231747
 21
-3.9920749509525
 31
0.0
  0
LINE
  5
7272
  8
0
 10
99.3308647767231747
 20
-3.9920749509525
 30
0.0
 11
99.3129622742729623
 21
-3.9934099990184651
 31
0.0
  0
LINE
  5
7273
  8
0
 10
99.3129622742729623
 20
-3.9934099990184651
 30
0.0
 11
99.2957638782993399
 21
-3.9919210309232831
 31
0.0
  0
LINE
  5
7274
  8
0
 10
99.3143633089795941
 20
-3.9877907562004471
 30
0.0
 11
99.312962274324093
 21
-3.993409999018489
 31
0.0
  0
LINE
  5
7275
  8
0
 10
99.325429709035717
 20
-3.9880115907573739
 30
0.0
 11
99.326376442815814
 21
-3.9842144492326099
 31
0.0
  0
LINE
  5
7276
  8
0
 10
99.326376442815814
 20
-3.9842144492326099
 30
0.0
 11
99.3446379326362603
 21
-3.981439581142113
 31
0.0
  0
LINE
  5
7277
  8
0
 10
99.3446379326362603
 20
-3.981439581142113
 30
0.0
 11
99.3619504391154749
 21
-3.982470876952644
 31
0.0
  0
LINE
  5
7278
  8
0
 10
99.3619504391154749
 20
-3.982470876952644
 30
0.0
 11
99.3609860381484822
 21
-3.9863388780306801
 31
0.0
  0
LINE
  5
7279
  8
0
 10
99.3609860381484822
 20
-3.9863388780306801
 30
0.0
 11
99.3425681114387658
 21
-3.9890970262576961
 31
0.0
  0
LINE
  5
727A
  8
0
 10
99.3425681114387658
 20
-3.9890970262576961
 30
0.0
 11
99.325429709035717
 21
-3.9880115907573739
 31
0.0
  0
LINE
  5
727B
  8
0
 10
99.3446379326401257
 20
-3.9814395812248589
 30
0.0
 11
99.3425681114899106
 21
-3.989097026257717
 31
0.0
  0
LINE
  5
727C
  8
0
 10
99.3236755483792422
 20
-3.9950471450153922
 30
0.0
 11
99.324142049750435
 21
-3.9931761099499292
 31
0.0
  0
LINE
  5
727D
  8
0
 10
99.324142049750435
 20
-3.9931761099499292
 30
0.0
 11
99.3421388315674676
 21
-3.9914629278361429
 31
0.0
  0
LINE
  5
727E
  8
0
 10
99.3421388315674676
 20
-3.9914629278361429
 30
0.0
 11
99.3596747515152288
 21
-3.9915981616384819
 31
0.0
  0
LINE
  5
727F
  8
0
 10
99.3596747515152288
 20
-3.9915981616384819
 30
0.0
 11
99.35919980211942
 21
-3.9935030792614441
 31
0.0
  0
LINE
  5
7280
  8
0
 10
99.35919980211942
 20
-3.9935030792614441
 30
0.0
 11
99.3411974902372208
 21
-3.995238441443413
 31
0.0
  0
LINE
  5
7281
  8
0
 10
99.3411974902372208
 20
-3.995238441443413
 30
0.0
 11
99.3236755483792422
 21
-3.9950471450153922
 31
0.0
  0
LINE
  5
7282
  8
0
 10
99.342138831571333
 20
-3.9914629279188891
 30
0.0
 11
99.3411974902883657
 21
-3.9952384414434339
 31
0.0
  0
LINE
  5
7283
  8
0
 10
99.3533590573012759
 20
-3.991066801681832
 30
0.0
 11
99.3540733308253436
 21
-3.9882020072474949
 31
0.0
  0
LINE
  5
7284
  8
0
 10
99.3540733308253436
 20
-3.9882020072474949
 30
0.0
 11
99.3724322522942316
 21
-3.9850363620582101
 31
0.0
  0
LINE
  5
7285
  8
0
 10
99.3724322522942316
 20
-3.9850363620582101
 30
0.0
 11
99.3900822802406765
 21
-3.9847139333857422
 31
0.0
  0
LINE
  5
7286
  8
0
 10
99.3900822802406765
 20
-3.9847139333857422
 30
0.0
 11
99.3893521900429135
 21
-3.987642165172375
 31
0.0
  0
LINE
  5
7287
  8
0
 10
99.3893521900429135
 20
-3.987642165172375
 30
0.0
 11
99.3709881325158335
 21
-3.9908284100581999
 31
0.0
  0
LINE
  5
7288
  8
0
 10
99.3709881325158335
 20
-3.9908284100581999
 30
0.0
 11
99.3533590573012759
 21
-3.991066801681832
 31
0.0
  0
LINE
  5
7289
  8
0
 10
99.372432252298097
 20
-3.9850363621409599
 30
0.0
 11
99.3709881325669642
 21
-3.9908284100582279
 31
0.0
  0
LINE
  5
728A
  8
0
 10
99.3285655643549887
 20
-3.9754343623667698
 30
0.0
 11
99.3300221110560955
 21
-3.969592472419837
 31
0.0
  0
LINE
  5
728B
  8
0
 10
99.3300221110560955
 20
-3.969592472419837
 30
0.0
 11
99.3485796416966025
 21
-3.9656302494213058
 31
0.0
  0
LINE
  5
728C
  8
0
 10
99.3485796416966025
 20
-3.9656302494213058
 30
0.0
 11
99.365666588078696
 21
-3.9675662178802118
 31
0.0
  0
LINE
  5
728D
  8
0
 10
99.365666588078696
 20
-3.9675662178802118
 30
0.0
 11
99.364181404710834
 21
-3.9735229629692199
 31
0.0
  0
LINE
  5
728E
  8
0
 10
99.364181404710834
 20
-3.9735229629692199
 30
0.0
 11
99.3456381904849053
 21
-3.9774277661390451
 31
0.0
  0
LINE
  5
728F
  8
0
 10
99.3456381904849053
 20
-3.9774277661390451
 30
0.0
 11
99.3285655643549887
 21
-3.9754343623667698
 31
0.0
  0
LINE
  5
7290
  8
0
 10
99.3485796417004394
 20
-3.9656302495040521
 30
0.0
 11
99.3456381905359933
 21
-3.97742776613907
 31
0.0
  0
LINE
  5
7291
  8
0
 10
99.3558307835692034
 20
-3.9811532491644361
 30
0.0
 11
99.3570457912807399
 21
-3.976280119214366
 31
0.0
  0
LINE
  5
7292
  8
0
 10
99.3570457912807399
 20
-3.976280119214366
 30
0.0
 11
99.3756942859496206
 21
-3.9719530595039392
 31
0.0
  0
LINE
  5
7293
  8
0
 10
99.3756942859496206
 20
-3.9719530595039392
 30
0.0
 11
99.3929267643437555
 21
-3.9733053309637971
 31
0.0
  0
LINE
  5
7294
  8
0
 10
99.3929267643437555
 20
-3.9733053309637971
 30
0.0
 11
99.3918793999858394
 21
-3.9775060796930011
 31
0.0
  0
LINE
  5
7295
  8
0
 10
99.3918793999858394
 20
-3.9775060796930011
 30
0.0
 11
99.3732366035550143
 21
-3.981810284923839
 31
0.0
  0
LINE
  5
7296
  8
0
 10
99.3732366035550143
 20
-3.981810284923839
 30
0.0
 11
99.3558307835692034
 21
-3.9811532491644361
 31
0.0
  0
LINE
  5
7297
  8
0
 10
99.3756942859534718
 20
-3.971953059586689
 30
0.0
 11
99.3732366036061592
 21
-3.981810284923867
 31
0.0
  0
LINE
  5
7298
  8
0
 10
99.3819726611130534
 20
-3.9913776134819452
 30
0.0
 11
99.382454152275983
 21
-3.989446457674227
 31
0.0
  0
LINE
  5
7299
  8
0
 10
99.382454152275983
 20
-3.989446457674227
 30
0.0
 11
99.4009215897035858
 21
-3.985845579279204
 31
0.0
  0
LINE
  5
729A
  8
0
 10
99.4009215897035858
 20
-3.985845579279204
 30
0.0
 11
99.4189218486399682
 21
-3.9841184508063501
 31
0.0
  0
LINE
  5
729B
  8
0
 10
99.4189218486399682
 20
-3.9841184508063501
 30
0.0
 11
99.4184278283117635
 21
-3.9860998578703968
 31
0.0
  0
LINE
  5
729C
  8
0
 10
99.4184278283117635
 20
-3.9860998578703968
 30
0.0
 11
99.3999463144001254
 21
-3.9897571942804579
 31
0.0
  0
LINE
  5
729D
  8
0
 10
99.3999463144001254
 20
-3.9897571942804579
 30
0.0
 11
99.3819726611130534
 21
-3.9913776134819452
 31
0.0
  0
LINE
  5
729E
  8
0
 10
99.4009215897074228
 20
-3.9858455793619498
 30
0.0
 11
99.3999463144512561
 21
-3.9897571942804788
 31
0.0
  0
LINE
  5
729F
  8
0
 10
99.3837837472180041
 20
-3.9841137436302541
 30
0.0
 11
99.3847618494999949
 21
-3.9801907900778142
 31
0.0
  0
LINE
  5
72A0
  8
0
 10
99.3847618494999949
 20
-3.9801907900778142
 30
0.0
 11
99.4033973278066867
 21
-3.9759159356182359
 31
0.0
  0
LINE
  5
72A1
  8
0
 10
99.4189181152027288
 20
-3.9841334246908109
 30
0.0
 11
99.418455892242747
 21
-3.9859872997304819
 31
0.0
  0
LINE
  5
72A2
  8
0
 10
99.4176021815415822
 20
-3.979377810661902
 30
0.0
 11
99.4015312205279145
 21
-3.983400483299143
 31
0.0
  0
LINE
  5
72A3
  8
0
 10
99.4015312205279145
 20
-3.983400483299143
 30
0.0
 11
99.3837837472180041
 21
-3.9841137436302541
 31
0.0
  0
LINE
  5
72A4
  8
0
 10
99.4033973278258856
 20
-3.9759159356138269
 30
0.0
 11
99.4015312205790167
 21
-3.9834004832991639
 31
0.0
  0
LINE
  5
72A5
  8
0
 10
99.4124393890306521
 20
-3.9842559505106512
 30
0.0
 11
99.413181599425144
 21
-3.981279106879672
 31
0.0
  0
LINE
  5
72A6
  8
0
 10
99.413181599425144
 20
-3.981279106879672
 30
0.0
 11
99.4190674072009841
 21
-3.9797431324492298
 31
0.0
  0
LINE
  5
72A7
  8
0
 10
99.429291265405837
 20
-3.9822922265964209
 30
0.0
 11
99.4124393890306521
 21
-3.9842559505106512
 31
0.0
  0
LINE
  5
72A8
  8
0
 10
99.4328357368499951
 20
-3.9831759625826
 30
0.0
 11
99.4115403613237731
 21
-3.9878617532950571
 31
0.0
  0
LINE
  5
72A9
  8
0
 10
99.4115403613237731
 20
-3.9878617532950571
 30
0.0
 11
99.4112955871608364
 21
-3.988843489028632
 31
0.0
  0
LINE
  5
72AA
  8
0
 10
99.4112955871608364
 20
-3.988843489028632
 30
0.0
 11
99.424919050922
 21
-3.986655520929411
 31
0.0
  0
LINE
  5
72AB
  8
0
 10
99.4301298482566835
 20
-3.983771360711295
 30
0.0
 11
99.4296330115947313
 21
-3.985764063516783
 31
0.0
  0
ARC
  5
72AC
  8
0
 10
102.635844593012294
 20
-3.1920485416292408
 30
0.0
 40
0.4122070075907612
 50
163.7965847824463879
 51
179.0646994776296879
  0
LINE
  5
72DB
  8
0
 10
99.5500433825124134
 20
-1.806578460185648
 30
0.0
 11
101.9118794077532044
 21
-1.806578460185648
 31
0.0
  0
ARC
  5
72DC
  8
0
 10
101.8624168148851936
 20
-5.5196018534863551
 30
0.0
 40
3.7133528336654882
 50
77.9292177092147256
 51
89.2367863347012502
  0
ARC
  5
72DD
  8
0
 10
102.5412075393226985
 20
-2.3142802559640501
 30
0.0
 40
0.4370007742776802
 50
11.1019982877488097
 51
77.0751354751624262
  0
ARC
  5
72DE
  8
0
 10
101.0142614986849026
 20
-2.6434535891724691
 30
0.0
 40
1.998966060171979
 50
359.054123312786885
 51
11.9329665808361298
  0
ARC
  5
72DF
  8
0
 10
301.4462831673095025
 20
-2.9551080088381818
 30
0.0
 40
198.4335236522971115
 50
179.9195408197413997
 51
180.0344128723608037
  0
ARC
  5
72E0
  8
0
 10
101.9811843457994058
 20
-4.5131868375071438
 30
0.0
 40
1.106733948011319
 50
46.2457067666595165
 51
87.8748484092644162
  0
ARC
  5
72E1
  8
0
 10
101.4411213699070942
 20
-4.603382115568988
 30
0.0
 40
1.5797393855282289
 50
3.366713085177047
 51
34.2727116374984604
  0
LINE
  5
72E2
  8
0
 10
103.0181343060729944
 20
-4.51060967702014
 30
0.0
 11
103.0272829432630033
 21
-7.3506742736379733
 31
0.0
  0
ENDSEC
  0
EOF
