  0
SECTION
  2
HEADER
  9
$ACADVER
  1
AC1009
  9
$INSBASE
 10
103.0467192771132972
 20
-8.8659895571839531
 30
0.0
  9
$EXTMIN
 10
102.0537209923438979
 20
-13.6084895571839493
 30
0.0
  9
$EXTMAX
 10
104.0397175618825969
 20
-7.9140020095978576
 30
0.0
  9
$LIMMIN
 10
0.0
 20
0.0
  9
$LIMMAX
 10
11.6929133858000007
 20
8.2677165353999982
  9
$ORTHOMODE
 70
     0
  9
$REGENMODE
 70
     1
  9
$FILLMODE
 70
     1
  9
$QTEXTMODE
 70
     0
  9
$MIRRTEXT
 70
     0
  9
$DRAGMODE
 70
     2
  9
$LTSCALE
 40
0.6431102362
  9
$OSMODE
 70
  3839
  9
$ATTMODE
 70
     1
  9
$TEXTSIZE
 40
0.2
  9
$TRACEWID
 40
0.05
  9
$TEXTSTYLE
  7
STANDARD
  9
$CLAYER
  8
0
  9
$CELTYPE
  6
BYLAYER
  9
$CECOLOR
 62
   256
  9
$DIMSCALE
 40
1.0
  9
$DIMASZ
 40
0.1875
  9
$DIMEXO
 40
0.0625
  9
$DIMDLI
 40
0.4443307087
  9
$DIMRND
 40
0.0
  9
$DIMDLE
 40
0.0
  9
$DIMEXE
 40
0.125
  9
$DIMTP
 40
0.01
  9
$DIMTM
 40
0.01
  9
$DIMTXT
 40
1.0
  9
$DIMCEN
 40
0.1052362205
  9
$DIMTSZ
 40
0.0
  9
$DIMTOL
 70
     1
  9
$DIMLIM
 70
     0
  9
$DIMTIH
 70
     1
  9
$DIMTOH
 70
     1
  9
$DIMSE1
 70
     0
  9
$DIMSE2
 70
     0
  9
$DIMTAD
 70
     0
  9
$DIMZIN
 70
     0
  9
$DIMBLK
  1

  9
$DIMASO
 70
     1
  9
$DIMSHO
 70
     1
  9
$DIMPOST
  1
\X
  9
$DIMAPOST
  1

  9
$DIMALT
 70
     1
  9
$DIMALTD
 70
     2
  9
$DIMALTF
 40
25.3999999999999986
  9
$DIMLFAC
 40
1.0
  9
$DIMTOFL
 70
     0
  9
$DIMTVP
 40
0.0
  9
$DIMTIX
 70
     0
  9
$DIMSOXD
 70
     0
  9
$DIMSAH
 70
     0
  9
$DIMBLK1
  1

  9
$DIMBLK2
  1

  9
$DIMSTYLE
  2
STANDARD
  9
$DIMCLRD
 70
     0
  9
$DIMCLRE
 70
     0
  9
$DIMCLRT
 70
     0
  9
$DIMTFAC
 40
1.0
  9
$DIMGAP
 40
0.09
  9
$LUNITS
 70
     2
  9
$LUPREC
 70
     4
  9
$SKETCHINC
 40
0.1
  9
$FILLETRAD
 40
0.0
  9
$AUNITS
 70
     0
  9
$AUPREC
 70
     0
  9
$MENU
  1
.
  9
$ELEVATION
 40
0.0
  9
$PELEVATION
 40
0.0
  9
$THICKNESS
 40
0.0
  9
$LIMCHECK
 70
     0
  9
$BLIPMODE
 70
     0
  9
$CHAMFERA
 40
0.0
  9
$CHAMFERB
 40
0.0
  9
$SKPOLY
 70
     0
  9
$TDCREATE
 40
2458172.4620254631154239
  9
$TDUPDATE
 40
2459097.6355208340100944
  9
$TDINDWG
 40
0.0932003819
  9
$TDUSRTIMER
 40
0.0932003819
  9
$USRTIMER
 70
     1
  9
$ANGBASE
 50
0.0
  9
$ANGDIR
 70
     0
  9
$PDMODE
 70
     0
  9
$PDSIZE
 40
0.3125
  9
$PLINEWID
 40
0.0
  9
$COORDS
 70
     1
  9
$SPLFRAME
 70
     0
  9
$SPLINETYPE
 70
     6
  9
$SPLINESEGS
 70
     8
  9
$ATTDIA
 70
     1
  9
$ATTREQ
 70
     1
  9
$HANDLING
 70
     1
  9
$HANDSEED
  5
73B5
  9
$SURFTAB1
 70
     6
  9
$SURFTAB2
 70
     6
  9
$SURFTYPE
 70
     6
  9
$SURFU
 70
     6
  9
$SURFV
 70
     6
  9
$UCSNAME
  2

  9
$UCSORG
 10
0.0
 20
0.0
 30
0.0
  9
$UCSXDIR
 10
1.0
 20
0.0
 30
0.0
  9
$UCSYDIR
 10
0.0
 20
1.0
 30
0.0
  9
$PUCSNAME
  2

  9
$PUCSORG
 10
0.0
 20
0.0
 30
0.0
  9
$PUCSXDIR
 10
1.0
 20
0.0
 30
0.0
  9
$PUCSYDIR
 10
0.0
 20
1.0
 30
0.0
  9
$USERI1
 70
     0
  9
$USERI2
 70
     0
  9
$USERI3
 70
     0
  9
$USERI4
 70
     0
  9
$USERI5
 70
     0
  9
$USERR1
 40
0.0
  9
$USERR2
 40
0.0
  9
$USERR3
 40
0.0
  9
$USERR4
 40
0.0
  9
$USERR5
 40
0.0
  9
$WORLDVIEW
 70
     1
  9
$SHADEDGE
 70
     3
  9
$SHADEDIF
 70
    70
  9
$TILEMODE
 70
     1
  9
$MAXACTVP
 70
    64
  9
$PLIMCHECK
 70
     0
  9
$PEXTMIN
 10
1.0000000000000000E+20
 20
1.0000000000000000E+20
 30
1.0000000000000000E+20
  9
$PEXTMAX
 10
-1.0000000000000000E+20
 20
-1.0000000000000000E+20
 30
-1.0000000000000000E+20
  9
$PLIMMIN
 10
0.0
 20
0.0
  9
$PLIMMAX
 10
12.0
 20
9.0
  9
$UNITMODE
 70
     0
  9
$VISRETAIN
 70
     1
  9
$PLINEGEN
 70
     0
  9
$PSLTSCALE
 70
     1
  0
ENDSEC
  0
SECTION
  2
TABLES
  0
TABLE
  2
VPORT
 70
     1
  0
VPORT
  2
*ACTIVE
 70
     0
 10
0.0
 20
0.0
 11
1.0
 21
1.0
 12
0.0
 22
0.0
 13
0.0
 23
0.0
 14
1.0
 24
1.0
 15
0.0
 25
0.0
 16
0.0
 26
0.0
 36
25.0173396156182086
 17
103.0467185974120952
 27
-10.7586815357208199
 37
0.0
 40
6.0260272330466673
 41
3.314341846758349
 42
50.0
 43
0.0
 44
0.0
 50
0.0
 51
0.0
 71
     0
 72
   100
 73
     1
 74
     1
 75
     0
 76
     0
 77
     0
 78
     0
  0
ENDTAB
  0
TABLE
  2
LTYPE
 70
     2
  0
LTYPE
  2
CONTINUOUS
 70
     0
  3
Solid line
 72
    65
 73
     0
 40
0.0
  0
LTYPE
  2
PHANTOM2
 70
     0
  3
___ _ _ ___ _ _ ___ _ _ ___ _ _
 72
    65
 73
     6
 40
1.25
 49
0.625
 49
-0.125
 49
0.125
 49
-0.125
 49
0.125
 49
-0.125
  0
ENDTAB
  0
TABLE
  2
LAYER
 70
     2
  0
LAYER
  2
0
 70
     0
 62
   255
  6
CONTINUOUS
  0
LAYER
  2
DEFPOINTS
 70
     0
 62
     7
  6
CONTINUOUS
  0
ENDTAB
  0
TABLE
  2
STYLE
 70
     1
  0
STYLE
  2
STANDARD
 70
     0
 40
0.0
 41
0.8
 50
0.0
 71
     0
 42
0.2
  3
txt
  4

  0
ENDTAB
  0
TABLE
  2
VIEW
 70
     0
  0
ENDTAB
  0
TABLE
  2
UCS
 70
     0
  0
ENDTAB
  0
TABLE
  2
APPID
 70
     9
  0
APPID
  2
ACAD
 70
     0
  0
APPID
  2
ACAD_MLEADERVER
 70
     0
  0
APPID
  2
ACAD_EXEMPT_FROM_CAD_STANDARDS
 70
     0
  0
APPID
  2
ACAD_DSTYLE_DIMJAG
 70
     0
  0
APPID
  2
ACAD_DSTYLE_DIMTALN
 70
     0
  0
APPID
  2
ACAD_NAV_VCDISPLAY
 70
     0
  0
APPID
  2
ACAECLAYERSTANDARD
 70
     0
  0
APPID
  2
ACCMTRANSPARENCY
 70
     0
  0
APPID
  2
ACDBATTR
 70
     0
  0
ENDTAB
  0
TABLE
  2
DIMSTYLE
 70
     1
  0
DIMSTYLE
  2
STANDARD
 70
     0
  3

  4

  5

  6

  7

 40
1.0
 41
0.1875
 42
0.0625
 43
0.38
 44
0.125
 45
0.0
 46
0.0
 47
0.01
 48
0.01
140
0.15625
141
0.09
142
0.0
143
25.3999999999999986
144
1.0
145
0.0
146
1.0
147
0.09
 71
     1
 72
     0
 73
     1
 74
     1
 75
     0
 76
     0
 77
     0
 78
     4
170
     0
171
     2
172
     0
173
     0
174
     0
175
     0
176
     0
177
     0
178
     0
  0
ENDTAB
  0
ENDSEC
  0
SECTION
  2
BLOCKS
  0
BLOCK
  8
0
  2
$MODEL_SPACE
 70
     0
 10
0.0
 20
0.0
 30
0.0
  3
$MODEL_SPACE
  1

  0
ENDBLK
  5
21
  8
0
  0
BLOCK
 67
     1
  8
0
  2
$PAPER_SPACE
 70
     0
 10
0.0
 20
0.0
 30
0.0
  3
$PAPER_SPACE
  1

  0
ENDBLK
  5
1D
 67
     1
  8
0
  0
BLOCK
  8
0
  2
_FILLED
 70
     0
 10
0.0
 20
0.0
 30
0.0
  3
_FILLED
  1

  0
SOLID
  5
3BD9
  8
0
  6
BYBLOCK
 62
     0
 10
0.0
 20
0.0
 30
0.0
 11
-1.0
 21
0.1666666667
 31
0.0
 12
-1.0
 22
-0.1666666667
 32
0.0
 13
-1.0
 23
-0.1666666667
 33
0.0
  0
ENDBLK
  5
3BDA
  8
0
  6
BYBLOCK
 62
     0
  0
BLOCK
  8
0
  2
A$C226D500F
 70
     2
 10
0.0
 20
0.0
 30
0.0
  3
A$C226D500F
  1

  0
ATTDEF
  5
564D
  8
DEFPOINTS
 10
0.000291919742196
 20
0.0005288174062983
 30
0.0
 40
0.001
  1
BATHROOM SINK FAUCET
  3

  2
PRODUCT
 70
     0
1001
ACDBATTR
1070
     0
1070
     1
  0
ATTDEF
  5
564E
  8
DEFPOINTS
 10
0.000291919742196
 20
0.0021954840729634
 30
0.0
 40
0.001
  1
ALEO
  3

  2
TRADENAME
 70
     0
1001
ACDBATTR
1070
     0
1070
     1
  0
ATTDEF
  5
564F
  8
DEFPOINTS
 10
0.000291919742196
 20
0.0038621507396286
 30
0.0
 40
0.001
  1
K-98868T-4
  3

  2
MODELNUMBER
 70
     0
1001
ACDBATTR
1070
     0
1070
     1
  0
ENDBLK
  5
5653
  8
0
  0
BLOCK
  8
0
  2
A$C393A5527
 70
     2
 10
0.0
 20
0.0
 30
0.0
  3
A$C393A5527
  1

  0
ATTDEF
  5
5655
  8
DEFPOINTS
 10
0.0000000879847164
 20
-0.0000001116000696
 30
0.0
 40
0.001
  1
BATHROOM SINK FAUCET
  3

  2
PRODUCT
 70
     0
1001
ACDBATTR
1070
     0
1070
     1
  0
ATTDEF
  5
5656
  8
DEFPOINTS
 10
0.0000000879847164
 20
0.0016665550665955
 30
0.0
 40
0.001
  1
ALEO
  3

  2
TRADENAME
 70
     0
1001
ACDBATTR
1070
     0
1070
     1
  0
ATTDEF
  5
5657
  8
DEFPOINTS
 10
0.0000000879847164
 20
0.0033332217332607
 30
0.0
 40
0.001
  1
K-98868T-4
  3

  2
MODELNUMBER
 70
     0
1001
ACDBATTR
1070
     0
1070
     1
  0
ENDBLK
  5
565B
  8
0
  0
ENDSEC
  0
SECTION
  2
ENTITIES
  0
ATTDEF
  5
383D
  8
DEFPOINTS
 10
103.0469020818081987
 20
-8.8671174480618422
 30
0.0
 40
0.001
  1
K-72275IN-4ND
  3

  2
MODELNUMBER
 70
     0
1001
ACDBATTR
1070
     0
1070
     1
  0
ATTDEF
  5
383E
  8
DEFPOINTS
 10
103.0469020818081987
 20
-8.8687841147285091
 30
0.0
 40
0.001
  1
ALEO
  3

  2
TRADENAME
 70
     0
1001
ACDBATTR
1070
     0
1070
     1
  0
ATTDEF
  5
383F
  8
DEFPOINTS
 10
103.0469020818081987
 20
-8.8704507813951743
 30
0.0
 40
0.001
  1
BATHROOM SINK FAUCET
  3

  2
PRODUCT
 70
     0
1001
ACDBATTR
1070
     0
1070
     1
  0
ARC
  5
70B2
  8
0
 10
102.8863796978114067
 20
-8.9662691957819476
 30
0.0
 40
1.1534860272181819
 50
0.9183457215649264
 51
34.8530605359379635
  0
ARC
  5
70B3
  8
0
 10
-211.0631261452435012
 20
6.5666032300897959
 30
0.0
 40
315.4845451889748915
 50
356.5086534592892917
 51
357.1812646257902202
  0
ARC
  5
70B4
  8
0
 10
97.6495907417719167
 20
-12.3297463524200097
 30
0.0
 40
6.1943548222992977
 50
352.7397222120411016
 51
357.076187226740501
  0
ARC
  5
70B5
  8
0
 10
102.8567799114947974
 20
-12.9871514732569597
 30
0.0
 40
0.9458531393847021
 50
340.6551004679938046
 51
352.3802476431284845
  0
ARC
  5
70B6
  8
0
 10
103.3770182635434054
 20
-13.16192993871271
 30
0.0
 40
0.3971598583872093
 50
316.7031655538017958
 51
339.5845695243394857
  0
ARC
  5
70B7
  8
0
 10
103.3243131803093036
 20
-13.1125690082620601
 30
0.0
 40
0.4693698772591059
 50
287.129728895527478
 51
316.7298479301956036
  0
ARC
  5
70B8
  8
0
 10
103.1794109973101001
 20
-12.6699654339704999
 30
0.0
 40
0.935053823071258
 50
273.4127489447034804
 51
287.6267756965128797
  0
ARC
  5
70B9
  8
0
 10
103.1871601816901034
 20
-11.3234604118993403
 30
0.0
 40
1.182567951217433
 50
272.1018284586716049
 51
283.3495747707304986
  0
ARC
  5
70BA
  8
0
 10
103.3224123080131989
 20
-11.9077170895181101
 30
0.0
 40
0.5828789687444611
 50
283.67420230458589
 51
300.5635454614101718
  0
ARC
  5
70BB
  8
0
 10
103.4091068071325026
 20
-12.0561564445975709
 30
0.0
 40
0.4109801631534254
 50
300.6793707556689128
 51
321.526348562734313
  0
ARC
  5
70BC
  8
0
 10
103.3071928407692042
 20
-11.9913669633891704
 30
0.0
 40
0.5312285323609593
 50
322.8943991623115153
 51
345.4980005565078045
  0
ARC
  5
70BD
  8
0
 10
101.9631374182777961
 20
-11.6937812108877708
 30
0.0
 40
1.9075962246322491
 50
346.9538521647565972
 51
355.487626133527101
  0
ARC
  5
70BE
  8
0
 10
879.2454342446475266
 20
-55.155640114871467
 30
0.0
 40
776.58934192875995
 50
176.5897177142479961
 51
176.8028527385276902
  0
ARC
  5
70BF
  8
0
 10
102.8104643672622984
 20
-8.9151346462154262
 30
0.0
 40
1.2216542213400601
 50
357.9036874657826957
 51
6.4454978389375359
  0
ARC
  5
70C6
  8
0
 10
417.1565647012021145
 20
6.5666032301905259
 30
0.0
 40
315.4845451907098095
 50
182.8187353742123946
 51
183.4913465407095998
  0
ARC
  5
70C7
  8
0
 10
108.4438478124547061
 20
-12.3297463524200097
 30
0.0
 40
6.1943548222992977
 50
182.9238127732594137
 51
187.2602777879588132
  0
ARC
  5
70C8
  8
0
 10
103.2366586427318964
 20
-12.9871514732569597
 30
0.0
 40
0.9458531393847021
 50
187.6197523568714018
 51
199.3448995320061954
  0
ARC
  5
70C9
  8
0
 10
102.7164202906832031
 20
-13.16192993871271
 30
0.0
 40
0.3971598583872093
 50
200.4154304756604006
 51
223.2968344461980905
  0
ARC
  5
70CA
  8
0
 10
102.769125373917305
 20
-13.1125690082620601
 30
0.0
 40
0.4693698772591059
 50
223.2701520698043112
 51
252.8702711044726072
  0
ARC
  5
70CB
  8
0
 10
102.9140275569164942
 20
-12.6699654339704999
 30
0.0
 40
0.935053823071258
 50
252.3732243034862961
 51
266.5872510552965196
  0
ARC
  5
70CC
  8
0
 10
102.9062783725365051
 20
-11.3234604118993403
 30
0.0
 40
1.182567951217433
 50
256.6504252292693877
 51
267.8981715413283951
  0
ARC
  5
70CD
  8
0
 10
102.7710262462133954
 20
-11.9077170895181101
 30
0.0
 40
0.5828789687444611
 50
239.4364545385897998
 51
256.3257976954139963
  0
ARC
  5
70CE
  8
0
 10
102.6843317470941059
 20
-12.0561564445975709
 30
0.0
 40
0.4109801631534254
 50
218.4736514372656018
 51
239.3206292443312009
  0
ARC
  5
70CF
  8
0
 10
102.7862457134574043
 20
-11.9913669633891704
 30
0.0
 40
0.5312285323609593
 50
194.5019994434921955
 51
217.1056008376885131
  0
ARC
  5
70D0
  8
0
 10
104.1303011359487982
 20
-11.6937812108877708
 30
0.0
 40
1.9075962246322491
 50
184.5123738664728137
 51
193.0461478352434028
  0
ARC
  5
70D1
  8
0
 10
-673.1519956904206765
 20
-55.155640114871467
 30
0.0
 40
776.58934192875995
 50
3.1971472614722631
 51
3.4102822857520101
  0
ARC
  5
70D2
  8
0
 10
103.2829741869643954
 20
-8.9151346462154262
 30
0.0
 40
1.221654221340067
 50
173.5545021610626009
 51
182.0963125342173043
  0
ARC
  5
70D3
  8
0
 10
103.0467192771132972
 20
-10.1471042227345798
 30
0.0
 40
3.461385334449373
 50
266.8806634002643818
 51
273.1193365997356182
  0
ARC
  5
70D4
  8
0
 10
103.0467192771132972
 20
-8.2982997072326548
 30
0.0
 40
4.2109467660646986
 50
267.4981835119849052
 51
272.5018164880150948
  0
ARC
  5
70D5
  8
0
 10
103.0467192771132972
 20
-8.8968507665857608
 30
0.0
 40
0.9828487569879026
 50
36.8742210697545332
 51
143.1257789302453887
  0
ARC
  5
70D7
  8
0
 10
103.2070588564152018
 20
-8.9662691957819476
 30
0.0
 40
1.1534860272181819
 50
145.146939464062001
 51
179.08165427843511
  0
ENDSEC
  0
EOF
