  0
SECTION
  2
HEADER
  9
$ACADVER
  1
AC1009
  9
$INSBASE
 10
117.3791258491599052
 20
-20.1959330416613412
 30
0.0
  9
$EXTMIN
 10
112.7907659314280977
 20
-20.2010445164978591
 30
0.0
  9
$EXTMAX
 10
118.4875313270099042
 20
-14.5837290601723009
 30
0.0
  9
$LIMMIN
 10
0.0
 20
0.0
  9
$LIMMAX
 10
11.6929133858000007
 20
8.2677165353999982
  9
$ORTHOMODE
 70
     0
  9
$REGENMODE
 70
     1
  9
$FILLMODE
 70
     1
  9
$QTEXTMODE
 70
     0
  9
$MIRRTEXT
 70
     0
  9
$DRAGMODE
 70
     2
  9
$LTSCALE
 40
0.6431102362
  9
$OSMODE
 70
  4095
  9
$ATTMODE
 70
     1
  9
$TEXTSIZE
 40
0.2
  9
$TRACEWID
 40
0.05
  9
$TEXTSTYLE
  7
STANDARD
  9
$CLAYER
  8
0
  9
$CELTYPE
  6
BYLAYER
  9
$CECOLOR
 62
   256
  9
$DIMSCALE
 40
1.0
  9
$DIMASZ
 40
0.1875
  9
$DIMEXO
 40
0.0625
  9
$DIMDLI
 40
0.4443307087
  9
$DIMRND
 40
0.0
  9
$DIMDLE
 40
0.0
  9
$DIMEXE
 40
0.125
  9
$DIMTP
 40
0.01
  9
$DIMTM
 40
0.01
  9
$DIMTXT
 40
1.0
  9
$DIMCEN
 40
0.1052362205
  9
$DIMTSZ
 40
0.0
  9
$DIMTOL
 70
     1
  9
$DIMLIM
 70
     0
  9
$DIMTIH
 70
     1
  9
$DIMTOH
 70
     1
  9
$DIMSE1
 70
     0
  9
$DIMSE2
 70
     0
  9
$DIMTAD
 70
     0
  9
$DIMZIN
 70
     0
  9
$DIMBLK
  1

  9
$DIMASO
 70
     1
  9
$DIMSHO
 70
     1
  9
$DIMPOST
  1
\X
  9
$DIMAPOST
  1

  9
$DIMALT
 70
     1
  9
$DIMALTD
 70
     2
  9
$DIMALTF
 40
25.3999999999999986
  9
$DIMLFAC
 40
1.0
  9
$DIMTOFL
 70
     0
  9
$DIMTVP
 40
0.0
  9
$DIMTIX
 70
     0
  9
$DIMSOXD
 70
     0
  9
$DIMSAH
 70
     0
  9
$DIMBLK1
  1

  9
$DIMBLK2
  1

  9
$DIMSTYLE
  2
STANDARD
  9
$DIMCLRD
 70
     0
  9
$DIMCLRE
 70
     0
  9
$DIMCLRT
 70
     0
  9
$DIMTFAC
 40
1.0
  9
$DIMGAP
 40
0.09
  9
$LUNITS
 70
     2
  9
$LUPREC
 70
     4
  9
$SKETCHINC
 40
0.1
  9
$FILLETRAD
 40
0.0
  9
$AUNITS
 70
     0
  9
$AUPREC
 70
     0
  9
$MENU
  1
.
  9
$ELEVATION
 40
0.0
  9
$PELEVATION
 40
0.0
  9
$THICKNESS
 40
0.0
  9
$LIMCHECK
 70
     0
  9
$BLIPMODE
 70
     0
  9
$CHAMFERA
 40
0.0
  9
$CHAMFERB
 40
0.0
  9
$SKPOLY
 70
     0
  9
$TDCREATE
 40
2458172.4620254631154239
  9
$TDUPDATE
 40
2459120.865115740802139
  9
$TDINDWG
 40
0.1455614931
  9
$TDUSRTIMER
 40
0.1455614931
  9
$USRTIMER
 70
     1
  9
$ANGBASE
 50
0.0
  9
$ANGDIR
 70
     0
  9
$PDMODE
 70
     0
  9
$PDSIZE
 40
0.3125
  9
$PLINEWID
 40
0.0
  9
$COORDS
 70
     1
  9
$SPLFRAME
 70
     0
  9
$SPLINETYPE
 70
     6
  9
$SPLINESEGS
 70
     8
  9
$ATTDIA
 70
     1
  9
$ATTREQ
 70
     1
  9
$HANDLING
 70
     1
  9
$HANDSEED
  5
8705
  9
$SURFTAB1
 70
     6
  9
$SURFTAB2
 70
     6
  9
$SURFTYPE
 70
     6
  9
$SURFU
 70
     6
  9
$SURFV
 70
     6
  9
$UCSNAME
  2

  9
$UCSORG
 10
0.0
 20
0.0
 30
0.0
  9
$UCSXDIR
 10
1.0
 20
0.0
 30
0.0
  9
$UCSYDIR
 10
0.0
 20
1.0
 30
0.0
  9
$PUCSNAME
  2

  9
$PUCSORG
 10
0.0
 20
0.0
 30
0.0
  9
$PUCSXDIR
 10
1.0
 20
0.0
 30
0.0
  9
$PUCSYDIR
 10
0.0
 20
1.0
 30
0.0
  9
$USERI1
 70
     0
  9
$USERI2
 70
     0
  9
$USERI3
 70
     0
  9
$USERI4
 70
     0
  9
$USERI5
 70
     0
  9
$USERR1
 40
0.0
  9
$USERR2
 40
0.0
  9
$USERR3
 40
0.0
  9
$USERR4
 40
0.0
  9
$USERR5
 40
0.0
  9
$WORLDVIEW
 70
     1
  9
$SHADEDGE
 70
     3
  9
$SHADEDIF
 70
    70
  9
$TILEMODE
 70
     1
  9
$MAXACTVP
 70
    64
  9
$PLIMCHECK
 70
     0
  9
$PEXTMIN
 10
1.0000000000000000E+20
 20
1.0000000000000000E+20
 30
1.0000000000000000E+20
  9
$PEXTMAX
 10
-1.0000000000000000E+20
 20
-1.0000000000000000E+20
 30
-1.0000000000000000E+20
  9
$PLIMMIN
 10
0.0
 20
0.0
  9
$PLIMMAX
 10
12.0
 20
9.0
  9
$UNITMODE
 70
     0
  9
$VISRETAIN
 70
     1
  9
$PLINEGEN
 70
     0
  9
$PSLTSCALE
 70
     1
  0
ENDSEC
  0
SECTION
  2
TABLES
  0
TABLE
  2
VPORT
 70
     1
  0
VPORT
  2
*ACTIVE
 70
     0
 10
0.0
 20
0.0
 11
1.0
 21
1.0
 12
0.0
 22
0.0
 13
0.0
 23
0.0
 14
1.0
 24
1.0
 15
0.0
 25
0.0
 16
0.0
 26
0.0
 36
28.953068073550849
 17
115.6391525268554972
 27
-17.3923866533905311
 37
0.0
 40
8.0004583756574235
 41
2.8398203592814371
 42
50.0
 43
0.0
 44
0.0
 50
0.0
 51
0.0
 71
     0
 72
   100
 73
     1
 74
     1
 75
     0
 76
     0
 77
     0
 78
     0
  0
ENDTAB
  0
TABLE
  2
LTYPE
 70
     2
  0
LTYPE
  2
CONTINUOUS
 70
     0
  3
Solid line
 72
    65
 73
     0
 40
0.0
  0
LTYPE
  2
PHANTOM2
 70
     0
  3
___ _ _ ___ _ _ ___ _ _ ___ _ _
 72
    65
 73
     6
 40
1.25
 49
0.625
 49
-0.125
 49
0.125
 49
-0.125
 49
0.125
 49
-0.125
  0
ENDTAB
  0
TABLE
  2
LAYER
 70
     2
  0
LAYER
  2
0
 70
     0
 62
   255
  6
CONTINUOUS
  0
LAYER
  2
DEFPOINTS
 70
     0
 62
     7
  6
CONTINUOUS
  0
ENDTAB
  0
TABLE
  2
STYLE
 70
     1
  0
STYLE
  2
STANDARD
 70
     0
 40
0.0
 41
0.8
 50
0.0
 71
     0
 42
0.2
  3
txt
  4

  0
ENDTAB
  0
TABLE
  2
VIEW
 70
     0
  0
ENDTAB
  0
TABLE
  2
UCS
 70
     0
  0
ENDTAB
  0
TABLE
  2
APPID
 70
     9
  0
APPID
  2
ACAD
 70
     0
  0
APPID
  2
ACAD_MLEADERVER
 70
     0
  0
APPID
  2
ACAD_EXEMPT_FROM_CAD_STANDARDS
 70
     0
  0
APPID
  2
ACAD_DSTYLE_DIMJAG
 70
     0
  0
APPID
  2
ACAD_DSTYLE_DIMTALN
 70
     0
  0
APPID
  2
ACAD_NAV_VCDISPLAY
 70
     0
  0
APPID
  2
ACAECLAYERSTANDARD
 70
     0
  0
APPID
  2
ACCMTRANSPARENCY
 70
     0
  0
APPID
  2
ACDBATTR
 70
     0
  0
ENDTAB
  0
TABLE
  2
DIMSTYLE
 70
     1
  0
DIMSTYLE
  2
STANDARD
 70
     0
  3

  4

  5

  6

  7

 40
1.0
 41
0.1875
 42
0.0625
 43
0.38
 44
0.125
 45
0.0
 46
0.0
 47
0.01
 48
0.01
140
0.15625
141
0.09
142
0.0
143
25.3999999999999986
144
1.0
145
0.0
146
1.0
147
0.09
 71
     1
 72
     0
 73
     1
 74
     1
 75
     0
 76
     0
 77
     0
 78
     4
170
     0
171
     2
172
     0
173
     0
174
     0
175
     0
176
     0
177
     0
178
     0
  0
ENDTAB
  0
ENDSEC
  0
SECTION
  2
BLOCKS
  0
BLOCK
  8
0
  2
$MODEL_SPACE
 70
     0
 10
0.0
 20
0.0
 30
0.0
  3
$MODEL_SPACE
  1

  0
ENDBLK
  5
21
  8
0
  0
BLOCK
 67
     1
  8
0
  2
$PAPER_SPACE
 70
     0
 10
0.0
 20
0.0
 30
0.0
  3
$PAPER_SPACE
  1

  0
ENDBLK
  5
1D
 67
     1
  8
0
  0
BLOCK
  8
0
  2
_FILLED
 70
     0
 10
0.0
 20
0.0
 30
0.0
  3
_FILLED
  1

  0
SOLID
  5
3BD9
  8
0
  6
BYBLOCK
 62
     0
 10
0.0
 20
0.0
 30
0.0
 11
-1.0
 21
0.1666666667
 31
0.0
 12
-1.0
 22
-0.1666666667
 32
0.0
 13
-1.0
 23
-0.1666666667
 33
0.0
  0
ENDBLK
  5
3BDA
  8
0
  6
BYBLOCK
 62
     0
  0
BLOCK
  8
0
  2
A$C226D500F
 70
     2
 10
0.0
 20
0.0
 30
0.0
  3
A$C226D500F
  1

  0
ATTDEF
  5
564D
  8
DEFPOINTS
 10
0.000291919742196
 20
0.0005288174062983
 30
0.0
 40
0.001
  1
BATHROOM SINK FAUCET
  3

  2
PRODUCT
 70
     0
1001
ACDBATTR
1070
     0
1070
     1
  0
ATTDEF
  5
564E
  8
DEFPOINTS
 10
0.000291919742196
 20
0.0021954840729634
 30
0.0
 40
0.001
  1
ALEO
  3

  2
TRADENAME
 70
     0
1001
ACDBATTR
1070
     0
1070
     1
  0
ATTDEF
  5
564F
  8
DEFPOINTS
 10
0.000291919742196
 20
0.0038621507396286
 30
0.0
 40
0.001
  1
K-98868T-4
  3

  2
MODELNUMBER
 70
     0
1001
ACDBATTR
1070
     0
1070
     1
  0
ENDBLK
  5
5653
  8
0
  0
BLOCK
  8
0
  2
A$C393A5527
 70
     2
 10
0.0
 20
0.0
 30
0.0
  3
A$C393A5527
  1

  0
ATTDEF
  5
5655
  8
DEFPOINTS
 10
0.0000000879847164
 20
-0.0000001116000696
 30
0.0
 40
0.001
  1
BATHROOM SINK FAUCET
  3

  2
PRODUCT
 70
     0
1001
ACDBATTR
1070
     0
1070
     1
  0
ATTDEF
  5
5656
  8
DEFPOINTS
 10
0.0000000879847164
 20
0.0016665550665955
 30
0.0
 40
0.001
  1
ALEO
  3

  2
TRADENAME
 70
     0
1001
ACDBATTR
1070
     0
1070
     1
  0
ATTDEF
  5
5657
  8
DEFPOINTS
 10
0.0000000879847164
 20
0.0033332217332607
 30
0.0
 40
0.001
  1
K-98868T-4
  3

  2
MODELNUMBER
 70
     0
1001
ACDBATTR
1070
     0
1070
     1
  0
ENDBLK
  5
565B
  8
0
  0
ENDSEC
  0
SECTION
  2
ENTITIES
  0
ATTDEF
  5
383D
  8
DEFPOINTS
 10
117.3681485139878049
 20
-20.1977111831645288
 30
0.0
 40
0.001
  1
K-72275AR-4ND
  3

  2
MODELNUMBER
 70
     0
1001
ACDBATTR
1070
     0
1070
     1
  0
ATTDEF
  5
383E
  8
DEFPOINTS
 10
117.3681485139878049
 20
-20.1993778498312011
 30
0.0
 40
0.001
  1
ALEO
  3

  2
TRADENAME
 70
     0
1001
ACDBATTR
1070
     0
1070
     1
  0
ATTDEF
  5
383F
  8
DEFPOINTS
 10
117.3681485139878049
 20
-20.2010445164978591
 30
0.0
 40
0.001
  1
BATHROOM SINK FAUCET
  3

  2
PRODUCT
 70
     0
1001
ACDBATTR
1070
     0
1070
     1
  0
LINE
  5
7961
  8
0
 10
118.4875313270099042
 20
-20.1959330416613412
 30
0.0
 11
116.2707203713099062
 21
-20.1959330416613412
 31
0.0
  0
LINE
  5
7962
  8
0
 10
116.4972111425098973
 20
-15.9276259550613393
 30
0.0
 11
117.3198111583099035
 21
-15.9276259550613393
 31
0.0
  0
LINE
  5
7963
  8
0
 10
113.9125542207679018
 20
-14.5837290601723009
 30
0.0
 11
118.4392871985269977
 21
-14.5837290601723009
 31
0.0
  0
LINE
  5
7964
  8
0
 10
115.8840256698266984
 20
-16.2328341307956485
 30
0.0
 11
112.8546417390797956
 21
-16.2328341307956485
 31
0.0
  0
LINE
  5
7967
  8
0
 10
118.4875313270099042
 20
-20.1959330416613412
 30
0.0
 11
118.4875313270099042
 21
-17.9633036871613392
 31
0.0
  0
LINE
  5
7968
  8
0
 10
118.4875313270099042
 20
-17.9633036871613392
 30
0.0
 11
118.4875313270099042
 21
-16.0620747740613403
 31
0.0
  0
LINE
  5
7969
  8
0
 10
112.8222461161136039
 20
-16.0305787109613291
 30
0.0
 11
118.4561988779177995
 21
-16.0305787109613291
 31
0.0
  0
ARC
  5
796A
  8
0
 10
118.4560200242525951
 20
-16.0620895095860305
 30
0.0
 40
0.0315113062026886
 50
0.0267930310172787
 51
89.6747956075767689
  0
LINE
  5
796B
  8
0
 10
116.2707203713099062
 20
-20.1959330416613412
 30
0.0
 11
116.2706628485374978
 21
-18.12078400216134
 31
0.0
  0
ARC
  5
796C
  8
0
 10
106.1790543849320017
 20
-18.1210637398025405
 30
0.0
 40
10.0916084674825992
 50
0.0015882290979176
 51
3.4590908752915119
  0
ARC
  5
796D
  8
0
 10
115.2906899438832937
 20
-17.5764921740422402
 30
0.0
 40
0.9637357163689845
 50
3.8264404539078338
 51
29.7779018044719912
  0
ARC
  5
796E
  8
0
 10
115.4612268678582012
 20
-17.5213609890714999
 30
0.0
 40
0.7891971784403851
 50
32.4537392246604881
 51
72.4870158514045642
  0
ARC
  5
796F
  8
0
 10
115.2717644290386971
 20
-18.1514984533477701
 30
0.0
 40
1.447168027800011
 50
72.8410289336875252
 51
88.8290887846902422
  0
ARC
  5
7970
  8
0
 10
115.1841585497887053
 20
-18.8506632682797601
 30
0.0
 40
2.1492273909395991
 50
86.8746140254000068
 51
91.377949564471507
  0
LINE
  5
7971
  8
0
 10
115.132475136209905
 20
-16.7020573940613417
 30
0.0
 11
114.5468447141098949
 21
-16.7023436763613411
 31
0.0
  0
ARC
  5
7972
  8
0
 10
114.5472916991669052
 20
-17.6167140290489108
 30
0.0
 40
0.9143704619406932
 50
90.0280087331766339
 51
111.6675062604412005
  0
ARC
  5
7973
  8
0
 10
114.7096974605682931
 20
-18.0711880905878886
 30
0.0
 40
1.3967976461964231
 50
110.9754804073249943
 51
119.0942726854112976
  0
LINE
  5
7974
  8
0
 10
114.030507349409902
 20
-16.8506372078613396
 30
0.0
 11
113.0757065696051029
 21
-16.54040345696923
 31
0.0
  0
ARC
  5
7975
  8
0
 10
111.9611039139847009
 20
-17.3952498607879917
 30
0.0
 40
1.4046712975423861
 50
37.4864637917997001
 51
41.980626190793501
  0
ARC
  5
7976
  8
0
 10
113.7515796578881009
 20
-15.7888529194924008
 30
0.0
 40
1.00080814654279
 50
206.3351005968355878
 51
221.782361179549099
  0
ARC
  5
7977
  8
0
 10
113.7140289630192029
 20
-15.8074402609867395
 30
0.0
 40
0.9589089347487668
 50
195.93712232149079
 51
206.3351005968355878
  0
ARC
  5
7978
  8
0
 10
112.8222750504462937
 20
-16.0620878166945502
 30
0.0
 40
0.0315091190181882
 50
90.0526138350348475
 51
195.93712232149079
  0
LINE
  5
7991
  8
0
 10
117.3921750982099041
 20
-20.1959330416613412
 30
0.0
 11
117.3921750982099041
 21
-18.1436213963613397
 31
0.0
  0
ARC
  5
7992
  8
0
 10
102.2930901880933021
 20
-18.0760896618796814
 30
0.0
 40
15.0992359296116092
 50
359.7437422471562058
 51
2.6387177106000901
  0
ARC
  5
7993
  8
0
 10
115.858898704223293
 20
-17.4071162003425783
 30
0.0
 40
1.517643084179662
 50
0.9878849242399759
 51
30.7676338328488299
  0
ARC
  5
7994
  8
0
 10
116.3920834353631051
 20
-17.2618587916515516
 30
0.0
 40
0.9962430875573171
 50
39.3076604610850495
 51
87.2088685873528959
  0
ARC
  5
7995
  8
0
 10
115.8557548261297967
 20
-21.2734480633026983
 30
0.0
 40
5.0406932119687093
 50
83.3373150430906833
 51
89.6786536194424997
  0
ARC
  5
7996
  8
0
 10
117.0588578879456065
 20
-16.0462795607461004
 30
0.0
 40
0.4692271135638726
 50
165.3525724132483106
 51
178.0824629338989951
  0
ARC
  5
7997
  8
0
 10
117.3198111229882983
 20
-15.3370745535042197
 30
0.0
 40
0.5905514015571215
 50
270.0000034269309026
 51
288.2051101816070968
  0
LINE
  5
7998
  8
0
 10
117.569388871904593
 20
-15.8722959080502992
 30
0.0
 11
118.4612951288098941
 21
-15.4563931901613394
 31
0.0
  0
ARC
  5
7999
  8
0
 10
117.319811158309804
 20
-15.3370747739611506
 30
0.0
 40
0.5905511811002101
 50
288.2051158674128146
 51
294.9999999967088797
  0
LINE
  5
799A
  8
0
 10
118.4612951288098941
 20
-15.4563931901613394
 30
0.0
 11
118.4613130314832006
 21
-14.6087283171973006
 31
0.0
  0
ARC
  5
799B
  8
0
 10
118.4364763202559061
 20
-14.6084082744085304
 30
0.0
 40
0.02483877315756
 50
359.2617345323662903
 51
83.5022071149904122
  0
ARC
  5
799C
  8
0
 10
113.9172250612747064
 20
-14.6097277419216205
 30
0.0
 40
0.026414923882962
 50
100.1849269391377959
 51
194.4496116764532019
  0
LINE
  5
799D
  8
0
 10
113.9104874475322049
 20
-14.6518372282090201
 30
0.0
 11
116.3643945329431943
 21
-14.6518372282090201
 31
0.0
  0
ARC
  5
799E
  8
0
 10
114.0904031916100934
 20
-14.5337913172799809
 30
0.0
 40
0.2151848323051067
 50
202.5029261687483029
 51
239.6822122774588877
  0
ARC
  5
799F
  8
0
 10
114.370070791670102
 20
-13.95180382157805
 30
0.0
 40
0.8603491107094029
 50
243.171653926686389
 51
267.81930435837711
  0
ARC
  5
79A0
  8
0
 10
114.6282672338776933
 20
-11.5544891853216196
 30
0.0
 40
3.2700086216439468
 50
264.8956271287941036
 51
267.8787133899481887
  0
ARC
  5
79A1
  8
0
 10
627.5823514444896318
 20
22167.4482837785508309
 30
0.0
 40
22188.2034518901382398
 50
268.6749869291764981
 51
268.6775241904209111
  0
LINE
  5
79A2
  8
0
 10
117.3768624803096969
 20
-15.9248637168177893
 30
0.0
 11
117.3768367786098992
 21
-15.7143513937613406
 31
0.0
  0
ARC
  5
79A3
  8
0
 10
111.6780781356165022
 20
-15.6134758603075792
 30
0.0
 40
5.6996513879658721
 50
358.9858951518701815
 51
2.9210917613247118
  0
ARC
  5
79A4
  8
0
 10
116.3054872582044936
 20
-15.3583423951517393
 30
0.0
 40
1.065422257019611
 50
1.899991603401916
 51
15.6248080180988893
  0
ARC
  5
79A5
  8
0
 10
116.7907358504966027
 20
-15.2226320439682308
 30
0.0
 40
0.5615537268058468
 50
15.6248080180992801
 51
39.7565772124344008
  0
ARC
  5
79A6
  8
0
 10
116.8760048191732039
 20
-15.2145964178427793
 30
0.0
 40
0.4932385462157624
 50
45.3825649533561517
 51
77.7407722098013636
  0
ARC
  5
79A7
  8
0
 10
116.2828616857528061
 20
-17.7702763318139993
 30
0.0
 40
3.1168052876284569
 50
77.0613774046931326
 51
83.4364075347558156
  0
ARC
  5
79A8
  8
0
 10
116.1436046902237962
 20
-19.1228610645537209
 30
0.0
 40
4.4764720818754693
 50
83.6445783088136778
 51
87.1728940584944922
  0
ARC
  5
79A9
  8
0
 10
117.5488706945818933
 20
-16.1212508393565699
 30
0.0
 40
0.8725186031438045
 50
5.9649463960824409
 51
39.3980937862005902
  0
ARC
  5
79AA
  8
0
 10
147.8424005298606971
 20
-16.0515182778550383
 30
0.0
 40
31.345434229510019
 50
179.2054763459015874
 51
179.7735387667433997
  0
ARC
  5
79AB
  8
0
 10
115.4317232604400942
 20
-15.6020488634819703
 30
0.0
 40
1.0683594981146429
 50
359.2054763459012747
 51
13.2967136993607493
  0
ARC
  5
79AC
  8
0
 10
115.8296713429438967
 20
-15.5080020231809108
 30
0.0
 40
0.65944938019249
 50
13.2967136993607493
 51
43.7882183171975896
  0
ARC
  5
79AD
  8
0
 10
115.8044814693316056
 20
-15.6523070021137993
 30
0.0
 40
0.7823161787101049
 50
50.15423889141438
 51
83.6773908721161916
  0
ARC
  5
79AE
  8
0
 10
115.3775751558430045
 20
-19.0670950792779514
 30
0.0
 40
4.2236233966829788
 50
83.0228259003953752
 51
88.4809788338354082
  0
LINE
  5
79AF
  8
0
 10
113.9319791517416007
 20
-16.8186234381013904
 30
0.0
 11
113.8970703903780048
 21
-16.8260435184205086
 31
0.0
  0
LINE
  5
79B0
  8
0
 10
113.8970703903780048
 20
-16.8260435184205086
 30
0.0
 11
113.1981021618098993
 21
-16.5989246747613386
 31
0.0
  0
LINE
  5
79B1
  8
0
 10
113.1981021618098993
 20
-16.5989246747613386
 30
0.0
 11
113.1742347516299958
 21
-16.5724172216463188
 31
0.0
  0
LINE
  5
79B2
  8
0
 10
113.8471375600287985
 20
-16.8098186226011883
 30
0.0
 11
113.8079626238567954
 21
-16.9021089470765702
 31
0.0
  0
ARC
  5
79B3
  8
0
 10
113.7717222777935007
 20
-16.8867258259102684
 30
0.0
 40
0.0393700787350912
 50
251.9999906894051094
 51
336.9999907141325934
  0
LINE
  5
79B4
  8
0
 10
113.7595562483099059
 20
-16.9241689938613398
 30
0.0
 11
113.2516896289201043
 21
-16.7591530349209812
 31
0.0
  0
ARC
  5
79B5
  8
0
 10
113.2638556583902982
 20
-16.7217098670108406
 30
0.0
 40
0.0393700786920511
 50
166.9999905866573044
 51
251.9999906894041999
  0
LINE
  5
79B6
  8
0
 10
113.225494633719606
 20
-16.7128535199969797
 30
0.0
 11
113.2480503969101022
 21
-16.6151538491432618
 31
0.0
  0
LINE
  5
79B7
  8
0
 10
113.543066106516207
 20
-16.8538270438421094
 30
0.0
 11
113.5313632167978
 21
-16.8898448153169412
 31
0.0
  0
ARC
  5
79B8
  8
0
 10
113.6528110531538971
 20
-16.3782034765489009
 30
0.0
 40
0.5258578101463743
 50
256.6468821438184023
 51
274.3771718939477751
  0
LINE
  5
79B9
  8
0
 10
113.4681797706098934
 20
-16.8294949848613413
 30
0.0
 11
113.4564768808190962
 21
-16.8655127563248186
 31
0.0
  0
ARC
  5
79BA
  8
0
 10
113.6550843433574016
 20
-16.3865207092633192
 30
0.0
 40
0.5185347677099973
 50
229.4961243736213135
 51
247.4793319193800016
  0
LINE
  5
79BB
  8
0
 10
113.5822160993376997
 20
-16.8665476546671407
 30
0.0
 11
113.5794940845114951
 21
-16.8749251501504283
 31
0.0
  0
LINE
  5
79BC
  8
0
 10
113.5794940845114951
 20
-16.8749251501504283
 30
0.0
 11
113.5982629039845051
 21
-16.8808627891703402
 31
0.0
  0
LINE
  5
79BD
  8
0
 10
113.5982629039845051
 20
-16.8808627891703402
 30
0.0
 11
113.6194605739099046
 21
-16.8793251989613395
 31
0.0
  0
LINE
  5
79BE
  8
0
 10
113.6194605739099046
 20
-16.8793251989613395
 30
0.0
 11
113.6196592672098973
 21
-16.8787136841613403
 31
0.0
  0
LINE
  5
79BF
  8
0
 10
113.5982629039050948
 20
-16.8808627891760992
 30
0.0
 11
113.6008492490598059
 21
-16.8726019353622583
 31
0.0
  0
LINE
  5
79C0
  8
0
 10
113.5770986052098976
 20
-16.8764900284613404
 30
0.0
 11
113.5844770163355975
 21
-16.8788874208431814
 31
0.0
  0
LINE
  5
79C1
  8
0
 10
113.5844770163355975
 20
-16.8788874208431814
 30
0.0
 11
113.5825600736098977
 21
-16.8847871607613413
 31
0.0
  0
LINE
  5
79C2
  8
0
 10
113.5825600736098977
 20
-16.8847871607613413
 30
0.0
 11
113.5744487302443986
 21
-16.8846455002798592
 31
0.0
  0
LINE
  5
79C3
  8
0
 10
113.5744487302443986
 20
-16.8846455002798592
 30
0.0
 11
113.5770986052098976
 21
-16.8764900284613404
 31
0.0
  0
LINE
  5
79C4
  8
0
 10
113.5936339059257989
 20
-16.8951093722124597
 30
0.0
 11
113.5964636604224012
 21
-16.8864002881151904
 31
0.0
  0
LINE
  5
79C5
  8
0
 10
113.5964636604224012
 20
-16.8864002881151904
 30
0.0
 11
113.5758036991098976
 21
-16.8862829821613403
 31
0.0
  0
LINE
  5
79C6
  8
0
 10
113.5758036991098976
 20
-16.8862829821613403
 30
0.0
 11
113.5744000091199979
 21
-16.8906030933304088
 31
0.0
  0
LINE
  5
79C7
  8
0
 10
113.5744000091199979
 20
-16.8906030933304088
 30
0.0
 11
113.5936339059257989
 21
-16.8951093722124597
 31
0.0
  0
LINE
  5
79C8
  8
0
 10
113.5936339059257989
 20
-16.8951093722124597
 30
0.0
 11
113.6142825911098981
 21
-16.8952613824613387
 31
0.0
  0
LINE
  5
79C9
  8
0
 10
113.6142825911098981
 20
-16.8952613824613387
 30
0.0
 11
113.6157088354099045
 21
-16.8908718563613398
 31
0.0
  0
LINE
  5
79CA
  8
0
 10
113.6157088354099045
 20
-16.8908718563613398
 30
0.0
 11
113.5964636606298939
 21
-16.8864002881110196
 31
0.0
  0
LINE
  5
79CB
  8
0
 10
113.5789029703098976
 20
-16.8960425609613409
 30
0.0
 11
113.579830345309901
 21
-16.8931883959613387
 31
0.0
  0
LINE
  5
79CC
  8
0
 10
113.579830345309901
 20
-16.8931883959613387
 30
0.0
 11
113.5722800716098959
 21
-16.8913199417613384
 31
0.0
  0
LINE
  5
79CD
  8
0
 10
113.5722800716098959
 20
-16.8913199417613384
 30
0.0
 11
113.5709901196099025
 21
-16.8952900033613389
 31
0.0
  0
LINE
  5
79CE
  8
0
 10
113.5709901196099025
 20
-16.8952900033613389
 30
0.0
 11
113.5789029703098976
 21
-16.8960425609613409
 31
0.0
  0
LINE
  5
79CF
  8
0
 10
113.5918762477131025
 20
-16.9005188850692889
 30
0.0
 11
113.5927583771465947
 21
-16.8978039712100596
 31
0.0
  0
LINE
  5
79D0
  8
0
 10
113.5927583771465947
 20
-16.8978039712100596
 30
0.0
 11
113.5726036891448985
 21
-16.8961315948677395
 31
0.0
  0
LINE
  5
79D1
  8
0
 10
113.5726036891448985
 20
-16.8961315948677395
 30
0.0
 11
113.5721438866098936
 21
-16.8975467206613388
 31
0.0
  0
LINE
  5
79D2
  8
0
 10
113.5721438866098936
 20
-16.8975467206613388
 30
0.0
 11
113.5880376992494973
 21
-16.9000567596811493
 31
0.0
  0
LINE
  5
79D3
  8
0
 10
113.596590323794203
 20
-16.9010473022580712
 30
0.0
 11
113.6119910774935988
 21
-16.9023139325114791
 31
0.0
  0
LINE
  5
79D4
  8
0
 10
113.6119910774935988
 20
-16.9023139325114791
 30
0.0
 11
113.6124580085578941
 21
-16.9008768672032588
 31
0.0
  0
LINE
  5
79D5
  8
0
 10
113.6124580085578941
 20
-16.9008768672032588
 30
0.0
 11
113.5927583771464953
 21
-16.8978039712100596
 31
0.0
  0
LINE
  5
79D6
  8
0
 10
113.6260324392285952
 20
-16.8807844543863901
 30
0.0
 11
113.6123114957167957
 21
-16.8820296376342114
 31
0.0
  0
LINE
  5
79D7
  8
0
 10
113.6123114957167957
 20
-16.8820296376342114
 30
0.0
 11
113.6103842649098965
 21
-16.8879610409613399
 31
0.0
  0
LINE
  5
79D8
  8
0
 10
113.6103842649098965
 20
-16.8879610409613399
 30
0.0
 11
113.6298084057733035
 21
-16.8918818090517213
 31
0.0
  0
LINE
  5
79D9
  8
0
 10
113.6298084057733035
 20
-16.8918818090517213
 30
0.0
 11
113.6531922631134961
 21
-16.8896092209922593
 31
0.0
  0
LINE
  5
79DA
  8
0
 10
113.6298084046885037
 20
-16.8918818088327605
 30
0.0
 11
113.6327092648204058
 21
-16.8829538877290197
 31
0.0
  0
LINE
  5
79DB
  8
0
 10
113.6265639622099002
 20
-16.9018671739613389
 30
0.0
 11
113.628458983893097
 21
-16.8960349012358506
 31
0.0
  0
LINE
  5
79DC
  8
0
 10
113.628458983893097
 20
-16.8960349012358506
 30
0.0
 11
113.6076240152345065
 21
-16.8964562112615901
 31
0.0
  0
LINE
  5
79DD
  8
0
 10
113.6076240152345065
 20
-16.8964562112615901
 30
0.0
 11
113.6066865169099032
 21
-16.8993415325613405
 31
0.0
  0
LINE
  5
79DE
  8
0
 10
113.6066865169099032
 20
-16.8993415325613405
 30
0.0
 11
113.6265639622099002
 21
-16.9018671739613389
 31
0.0
  0
LINE
  5
79DF
  8
0
 10
113.6265639622099002
 20
-16.9018671739613389
 30
0.0
 11
113.6474019688995014
 21
-16.9014365129935484
 31
0.0
  0
LINE
  5
79E0
  8
0
 10
113.6474019688995014
 20
-16.9014365129935484
 30
0.0
 11
113.6483597917098933
 21
-16.8984886392613411
 31
0.0
  0
LINE
  5
79E1
  8
0
 10
113.6483597917098933
 20
-16.8984886392613411
 30
0.0
 11
113.6284589835659062
 21
-16.8960349012508892
 31
0.0
  0
LINE
  5
79E2
  8
0
 10
113.6609975580417995
 20
-16.9039975594650684
 30
0.0
 11
113.6618644718034972
 21
-16.9013294747461309
 31
0.0
  0
LINE
  5
79E3
  8
0
 10
113.6618644718034972
 20
-16.9013294747461309
 30
0.0
 11
113.6408330614098929
 21
-16.9023553707613416
 31
0.0
  0
LINE
  5
79E4
  8
0
 10
113.6408330614098929
 20
-16.9023553707613416
 30
0.0
 11
113.6403591987196933
 21
-16.9038137692354802
 31
0.0
  0
LINE
  5
79E5
  8
0
 10
113.6403591987196933
 20
-16.9038137692354802
 30
0.0
 11
113.6509851333771053
 21
-16.904058116643391
 31
0.0
  0
LINE
  5
79E6
  8
0
 10
113.6720334617508001
 20
-16.9037098375947714
 30
0.0
 11
113.681956081881907
 21
-16.9031959848889883
 31
0.0
  0
LINE
  5
79E7
  8
0
 10
113.681956081881907
 20
-16.9031959848889883
 30
0.0
 11
113.6824431880098984
 21
-16.9016968272613397
 31
0.0
  0
LINE
  5
79E8
  8
0
 10
113.6824431880098984
 20
-16.9016968272613397
 30
0.0
 11
113.6618644716410955
 21
-16.9013294747540606
 31
0.0
  0
LINE
  5
79E9
  8
0
 10
113.6775308439444956
 20
-16.8975173096551892
 30
0.0
 11
113.6764117577079958
 21
-16.9009615012510892
 31
0.0
  0
LINE
  5
79EA
  8
0
 10
113.6764117577079958
 20
-16.9009615012510892
 30
0.0
 11
113.6881234736746933
 21
-16.9009590655924384
 31
0.0
  0
LINE
  5
79EB
  8
0
 10
113.6759901055411035
 20
-16.897016693124371
 30
0.0
 11
113.6627725613098931
 21
-16.8985346642613408
 31
0.0
  0
LINE
  5
79EC
  8
0
 10
113.6627725613098931
 20
-16.8985346642613408
 30
0.0
 11
113.6426851441099046
 21
-16.8966552493613413
 31
0.0
  0
LINE
  5
79ED
  8
0
 10
113.6426851441099046
 20
-16.8966552493613413
 30
0.0
 11
113.6441333558374964
 21
-16.89219811447634
 31
0.0
  0
LINE
  5
79EE
  8
0
 10
113.6441333558374964
 20
-16.89219811447634
 30
0.0
 11
113.6567513032629932
 21
-16.8907656238759216
 31
0.0
  0
LINE
  5
79EF
  8
0
 10
113.6627725577306052
 20
-16.8985346639264513
 30
0.0
 11
113.664480846405695
 21
-16.8932771060744891
 31
0.0
  0
LINE
  5
79F0
  8
0
 10
113.5777991428551985
 20
-16.8651124977150211
 30
0.0
 11
113.5681425185179023
 21
-16.8654577146395717
 31
0.0
  0
LINE
  5
79F1
  8
0
 10
113.5681425185179023
 20
-16.8654577146395717
 30
0.0
 11
113.5429052358499007
 21
-16.8543221525746603
 31
0.0
  0
LINE
  5
79F2
  8
0
 10
113.5681425185179023
 20
-16.8654577146395717
 30
0.0
 11
113.569166105171405
 21
-16.8623074521822787
 31
0.0
  0
LINE
  5
79F3
  8
0
 10
113.542113306609906
 20
-16.8567594589613385
 30
0.0
 11
113.5553651015311942
 21
-16.8623575200196392
 31
0.0
  0
LINE
  5
79F4
  8
0
 10
113.5553651015311942
 20
-16.8623575200196392
 30
0.0
 11
113.5410494076242998
 21
-16.8600338015461197
 31
0.0
  0
LINE
  5
79F5
  8
0
 10
113.4290297778470062
 20
-16.8167743741004685
 30
0.0
 11
113.4263077631329963
 21
-16.8251518695903499
 31
0.0
  0
LINE
  5
79F6
  8
0
 10
113.4263077631329963
 20
-16.8251518695903499
 30
0.0
 11
113.4075861791227027
 21
-16.8190688548628309
 31
0.0
  0
LINE
  5
79F7
  8
0
 10
113.4075861791227027
 20
-16.8190688548628309
 30
0.0
 11
113.3913879166099008
 21
-16.8052198594613387
 31
0.0
  0
LINE
  5
79F8
  8
0
 10
113.3913879166099008
 20
-16.8052198594613387
 30
0.0
 11
113.3915866099415979
 21
-16.8046083446038708
 31
0.0
  0
LINE
  5
79F9
  8
0
 10
113.427325933309902
 20
-16.827825910461339
 30
0.0
 11
113.4246760584099007
 21
-16.8359813823613393
 31
0.0
  0
LINE
  5
79FA
  8
0
 10
113.4246760584099007
 20
-16.8359813823613393
 30
0.0
 11
113.4180305794160972
 21
-16.8313282579223511
 31
0.0
  0
LINE
  5
79FB
  8
0
 10
113.4180305794160972
 20
-16.8313282579223511
 30
0.0
 11
113.419935843209899
 21
-16.8254644619613387
 31
0.0
  0
LINE
  5
79FC
  8
0
 10
113.419935843209899
 20
-16.8254644619613387
 30
0.0
 11
113.427325933309902
 21
-16.827825910461339
 31
0.0
  0
LINE
  5
79FD
  8
0
 10
113.4225073997099003
 20
-16.8426558237613406
 30
0.0
 11
113.4212174478098945
 21
-16.8466258854613393
 31
0.0
  0
LINE
  5
79FE
  8
0
 10
113.4212174478098945
 20
-16.8466258854613393
 30
0.0
 11
113.414373476120204
 21
-16.8425836581296693
 31
0.0
  0
LINE
  5
79FF
  8
0
 10
113.414373476120204
 20
-16.8425836581296693
 30
0.0
 11
113.4153008511099046
 21
-16.8397294931613395
 31
0.0
  0
LINE
  5
7A00
  8
0
 10
113.4153008511099046
 20
-16.8397294931613395
 30
0.0
 11
113.4225073997099003
 21
-16.8426558237613406
 31
0.0
  0
LINE
  5
7A01
  8
0
 10
113.4058341710612012
 20
-16.8244609780599212
 30
0.0
 11
113.4030044165943991
 21
-16.833170062246591
 31
0.0
  0
LINE
  5
7A02
  8
0
 10
113.4030044165943991
 20
-16.833170062246591
 30
0.0
 11
113.4212136567494014
 21
-16.8408299081480486
 31
0.0
  0
LINE
  5
7A03
  8
0
 10
113.4212136567494014
 20
-16.8408299081480486
 30
0.0
 11
113.4226173776872031
 21
-16.8365097015468201
 31
0.0
  0
LINE
  5
7A04
  8
0
 10
113.4226173776872031
 20
-16.8365097015468201
 30
0.0
 11
113.4058341711472053
 21
-16.8244609781251491
 31
0.0
  0
LINE
  5
7A05
  8
0
 10
113.4058341711472053
 20
-16.8244609781251491
 30
0.0
 11
113.3876361781236
 21
-16.8167665167956102
 31
0.0
  0
LINE
  5
7A06
  8
0
 10
113.3876361781236
 20
-16.8167665167956102
 30
0.0
 11
113.3862099338098943
 21
-16.8211560429613414
 31
0.0
  0
LINE
  5
7A07
  8
0
 10
113.3862099338098943
 20
-16.8211560429613414
 30
0.0
 11
113.4030044165099014
 21
-16.8331700622613383
 31
0.0
  0
LINE
  5
7A08
  8
0
 10
113.3742863310367994
 20
-16.8134491545107316
 30
0.0
 11
113.3723913097155958
 21
-16.8192814272437303
 31
0.0
  0
LINE
  5
7A09
  8
0
 10
113.3723913097155958
 20
-16.8192814272437303
 30
0.0
 11
113.3899570324028048
 21
-16.8289218153832714
 31
0.0
  0
LINE
  5
7A0A
  8
0
 10
113.3899570324028048
 20
-16.8289218153832714
 30
0.0
 11
113.3908945306268947
 21
-16.82603649402893
 31
0.0
  0
LINE
  5
7A0B
  8
0
 10
113.3908945306268947
 20
-16.82603649402893
 30
0.0
 11
113.3742863310367994
 21
-16.8134491545107316
 31
0.0
  0
LINE
  5
7A0C
  8
0
 10
113.3742863310367994
 20
-16.8134491545107316
 30
0.0
 11
113.3567439712098945
 21
-16.8037368630613386
 31
0.0
  0
LINE
  5
7A0D
  8
0
 10
113.3567439712098945
 20
-16.8037368630613386
 30
0.0
 11
113.355786148409905
 21
-16.8066847367613406
 31
0.0
  0
LINE
  5
7A0E
  8
0
 10
113.355786148409905
 20
-16.8066847367613406
 30
0.0
 11
113.3723908052712943
 21
-16.8192829797628605
 31
0.0
  0
LINE
  5
7A0F
  8
0
 10
113.4075861791227027
 20
-16.8190688548628309
 30
0.0
 11
113.4103081939069995
 21
-16.8106913593702387
 31
0.0
  0
LINE
  5
7A10
  8
0
 10
113.4021288877936939
 20
-16.835864661311259
 30
0.0
 11
113.4012201472011014
 21
-16.8386614785310087
 31
0.0
  0
LINE
  5
7A11
  8
0
 10
113.4025186082618006
 20
-16.8393880792290496
 30
0.0
 11
113.4189575652038968
 21
-16.8477734400797594
 31
0.0
  0
LINE
  5
7A12
  8
0
 10
113.4189575652038968
 20
-16.8477734400797594
 30
0.0
 11
113.4194173677121
 21
-16.8463583143544611
 31
0.0
  0
LINE
  5
7A13
  8
0
 10
113.4194173677121
 20
-16.8463583143544611
 30
0.0
 11
113.4021288877936939
 21
-16.835864661311259
 31
0.0
  0
LINE
  5
7A14
  8
0
 10
113.4021288877936939
 20
-16.835864661311259
 30
0.0
 11
113.3843853512237985
 21
-16.8267715276185399
 31
0.0
  0
LINE
  5
7A15
  8
0
 10
113.3843853512237985
 20
-16.8267715276185399
 30
0.0
 11
113.3839184201497972
 21
-16.8282085928935814
 31
0.0
  0
LINE
  5
7A16
  8
0
 10
113.3839184201497972
 20
-16.8282085928935814
 30
0.0
 11
113.3997307275114963
 21
-16.8378219791468489
 31
0.0
  0
LINE
  5
7A17
  8
0
 10
113.3441486561654017
 20
-16.7980972913448099
 30
0.0
 11
113.3432632148774957
 21
-16.8008223978400792
 31
0.0
  0
LINE
  5
7A18
  8
0
 10
113.3489316236759947
 20
-16.8050285557319086
 30
0.0
 11
113.3600865510098998
 21
-16.8127476153613387
 31
0.0
  0
LINE
  5
7A19
  8
0
 10
113.3600865510098998
 20
-16.8127476153613387
 30
0.0
 11
113.3605604137144951
 21
-16.8112892168471717
 31
0.0
  0
LINE
  5
7A1A
  8
0
 10
113.3605604137144951
 20
-16.8112892168471717
 30
0.0
 11
113.3441486561654017
 21
-16.7980972913448099
 31
0.0
  0
LINE
  5
7A1B
  8
0
 10
113.3441486561654017
 20
-16.7980972913448099
 30
0.0
 11
113.3272842044099065
 21
-16.7862986143613391
 31
0.0
  0
LINE
  5
7A1C
  8
0
 10
113.3272842044099065
 20
-16.7862986143613391
 30
0.0
 11
113.326797098339398
 21
-16.7877977719839286
 31
0.0
  0
LINE
  5
7A1D
  8
0
 10
113.326797098339398
 20
-16.7877977719839286
 30
0.0
 11
113.3364827072500987
 21
-16.7956310889823293
 31
0.0
  0
LINE
  5
7A1E
  8
0
 10
113.3337150331362011
 20
-16.7858047190786301
 30
0.0
 11
113.3325959468947985
 21
-16.7892489107078511
 31
0.0
  0
LINE
  5
7A1F
  8
0
 10
113.3325959468947985
 20
-16.7892489107078511
 30
0.0
 11
113.323122414296904
 21
-16.7823629666800187
 31
0.0
  0
LINE
  5
7A20
  8
0
 10
113.3352557731580958
 20
-16.7863053361353316
 30
0.0
 11
113.3450567456098952
 21
-16.7953024808613414
 31
0.0
  0
LINE
  5
7A21
  8
0
 10
113.3450567456098952
 20
-16.7953024808613414
 30
0.0
 11
113.3624124964379973
 21
-16.8055890954773517
 31
0.0
  0
LINE
  5
7A22
  8
0
 10
113.3624124964379973
 20
-16.8055890954773517
 30
0.0
 11
113.3638607081908987
 21
-16.8011319606422305
 31
0.0
  0
LINE
  5
7A23
  8
0
 10
113.3638607081908987
 20
-16.8011319606422305
 30
0.0
 11
113.3545165651874953
 21
-16.7925635502910318
 31
0.0
  0
LINE
  5
7A24
  8
0
 10
113.3450567439674046
 20
-16.7953024793535306
 30
0.0
 11
113.3467650288307027
 21
-16.7900449220600301
 31
0.0
  0
LINE
  5
7A25
  8
0
 10
113.385213453518503
 20
-16.8025375794377503
 30
0.0
 11
113.3955818661462018
 21
-16.8116103666133903
 31
0.0
  0
LINE
  5
7A26
  8
0
 10
113.3955818661462018
 20
-16.8116103666133903
 30
0.0
 11
113.3936547802888981
 21
-16.8175413237258304
 31
0.0
  0
LINE
  5
7A27
  8
0
 10
113.3936547802888981
 20
-16.8175413237258304
 30
0.0
 11
113.3756357533887069
 21
-16.8092960623610885
 31
0.0
  0
LINE
  5
7A28
  8
0
 10
113.3756357533887069
 20
-16.8092960623610885
 30
0.0
 11
113.358053613832098
 21
-16.7937128076976592
 31
0.0
  0
LINE
  5
7A29
  8
0
 10
113.3756357533887069
 20
-16.8092960623610885
 30
0.0
 11
113.3785366123217955
 21
-16.8003681410247694
 31
0.0
  0
LINE
  5
7A2A
  8
0
 10
113.433459136297401
 20
-16.8182135606984389
 30
0.0
 11
113.4410561919497979
 21
-16.8243158825965189
 31
0.0
  0
LINE
  5
7A2B
  8
0
 10
113.4410561919497979
 20
-16.8243158825965189
 30
0.0
 11
113.4680370158122003
 21
-16.8299343387107108
 31
0.0
  0
LINE
  5
7A2C
  8
0
 10
113.4410561919497979
 20
-16.8243158825965189
 30
0.0
 11
113.4421241651807009
 21
-16.8210290007837386
 31
0.0
  0
LINE
  5
7A2D
  8
0
 10
113.4672269707048002
 20
-16.8324273999875693
 30
0.0
 11
113.4536578976348977
 21
-16.8297847453325211
 31
0.0
  0
LINE
  5
7A2E
  8
0
 10
113.4536578976348977
 20
-16.8297847453325211
 30
0.0
 11
113.4661630717115059
 21
-16.835701742570091
 31
0.0
  0
ENDSEC
  0
EOF
