  0
SECTION
  2
HEADER
  9
$ACADVER
  1
AC1009
  9
$INSBASE
 10
107.0264331587713968
 20
-29.8575513892356312
 30
0.0
  9
$EXTMIN
 10
106.0334348740021966
 20
-34.5715026322501799
 30
0.0
  9
$EXTMAX
 10
108.0194314435405971
 20
-28.8747026322477183
 30
0.0
  9
$LIMMIN
 10
0.0
 20
0.0
  9
$LIMMAX
 10
11.6929133858000007
 20
8.2677165353999982
  9
$ORTHOMODE
 70
     0
  9
$REGENMODE
 70
     1
  9
$FILLMODE
 70
     1
  9
$QTEXTMODE
 70
     0
  9
$MIRRTEXT
 70
     0
  9
$DRAGMODE
 70
     2
  9
$LTSCALE
 40
0.6431102362
  9
$OSMODE
 70
  4095
  9
$ATTMODE
 70
     1
  9
$TEXTSIZE
 40
0.2
  9
$TRACEWID
 40
0.05
  9
$TEXTSTYLE
  7
STANDARD
  9
$CLAYER
  8
0
  9
$CELTYPE
  6
BYLAYER
  9
$CECOLOR
 62
   256
  9
$DIMSCALE
 40
1.0
  9
$DIMASZ
 40
0.1875
  9
$DIMEXO
 40
0.0625
  9
$DIMDLI
 40
0.4443307087
  9
$DIMRND
 40
0.0
  9
$DIMDLE
 40
0.0
  9
$DIMEXE
 40
0.125
  9
$DIMTP
 40
0.01
  9
$DIMTM
 40
0.01
  9
$DIMTXT
 40
1.0
  9
$DIMCEN
 40
0.1052362205
  9
$DIMTSZ
 40
0.0
  9
$DIMTOL
 70
     1
  9
$DIMLIM
 70
     0
  9
$DIMTIH
 70
     1
  9
$DIMTOH
 70
     1
  9
$DIMSE1
 70
     0
  9
$DIMSE2
 70
     0
  9
$DIMTAD
 70
     0
  9
$DIMZIN
 70
     0
  9
$DIMBLK
  1

  9
$DIMASO
 70
     1
  9
$DIMSHO
 70
     1
  9
$DIMPOST
  1
\X
  9
$DIMAPOST
  1

  9
$DIMALT
 70
     1
  9
$DIMALTD
 70
     2
  9
$DIMALTF
 40
25.3999999999999986
  9
$DIMLFAC
 40
1.0
  9
$DIMTOFL
 70
     0
  9
$DIMTVP
 40
0.0
  9
$DIMTIX
 70
     0
  9
$DIMSOXD
 70
     0
  9
$DIMSAH
 70
     0
  9
$DIMBLK1
  1

  9
$DIMBLK2
  1

  9
$DIMSTYLE
  2
STANDARD
  9
$DIMCLRD
 70
     0
  9
$DIMCLRE
 70
     0
  9
$DIMCLRT
 70
     0
  9
$DIMTFAC
 40
1.0
  9
$DIMGAP
 40
0.09
  9
$LUNITS
 70
     2
  9
$LUPREC
 70
     4
  9
$SKETCHINC
 40
0.1
  9
$FILLETRAD
 40
0.0
  9
$AUNITS
 70
     0
  9
$AUPREC
 70
     0
  9
$MENU
  1
.
  9
$ELEVATION
 40
0.0
  9
$PELEVATION
 40
0.0
  9
$THICKNESS
 40
0.0
  9
$LIMCHECK
 70
     0
  9
$BLIPMODE
 70
     0
  9
$CHAMFERA
 40
0.0
  9
$CHAMFERB
 40
0.0
  9
$SKPOLY
 70
     0
  9
$TDCREATE
 40
2458172.4620254631154239
  9
$TDUPDATE
 40
2459120.8648842591792345
  9
$TDINDWG
 40
0.1447165856
  9
$TDUSRTIMER
 40
0.1447165856
  9
$USRTIMER
 70
     1
  9
$ANGBASE
 50
0.0
  9
$ANGDIR
 70
     0
  9
$PDMODE
 70
     0
  9
$PDSIZE
 40
0.3125
  9
$PLINEWID
 40
0.0
  9
$COORDS
 70
     1
  9
$SPLFRAME
 70
     0
  9
$SPLINETYPE
 70
     6
  9
$SPLINESEGS
 70
     8
  9
$ATTDIA
 70
     1
  9
$ATTREQ
 70
     1
  9
$HANDLING
 70
     1
  9
$HANDSEED
  5
85BD
  9
$SURFTAB1
 70
     6
  9
$SURFTAB2
 70
     6
  9
$SURFTYPE
 70
     6
  9
$SURFU
 70
     6
  9
$SURFV
 70
     6
  9
$UCSNAME
  2

  9
$UCSORG
 10
0.0
 20
0.0
 30
0.0
  9
$UCSXDIR
 10
1.0
 20
0.0
 30
0.0
  9
$UCSYDIR
 10
0.0
 20
1.0
 30
0.0
  9
$PUCSNAME
  2

  9
$PUCSORG
 10
0.0
 20
0.0
 30
0.0
  9
$PUCSXDIR
 10
1.0
 20
0.0
 30
0.0
  9
$PUCSYDIR
 10
0.0
 20
1.0
 30
0.0
  9
$USERI1
 70
     0
  9
$USERI2
 70
     0
  9
$USERI3
 70
     0
  9
$USERI4
 70
     0
  9
$USERI5
 70
     0
  9
$USERR1
 40
0.0
  9
$USERR2
 40
0.0
  9
$USERR3
 40
0.0
  9
$USERR4
 40
0.0
  9
$USERR5
 40
0.0
  9
$WORLDVIEW
 70
     1
  9
$SHADEDGE
 70
     3
  9
$SHADEDIF
 70
    70
  9
$TILEMODE
 70
     1
  9
$MAXACTVP
 70
    64
  9
$PLIMCHECK
 70
     0
  9
$PEXTMIN
 10
1.0000000000000000E+20
 20
1.0000000000000000E+20
 30
1.0000000000000000E+20
  9
$PEXTMAX
 10
-1.0000000000000000E+20
 20
-1.0000000000000000E+20
 30
-1.0000000000000000E+20
  9
$PLIMMIN
 10
0.0
 20
0.0
  9
$PLIMMAX
 10
12.0
 20
9.0
  9
$UNITMODE
 70
     0
  9
$VISRETAIN
 70
     1
  9
$PLINEGEN
 70
     0
  9
$PSLTSCALE
 70
     1
  0
ENDSEC
  0
SECTION
  2
TABLES
  0
TABLE
  2
VPORT
 70
     1
  0
VPORT
  2
*ACTIVE
 70
     0
 10
0.0
 20
0.0
 11
1.0
 21
1.0
 12
0.0
 22
0.0
 13
0.0
 23
0.0
 14
1.0
 24
1.0
 15
0.0
 25
0.0
 16
0.0
 26
0.0
 36
21.8330561667849317
 17
107.0264320373535014
 27
-31.7230854034423793
 37
0.0
 40
6.0330206329781584
 41
2.8398203592814371
 42
50.0
 43
0.0
 44
0.0
 50
0.0
 51
0.0
 71
     0
 72
   100
 73
     1
 74
     1
 75
     0
 76
     0
 77
     0
 78
     0
  0
ENDTAB
  0
TABLE
  2
LTYPE
 70
     2
  0
LTYPE
  2
CONTINUOUS
 70
     0
  3
Solid line
 72
    65
 73
     0
 40
0.0
  0
LTYPE
  2
PHANTOM2
 70
     0
  3
___ _ _ ___ _ _ ___ _ _ ___ _ _
 72
    65
 73
     6
 40
1.25
 49
0.625
 49
-0.125
 49
0.125
 49
-0.125
 49
0.125
 49
-0.125
  0
ENDTAB
  0
TABLE
  2
LAYER
 70
     2
  0
LAYER
  2
0
 70
     0
 62
   255
  6
CONTINUOUS
  0
LAYER
  2
DEFPOINTS
 70
     0
 62
     7
  6
CONTINUOUS
  0
ENDTAB
  0
TABLE
  2
STYLE
 70
     1
  0
STYLE
  2
STANDARD
 70
     0
 40
0.0
 41
0.8
 50
0.0
 71
     0
 42
0.2
  3
txt
  4

  0
ENDTAB
  0
TABLE
  2
VIEW
 70
     0
  0
ENDTAB
  0
TABLE
  2
UCS
 70
     0
  0
ENDTAB
  0
TABLE
  2
APPID
 70
     9
  0
APPID
  2
ACAD
 70
     0
  0
APPID
  2
ACAD_MLEADERVER
 70
     0
  0
APPID
  2
ACAD_EXEMPT_FROM_CAD_STANDARDS
 70
     0
  0
APPID
  2
ACAD_DSTYLE_DIMJAG
 70
     0
  0
APPID
  2
ACAD_DSTYLE_DIMTALN
 70
     0
  0
APPID
  2
ACAD_NAV_VCDISPLAY
 70
     0
  0
APPID
  2
ACAECLAYERSTANDARD
 70
     0
  0
APPID
  2
ACCMTRANSPARENCY
 70
     0
  0
APPID
  2
ACDBATTR
 70
     0
  0
ENDTAB
  0
TABLE
  2
DIMSTYLE
 70
     1
  0
DIMSTYLE
  2
STANDARD
 70
     0
  3

  4

  5

  6

  7

 40
1.0
 41
0.1875
 42
0.0625
 43
0.38
 44
0.125
 45
0.0
 46
0.0
 47
0.01
 48
0.01
140
0.15625
141
0.09
142
0.0
143
25.3999999999999986
144
1.0
145
0.0
146
1.0
147
0.09
 71
     1
 72
     0
 73
     1
 74
     1
 75
     0
 76
     0
 77
     0
 78
     4
170
     0
171
     2
172
     0
173
     0
174
     0
175
     0
176
     0
177
     0
178
     0
  0
ENDTAB
  0
ENDSEC
  0
SECTION
  2
BLOCKS
  0
BLOCK
  8
0
  2
$MODEL_SPACE
 70
     0
 10
0.0
 20
0.0
 30
0.0
  3
$MODEL_SPACE
  1

  0
ENDBLK
  5
21
  8
0
  0
BLOCK
 67
     1
  8
0
  2
$PAPER_SPACE
 70
     0
 10
0.0
 20
0.0
 30
0.0
  3
$PAPER_SPACE
  1

  0
ENDBLK
  5
1D
 67
     1
  8
0
  0
BLOCK
  8
0
  2
_FILLED
 70
     0
 10
0.0
 20
0.0
 30
0.0
  3
_FILLED
  1

  0
SOLID
  5
3BD9
  8
0
  6
BYBLOCK
 62
     0
 10
0.0
 20
0.0
 30
0.0
 11
-1.0
 21
0.1666666667
 31
0.0
 12
-1.0
 22
-0.1666666667
 32
0.0
 13
-1.0
 23
-0.1666666667
 33
0.0
  0
ENDBLK
  5
3BDA
  8
0
  6
BYBLOCK
 62
     0
  0
BLOCK
  8
0
  2
A$C226D500F
 70
     2
 10
0.0
 20
0.0
 30
0.0
  3
A$C226D500F
  1

  0
ATTDEF
  5
564D
  8
DEFPOINTS
 10
0.000291919742196
 20
0.0005288174062983
 30
0.0
 40
0.001
  1
BATHROOM SINK FAUCET
  3

  2
PRODUCT
 70
     0
1001
ACDBATTR
1070
     0
1070
     1
  0
ATTDEF
  5
564E
  8
DEFPOINTS
 10
0.000291919742196
 20
0.0021954840729634
 30
0.0
 40
0.001
  1
ALEO
  3

  2
TRADENAME
 70
     0
1001
ACDBATTR
1070
     0
1070
     1
  0
ATTDEF
  5
564F
  8
DEFPOINTS
 10
0.000291919742196
 20
0.0038621507396286
 30
0.0
 40
0.001
  1
K-98868T-4
  3

  2
MODELNUMBER
 70
     0
1001
ACDBATTR
1070
     0
1070
     1
  0
ENDBLK
  5
5653
  8
0
  0
BLOCK
  8
0
  2
A$C393A5527
 70
     2
 10
0.0
 20
0.0
 30
0.0
  3
A$C393A5527
  1

  0
ATTDEF
  5
5655
  8
DEFPOINTS
 10
0.0000000879847164
 20
-0.0000001116000696
 30
0.0
 40
0.001
  1
BATHROOM SINK FAUCET
  3

  2
PRODUCT
 70
     0
1001
ACDBATTR
1070
     0
1070
     1
  0
ATTDEF
  5
5656
  8
DEFPOINTS
 10
0.0000000879847164
 20
0.0016665550665955
 30
0.0
 40
0.001
  1
ALEO
  3

  2
TRADENAME
 70
     0
1001
ACDBATTR
1070
     0
1070
     1
  0
ATTDEF
  5
5657
  8
DEFPOINTS
 10
0.0000000879847164
 20
0.0033332217332607
 30
0.0
 40
0.001
  1
K-98868T-4
  3

  2
MODELNUMBER
 70
     0
1001
ACDBATTR
1070
     0
1070
     1
  0
ENDBLK
  5
565B
  8
0
  0
ENDSEC
  0
SECTION
  2
ENTITIES
  0
ATTDEF
  5
383D
  8
DEFPOINTS
 10
107.0125028493610984
 20
-29.8583119209685712
 30
0.0
 40
0.001
  1
K-72275AR-4ND
  3

  2
MODELNUMBER
 70
     0
1001
ACDBATTR
1070
     0
1070
     1
  0
ATTDEF
  5
383E
  8
DEFPOINTS
 10
107.0125028493610984
 20
-29.8599785876352293
 30
0.0
 40
0.001
  1
ALEO
  3

  2
TRADENAME
 70
     0
1001
ACDBATTR
1070
     0
1070
     1
  0
ATTDEF
  5
383F
  8
DEFPOINTS
 10
107.0125028493610984
 20
-29.8616452543019015
 30
0.0
 40
0.001
  1
BATHROOM SINK FAUCET
  3

  2
PRODUCT
 70
     0
1001
ACDBATTR
1070
     0
1070
     1
  0
ARC
  5
74F3
  8
0
 10
-207.1825605466372053
 20
-14.3883404670472199
 30
0.0
 40
315.5838566194606756
 50
356.5087063756263888
 51
357.1731396973883079
  0
ARC
  5
74F4
  8
0
 10
101.6293011988285997
 20
-33.2904469750698695
 30
0.0
 40
6.1943548222992977
 50
352.7397222120408742
 51
357.0761872267402737
  0
ARC
  5
74F5
  8
0
 10
106.8364903685514946
 20
-33.9478520959068319
 30
0.0
 40
0.9458531393847021
 50
340.6551004679936909
 51
352.3802476431284276
  0
ARC
  5
74F6
  8
0
 10
107.3567287206001026
 20
-34.1226305613625911
 30
0.0
 40
0.3971598583872093
 50
316.7031655538020232
 51
339.5845695243398836
  0
ARC
  5
74F7
  8
0
 10
107.3040236373660008
 20
-34.0732696309119234
 30
0.0
 40
0.4693698772591059
 50
287.129728895527478
 51
316.7298479301957173
  0
ARC
  5
74F8
  8
0
 10
107.1591214543667974
 20
-33.6306660566203632
 30
0.0
 40
0.935053823071258
 50
273.4127489447034804
 51
287.6267756965128797
  0
ARC
  5
74F9
  8
0
 10
107.1668706387468006
 20
-32.2841610345492072
 30
0.0
 40
1.182567951217433
 50
272.1018284586716049
 51
283.3495747707304986
  0
ARC
  5
74FA
  8
0
 10
107.3021227650698961
 20
-32.8684177121679824
 30
0.0
 40
0.5828789687444611
 50
283.67420230458589
 51
300.5635454614101718
  0
ARC
  5
74FB
  8
0
 10
107.3888172641891998
 20
-33.0168570672474431
 30
0.0
 40
0.4109801631534254
 50
300.6793707556689128
 51
321.5263485627339151
  0
ARC
  5
74FC
  8
0
 10
107.2869032978259014
 20
-32.9520675860390284
 30
0.0
 40
0.5312285323609593
 50
322.8943991623116858
 51
345.498000556507975
  0
ARC
  5
74FD
  8
0
 10
105.9428478753344933
 20
-32.6544818335376377
 30
0.0
 40
1.9075962246322491
 50
346.9538521647564835
 51
355.487626133527101
  0
ARC
  5
74FE
  8
0
 10
883.2251447017041528
 20
-76.116340737521341
 30
0.0
 40
776.58934192875995
 50
176.5897177142479109
 51
176.8028527385274913
  0
ARC
  5
7500
  8
0
 10
421.0371926468188235
 20
-14.3998506977408098
 30
0.0
 40
315.3852962122518875
 50
182.818576657560186
 51
183.4913994570651141
  0
ARC
  5
7501
  8
0
 10
112.4235582695114033
 20
-33.2904469750698695
 30
0.0
 40
6.1943548222992977
 50
182.9238127732593
 51
187.2602777879585858
  0
ARC
  5
7502
  8
0
 10
107.2163690997885936
 20
-33.9478520959068319
 30
0.0
 40
0.9458531393847021
 50
187.6197523568712029
 51
199.3448995320059112
  0
ARC
  5
7503
  8
0
 10
106.6961307477399998
 20
-34.1226305613625911
 30
0.0
 40
0.3971598583872093
 50
200.4154304756600027
 51
223.2968344461980905
  0
ARC
  5
7504
  8
0
 10
106.7488358309741017
 20
-34.0732696309119234
 30
0.0
 40
0.4693698772591059
 50
223.2701520698041975
 51
252.8702711044726072
  0
ARC
  5
7505
  8
0
 10
106.8937380139732056
 20
-33.6306660566203632
 30
0.0
 40
0.935053823071258
 50
252.3732243034862108
 51
266.5872510552965196
  0
ARC
  5
7506
  8
0
 10
106.8859888295933018
 20
-32.2841610345492072
 30
0.0
 40
1.182567951217433
 50
256.6504252292696151
 51
267.8981715413283951
  0
ARC
  5
7507
  8
0
 10
106.7507367032701069
 20
-32.8684177121679824
 30
0.0
 40
0.5828789687444611
 50
239.4364545385897998
 51
256.3257976954139963
  0
ARC
  5
7508
  8
0
 10
106.6640422041509026
 20
-33.0168570672474431
 30
0.0
 40
0.4109801631534254
 50
218.4736514372658007
 51
239.3206292443310872
  0
ARC
  5
7509
  8
0
 10
106.7659561705142011
 20
-32.9520675860390284
 30
0.0
 40
0.5312285323609593
 50
194.5019994434923092
 51
217.1056008376883142
  0
ARC
  5
750A
  8
0
 10
108.1100115930055949
 20
-32.6544818335376377
 30
0.0
 40
1.9075962246322491
 50
184.5123738664728137
 51
193.0461478352430902
  0
ARC
  5
750B
  8
0
 10
-669.1722852333640503
 20
-76.116340737521341
 30
0.0
 40
776.58934192875995
 50
3.1971472614724661
 51
3.4102822857521118
  0
ARC
  5
750E
  8
0
 10
107.0264297341699944
 20
-29.2590003298825216
 30
0.0
 40
4.2109467660646986
 50
267.4981835119849052
 51
272.5018164880150948
  0
ARC
  5
787E
  8
0
 10
107.0264297341699944
 20
-32.1838691202703018
 30
0.0
 40
2.3876335119798768
 50
265.4753869506459978
 51
274.5246130493530927
  0
ARC
  5
7CF4
  8
0
 10
106.8660545242797042
 20
-29.9269874818833514
 30
0.0
 40
1.153525360617659
 50
0.9191918641372286
 51
34.8527691231742835
  0
ARC
  5
7CF5
  8
0
 10
106.7901748243189957
 20
-29.8758352688652984
 30
0.0
 40
1.2216542213400601
 50
357.9036874657824114
 51
6.4454978389375137
  0
ARC
  5
7CF6
  8
0
 10
107.2626846440211068
 20
-29.8758352688652913
 30
0.0
 40
1.221654221340067
 50
173.5545021610624872
 51
182.0963125342171054
  0
ARC
  5
7CF7
  8
0
 10
107.0264297341699944
 20
-29.8575513892356312
 30
0.0
 40
0.9828487569879026
 50
36.8742210697541992
 51
143.1257789302457866
  0
ARC
  5
7CF8
  8
0
 10
107.1867336851886989
 20
-29.9269521561230505
 30
0.0
 40
1.1534466963932859
 50
145.1466480502793956
 51
179.082500423527307
  0
ARC
  5
7CFF
  8
0
 10
107.0265608077292967
 20
-29.8582373228922684
 30
0.0
 40
0.9594187498939328
 50
76.7406258626909619
 51
101.9463529814127014
  0
ARC
  5
7D00
  8
0
 10
107.013196695389297
 20
-29.9149510861584602
 30
0.0
 40
1.017685811278989
 50
47.686661036525372
 51
76.7406258626909619
  0
ARC
  5
7D01
  8
0
 10
107.0946666313237046
 20
-29.8254586594941884
 30
0.0
 40
0.8966641401146359
 50
31.6445290142424014
 51
47.686661036525372
  0
ARC
  5
7D02
  8
0
 10
106.8757223211664069
 20
-29.9603887697276114
 30
0.0
 40
1.1538464598760321
 50
17.535245349974339
 51
31.6445290142424014
  0
ARC
  5
7D03
  8
0
 10
107.0330605057347952
 20
-29.902065577741471
 30
0.0
 40
1.003646843075273
 50
101.7914549983238004
 51
133.1316146958648972
  0
ARC
  5
7D04
  8
0
 10
107.010905690779893
 20
-29.8784165953307586
 30
0.0
 40
0.9712414392859379
 50
133.1316146958646129
 51
161.6538761953140124
  0
ARC
  5
7D05
  8
0
 10
108.4943633058253027
 20
-29.9538659990019482
 30
0.0
 40
0.4770953247680521
 50
174.5414915703798897
 51
179.812754036894205
  0
ENDSEC
  0
EOF
