  0
SECTION
  2
HEADER
  9
$ACADVER
  1
AC1009
  9
$INSBASE
 10
105.8100347759285995
 20
-27.14824883697597
 30
0.0
  9
$EXTMIN
 10
104.8170364911593992
 20
-27.1532588723204888
 30
0.0
  9
$EXTMAX
 10
106.8030330606977003
 20
-21.5360448554869208
 30
0.0
  9
$LIMMIN
 10
0.0
 20
0.0
  9
$LIMMAX
 10
11.6929133858000007
 20
8.2677165353999982
  9
$ORTHOMODE
 70
     0
  9
$REGENMODE
 70
     1
  9
$FILLMODE
 70
     1
  9
$QTEXTMODE
 70
     0
  9
$MIRRTEXT
 70
     0
  9
$DRAGMODE
 70
     2
  9
$LTSCALE
 40
0.6431102362
  9
$OSMODE
 70
  4095
  9
$ATTMODE
 70
     1
  9
$TEXTSIZE
 40
0.2
  9
$TRACEWID
 40
0.05
  9
$TEXTSTYLE
  7
STANDARD
  9
$CLAYER
  8
0
  9
$CELTYPE
  6
BYLAYER
  9
$CECOLOR
 62
   256
  9
$DIMSCALE
 40
1.0
  9
$DIMASZ
 40
0.1875
  9
$DIMEXO
 40
0.0625
  9
$DIMDLI
 40
0.4443307087
  9
$DIMRND
 40
0.0
  9
$DIMDLE
 40
0.0
  9
$DIMEXE
 40
0.125
  9
$DIMTP
 40
0.01
  9
$DIMTM
 40
0.01
  9
$DIMTXT
 40
1.0
  9
$DIMCEN
 40
0.1052362205
  9
$DIMTSZ
 40
0.0
  9
$DIMTOL
 70
     1
  9
$DIMLIM
 70
     0
  9
$DIMTIH
 70
     1
  9
$DIMTOH
 70
     1
  9
$DIMSE1
 70
     0
  9
$DIMSE2
 70
     0
  9
$DIMTAD
 70
     0
  9
$DIMZIN
 70
     0
  9
$DIMBLK
  1

  9
$DIMASO
 70
     1
  9
$DIMSHO
 70
     1
  9
$DIMPOST
  1
\X
  9
$DIMAPOST
  1

  9
$DIMALT
 70
     1
  9
$DIMALTD
 70
     2
  9
$DIMALTF
 40
25.3999999999999986
  9
$DIMLFAC
 40
1.0
  9
$DIMTOFL
 70
     0
  9
$DIMTVP
 40
0.0
  9
$DIMTIX
 70
     0
  9
$DIMSOXD
 70
     0
  9
$DIMSAH
 70
     0
  9
$DIMBLK1
  1

  9
$DIMBLK2
  1

  9
$DIMSTYLE
  2
STANDARD
  9
$DIMCLRD
 70
     0
  9
$DIMCLRE
 70
     0
  9
$DIMCLRT
 70
     0
  9
$DIMTFAC
 40
1.0
  9
$DIMGAP
 40
0.09
  9
$LUNITS
 70
     2
  9
$LUPREC
 70
     4
  9
$SKETCHINC
 40
0.1
  9
$FILLETRAD
 40
0.0
  9
$AUNITS
 70
     0
  9
$AUPREC
 70
     0
  9
$MENU
  1
.
  9
$ELEVATION
 40
0.0
  9
$PELEVATION
 40
0.0
  9
$THICKNESS
 40
0.0
  9
$LIMCHECK
 70
     0
  9
$BLIPMODE
 70
     0
  9
$CHAMFERA
 40
0.0
  9
$CHAMFERB
 40
0.0
  9
$SKPOLY
 70
     0
  9
$TDCREATE
 40
2458172.4620254631154239
  9
$TDUPDATE
 40
2459120.8650000002235174
  9
$TDINDWG
 40
0.1457466782
  9
$TDUSRTIMER
 40
0.1457466782
  9
$USRTIMER
 70
     1
  9
$ANGBASE
 50
0.0
  9
$ANGDIR
 70
     0
  9
$PDMODE
 70
     0
  9
$PDSIZE
 40
0.3125
  9
$PLINEWID
 40
0.0
  9
$COORDS
 70
     1
  9
$SPLFRAME
 70
     0
  9
$SPLINETYPE
 70
     6
  9
$SPLINESEGS
 70
     8
  9
$ATTDIA
 70
     1
  9
$ATTREQ
 70
     1
  9
$HANDLING
 70
     1
  9
$HANDSEED
  5
9BAA
  9
$SURFTAB1
 70
     6
  9
$SURFTAB2
 70
     6
  9
$SURFTYPE
 70
     6
  9
$SURFU
 70
     6
  9
$SURFV
 70
     6
  9
$UCSNAME
  2

  9
$UCSORG
 10
0.0
 20
0.0
 30
0.0
  9
$UCSXDIR
 10
1.0
 20
0.0
 30
0.0
  9
$UCSYDIR
 10
0.0
 20
1.0
 30
0.0
  9
$PUCSNAME
  2

  9
$PUCSORG
 10
0.0
 20
0.0
 30
0.0
  9
$PUCSXDIR
 10
1.0
 20
0.0
 30
0.0
  9
$PUCSYDIR
 10
0.0
 20
1.0
 30
0.0
  9
$USERI1
 70
     0
  9
$USERI2
 70
     0
  9
$USERI3
 70
     0
  9
$USERI4
 70
     0
  9
$USERI5
 70
     0
  9
$USERR1
 40
0.0
  9
$USERR2
 40
0.0
  9
$USERR3
 40
0.0
  9
$USERR4
 40
0.0
  9
$USERR5
 40
0.0
  9
$WORLDVIEW
 70
     1
  9
$SHADEDGE
 70
     3
  9
$SHADEDIF
 70
    70
  9
$TILEMODE
 70
     1
  9
$MAXACTVP
 70
    64
  9
$PLIMCHECK
 70
     0
  9
$PEXTMIN
 10
1.0000000000000000E+20
 20
1.0000000000000000E+20
 30
1.0000000000000000E+20
  9
$PEXTMAX
 10
-1.0000000000000000E+20
 20
-1.0000000000000000E+20
 30
-1.0000000000000000E+20
  9
$PLIMMIN
 10
0.0
 20
0.0
  9
$PLIMMAX
 10
12.0
 20
9.0
  9
$UNITMODE
 70
     0
  9
$VISRETAIN
 70
     1
  9
$PLINEGEN
 70
     0
  9
$PSLTSCALE
 70
     1
  0
ENDSEC
  0
SECTION
  2
TABLES
  0
TABLE
  2
VPORT
 70
     1
  0
VPORT
  2
*ACTIVE
 70
     0
 10
0.0
 20
0.0
 11
1.0
 21
1.0
 12
0.0
 22
0.0
 13
0.0
 23
0.0
 14
1.0
 24
1.0
 15
0.0
 25
0.0
 16
0.0
 26
0.0
 36
21.5614079938903984
 17
105.8100357055664063
 27
-24.3446519733916915
 37
0.0
 40
5.9579574343373398
 41
2.8398203592814371
 42
50.0
 43
0.0
 44
0.0
 50
0.0
 51
0.0
 71
     0
 72
   100
 73
     1
 74
     1
 75
     0
 76
     0
 77
     0
 78
     0
  0
ENDTAB
  0
TABLE
  2
LTYPE
 70
     2
  0
LTYPE
  2
CONTINUOUS
 70
     0
  3
Solid line
 72
    65
 73
     0
 40
0.0
  0
LTYPE
  2
PHANTOM2
 70
     0
  3
___ _ _ ___ _ _ ___ _ _ ___ _ _
 72
    65
 73
     6
 40
1.25
 49
0.625
 49
-0.125
 49
0.125
 49
-0.125
 49
0.125
 49
-0.125
  0
ENDTAB
  0
TABLE
  2
LAYER
 70
     2
  0
LAYER
  2
0
 70
     0
 62
   255
  6
CONTINUOUS
  0
LAYER
  2
DEFPOINTS
 70
     0
 62
     7
  6
CONTINUOUS
  0
ENDTAB
  0
TABLE
  2
STYLE
 70
     1
  0
STYLE
  2
STANDARD
 70
     0
 40
0.0
 41
0.8
 50
0.0
 71
     0
 42
0.2
  3
txt
  4

  0
ENDTAB
  0
TABLE
  2
VIEW
 70
     0
  0
ENDTAB
  0
TABLE
  2
UCS
 70
     0
  0
ENDTAB
  0
TABLE
  2
APPID
 70
    10
  0
APPID
  2
ACAD
 70
     0
  0
APPID
  2
ACAD_MLEADERVER
 70
     0
  0
APPID
  2
ACAD_EXEMPT_FROM_CAD_STANDARDS
 70
     0
  0
APPID
  2
ACAD_DSTYLE_DIMJAG
 70
     0
  0
APPID
  2
ACAD_DSTYLE_DIMTALN
 70
     0
  0
APPID
  2
ACAD_NAV_VCDISPLAY
 70
     0
  0
APPID
  2
ACAECLAYERSTANDARD
 70
     0
  0
APPID
  2
ACCMTRANSPARENCY
 70
     0
  0
APPID
  2
ACDBATTR
 70
     0
  0
APPID
  2
ACADANNOTATIVE
 70
     0
  0
ENDTAB
  0
TABLE
  2
DIMSTYLE
 70
     2
  0
DIMSTYLE
  2
STANDARD
 70
     0
  3

  4

  5

  6

  7

 40
1.0
 41
0.1875
 42
0.0625
 43
0.38
 44
0.125
 45
0.0
 46
0.0
 47
0.01
 48
0.01
140
0.15625
141
0.09
142
0.0
143
25.3999999999999986
144
1.0
145
0.0
146
1.0
147
0.09
 71
     1
 72
     0
 73
     1
 74
     1
 75
     0
 76
     0
 77
     0
 78
     4
170
     0
171
     2
172
     0
173
     0
174
     0
175
     0
176
     0
177
     0
178
     0
  0
DIMSTYLE
  2
ANNOTATIVE
 70
     0
  3

  4

  5

  6

  7

 40
0.0
 41
0.18
 42
0.0625
 43
0.38
 44
0.18
 45
0.0
 46
0.0
 47
0.0
 48
0.0
140
0.18
141
0.09
142
0.0
143
25.3999999999999986
144
1.0
145
0.0
146
1.0
147
0.09
 71
     0
 72
     0
 73
     1
 74
     1
 75
     0
 76
     0
 77
     0
 78
     0
170
     0
171
     2
172
     0
173
     0
174
     0
175
     0
176
     0
177
     0
178
     0
  0
ENDTAB
  0
ENDSEC
  0
SECTION
  2
BLOCKS
  0
BLOCK
  8
0
  2
$MODEL_SPACE
 70
     0
 10
0.0
 20
0.0
 30
0.0
  3
$MODEL_SPACE
  1

  0
ENDBLK
  5
21
  8
0
  0
BLOCK
 67
     1
  8
0
  2
$PAPER_SPACE
 70
     0
 10
0.0
 20
0.0
 30
0.0
  3
$PAPER_SPACE
  1

  0
ENDBLK
  5
1D
 67
     1
  8
0
  0
BLOCK
  8
0
  2
_FILLED
 70
     0
 10
0.0
 20
0.0
 30
0.0
  3
_FILLED
  1

  0
SOLID
  5
3BD9
  8
0
  6
BYBLOCK
 62
     0
 10
0.0
 20
0.0
 30
0.0
 11
-1.0
 21
0.1666666667
 31
0.0
 12
-1.0
 22
-0.1666666667
 32
0.0
 13
-1.0
 23
-0.1666666667
 33
0.0
  0
ENDBLK
  5
3BDA
  8
0
  6
BYBLOCK
 62
     0
  0
BLOCK
  8
0
  2
A$C226D500F
 70
     2
 10
0.0
 20
0.0
 30
0.0
  3
A$C226D500F
  1

  0
ATTDEF
  5
564D
  8
DEFPOINTS
 10
0.000291919742196
 20
0.0005288174062983
 30
0.0
 40
0.001
  1
BATHROOM SINK FAUCET
  3

  2
PRODUCT
 70
     0
1001
ACDBATTR
1070
     0
1070
     1
  0
ATTDEF
  5
564E
  8
DEFPOINTS
 10
0.000291919742196
 20
0.0021954840729634
 30
0.0
 40
0.001
  1
ALEO
  3

  2
TRADENAME
 70
     0
1001
ACDBATTR
1070
     0
1070
     1
  0
ATTDEF
  5
564F
  8
DEFPOINTS
 10
0.000291919742196
 20
0.0038621507396286
 30
0.0
 40
0.001
  1
K-98868T-4
  3

  2
MODELNUMBER
 70
     0
1001
ACDBATTR
1070
     0
1070
     1
  0
ENDBLK
  5
5653
  8
0
  0
BLOCK
  8
0
  2
A$C393A5527
 70
     2
 10
0.0
 20
0.0
 30
0.0
  3
A$C393A5527
  1

  0
ATTDEF
  5
5655
  8
DEFPOINTS
 10
0.0000000879847164
 20
-0.0000001116000696
 30
0.0
 40
0.001
  1
BATHROOM SINK FAUCET
  3

  2
PRODUCT
 70
     0
1001
ACDBATTR
1070
     0
1070
     1
  0
ATTDEF
  5
5656
  8
DEFPOINTS
 10
0.0000000879847164
 20
0.0016665550665955
 30
0.0
 40
0.001
  1
ALEO
  3

  2
TRADENAME
 70
     0
1001
ACDBATTR
1070
     0
1070
     1
  0
ATTDEF
  5
5657
  8
DEFPOINTS
 10
0.0000000879847164
 20
0.0033332217332607
 30
0.0
 40
0.001
  1
K-98868T-4
  3

  2
MODELNUMBER
 70
     0
1001
ACDBATTR
1070
     0
1070
     1
  0
ENDBLK
  5
565B
  8
0
  0
ENDSEC
  0
SECTION
  2
ENTITIES
  0
ATTDEF
  5
383D
  8
DEFPOINTS
 10
105.8097991015913948
 20
-27.1499255389871585
 30
0.0
 40
0.001
  1
K-72275AR-4ND
  3

  2
MODELNUMBER
 70
     0
1001
ACDBATTR
1070
     0
1070
     1
  0
ATTDEF
  5
383E
  8
DEFPOINTS
 10
105.8097991015913948
 20
-27.1515922056538201
 30
0.0
 40
0.001
  1
ALEO
  3

  2
TRADENAME
 70
     0
1001
ACDBATTR
1070
     0
1070
     1
  0
ATTDEF
  5
383F
  8
DEFPOINTS
 10
105.8097991015913948
 20
-27.1532588723204888
 30
0.0
 40
0.001
  1
BATHROOM SINK FAUCET
  3

  2
PRODUCT
 70
     0
1001
ACDBATTR
1070
     0
1070
     1
  0
LINE
  5
839E
  8
0
 10
106.8030330606977003
 20
-27.14824883697597
 30
0.0
 11
104.8170364911593992
 21
-27.14824883697597
 31
0.0
  0
LINE
  5
839F
  8
0
 10
104.8488756031124041
 20
-22.9828945062759686
 30
0.0
 11
106.7711939434564954
 21
-22.9828945062759615
 31
0.0
  0
ARC
  5
83A0
  8
0
 10
105.8100333537285991
 20
-22.3628165089857696
 30
0.0
 40
0.1259842519999983
 50
90.0003335624669631
 51
180.0000000000003979
  0
ARC
  5
83A1
  8
0
 10
105.8172703378925945
 20
-22.3783531382543792
 30
0.0
 40
0.1341241388196427
 50
173.3480564206780912
 51
221.9705393152358113
  0
ARC
  5
83A2
  8
0
 10
105.810046886009502
 20
-22.3824776551310585
 30
0.0
 40
0.1260076690933382
 50
222.7727212156686107
 51
269.9904820764814986
  0
ARC
  5
83A3
  8
0
 10
106.7668574302670947
 20
-23.0191153069243803
 30
0.0
 40
0.0364794702024773
 50
7.4000998528489479
 51
83.1727943325852266
  0
ARC
  5
83A6
  8
0
 10
106.7387637656105994
 20
-22.8570115571293115
 30
0.0
 40
0.0573788949116363
 50
346.792187568179088
 51
350.9645258304378217
  0
ARC
  5
83A7
  8
0
 10
105.8100333551285956
 20
-22.3628165089857696
 30
0.0
 40
0.1259842519999983
 50
359.9999999999992042
 51
89.9996664375330369
  0
ARC
  5
83A8
  8
0
 10
105.8027963709645007
 20
-22.3783531382543792
 30
0.0
 40
0.1341241388196427
 50
318.029460684764274
 51
6.6519435793218467
  0
ARC
  5
83A9
  8
0
 10
105.8100198228477069
 20
-22.3824776551310585
 30
0.0
 40
0.1260076690933382
 50
270.0095179235185014
 51
317.2272787843314177
  0
ARC
  5
83AA
  8
0
 10
106.6236228970562934
 20
-22.4228326090025405
 30
0.0
 40
0.8186922569797673
 50
83.5131513128969942
 51
89.6812194043112072
  0
ARC
  5
83AB
  8
0
 10
106.707652233437102
 20
-21.6838084695549291
 30
0.0
 40
0.074906260836468
 50
62.5007527330656814
 51
83.5131513128953316
  0
ARC
  5
83AC
  8
0
 10
106.7175159922673942
 20
-21.6529292066447994
 30
0.0
 40
0.0433131157323133
 50
22.2856829468598399
 51
55.1938016154170228
  0
ARC
  5
83AD
  8
0
 10
106.5465013815357054
 20
-21.7198215401877412
 30
0.0
 40
0.2269402167146326
 50
6.3261858544986689
 51
21.5390474335168918
  0
ARC
  5
83B0
  8
0
 10
106.5731952339955058
 20
-21.6003904152330293
 30
0.0
 40
0.055111248021346
 50
304.6352143028237833
 51
356.0852019671929725
  0
ARC
  5
83B1
  8
0
 10
106.4036351439742987
 20
-21.3549219778678108
 30
0.0
 40
0.3534489390201511
 50
283.1312095437157836
 51
304.6352143028237833
  0
ARC
  5
83B2
  8
0
 10
106.0688468683243002
 20
-20.1773293574579391
 30
0.0
 40
1.577393504728035
 50
277.5158978265542942
 51
285.2568414708443925
  0
ARC
  5
83B3
  8
0
 10
105.9017441230814995
 20
-19.0766700805283804
 30
0.0
 40
2.6905413432253851
 50
274.3397482406230097
 51
277.9779983758220965
  0
LINE
  5
83B4
  8
0
 10
106.8030330606977003
 20
-27.14824883697597
 30
0.0
 11
106.8030330606977003
 21
-23.0144168487513383
 31
0.0
  0
LINE
  5
83B5
  8
0
 10
106.6281778897817958
 20
-21.6041530235236401
 30
0.0
 11
104.9918916620753038
 21
-21.6041530235236401
 31
0.0
  0
ARC
  5
83B6
  8
0
 10
104.8532121230029048
 20
-23.0191153076240198
 30
0.0
 40
0.0364794716937706
 50
96.827215987310737
 51
172.5998993432559132
  0
ARC
  5
83B9
  8
0
 10
104.884734560066093
 20
-22.8566356042897709
 30
0.0
 40
0.0607761678103901
 50
188.5386520308483114
 51
192.8001030094098098
  0
ARC
  5
83BA
  8
0
 10
104.9964466548009057
 20
-22.4228326090025405
 30
0.0
 40
0.8186922569797673
 50
90.318780595688807
 51
96.4868486871029916
  0
ARC
  5
83BB
  8
0
 10
104.912417318420097
 20
-21.6838084695549291
 30
0.0
 40
0.074906260836468
 50
96.4868486871046827
 51
117.4992472669343044
  0
ARC
  5
83BC
  8
0
 10
104.9025535595897054
 20
-21.6529292066447994
 30
0.0
 40
0.0433131157323133
 50
124.8061983845829985
 51
157.7143170531402063
  0
ARC
  5
83BD
  8
0
 10
105.0735681703213942
 20
-21.7198215401877412
 30
0.0
 40
0.2269402167146326
 50
158.4609525664830869
 51
173.6738141455012965
  0
ARC
  5
83C0
  8
0
 10
105.0468743178616933
 20
-21.6003904152330293
 30
0.0
 40
0.055111248021346
 50
183.9147980328066012
 51
235.364785697176103
  0
ARC
  5
83C1
  8
0
 10
105.2164344078828009
 20
-21.3549219778678108
 30
0.0
 40
0.3534489390201511
 50
235.364785697176103
 51
256.8687904562842164
  0
ARC
  5
83C2
  8
0
 10
105.5512226835328988
 20
-20.1773293574579391
 30
0.0
 40
1.577393504728035
 50
254.7431585291556075
 51
262.4841021734457058
  0
ARC
  5
83C3
  8
0
 10
105.7183254287756995
 20
-19.0766700805283804
 30
0.0
 40
2.6905413432253851
 50
262.0220016241779035
 51
265.6602517593769903
  0
LINE
  5
83C4
  8
0
 10
104.8170364911593992
 20
-27.14824883697597
 30
0.0
 11
104.8170364911593992
 21
-23.0144168487513383
 31
0.0
  0
ARC
  5
83C5
  8
0
 10
105.8100347759285995
 20
-53.0339671272678075
 30
0.0
 40
31.4979222717808902
 50
88.2434908909005173
 51
91.7565091090994969
  0
ARC
  5
83C6
  8
0
 10
105.8100347759285995
 20
-17.9797896509537694
 30
0.0
 40
3.7912259798665282
 50
265.5326258210989749
 51
274.4673741789010251
  0
ARC
  5
83C7
  8
0
 10
106.3282105000859019
 20
-22.9898048191065811
 30
0.0
 40
0.3955165649003603
 50
1.001100691412834
 51
16.1272215432560984
  0
ARC
  5
83C8
  8
0
 10
105.3024739852006064
 20
-22.9917286501208089
 30
0.0
 40
0.4062230260711718
 50
164.0268996678267115
 51
178.7538887987385863
  0
LINE
  5
83C9
  8
0
 10
104.8333835718785991
 20
-22.8799417503759699
 30
0.0
 11
106.7865554902786016
 21
-22.8799417503759699
 31
0.0
  0
ARC
  5
83CA
  8
0
 10
106.7865554902786016
 20
-22.8734355283442703
 30
0.0
 40
0.0065062220316943
 50
269.9999999999992042
 51
324.8690550707281091
  0
ARC
  5
83CB
  8
0
 10
106.7592861905083055
 20
-22.8604247667239484
 30
0.0
 40
0.0366449447858387
 50
332.7922304307033983
 51
344.6557186577547895
  0
ARC
  5
83CC
  8
0
 10
104.8330797559815011
 20
-22.8743013011859091
 30
0.0
 40
0.0056486255996482
 50
210.4155248530761924
 51
273.0831876344616944
  0
ARC
  5
83CD
  8
0
 10
104.8603464377325025
 20
-22.8606282453279697
 30
0.0
 40
0.0361410939440233
 50
195.1943002689422997
 51
207.2227321047571991
  0
LINE
  5
83FB
  8
0
 10
106.7105187757131972
 20
-23.1851499261102809
 30
0.0
 11
104.9080592409542021
 21
-23.1851499261102809
 31
0.0
  0
ARC
  5
8401
  8
0
 10
103.8401034656011035
 20
-23.9567874253718891
 30
0.0
 40
1.3840892259436861
 50
26.5057195037565201
 51
33.8834685327069707
  0
ARC
  5
8402
  8
0
 10
106.7084625197410048
 20
-23.2291465006460385
 30
0.0
 40
0.0440445996633377
 50
13.3081776483377396
 51
87.324129878442676
  0
ARC
  5
8403
  8
0
 10
100.7918751049831059
 20
-23.8786684984348803
 30
0.0
 40
6.0082044838265416
 50
0.0020770696025371
 51
5.2503154491314152
  0
ARC
  5
8404
  8
0
 10
106.2819732284278018
 20
-23.37705893789866
 30
0.0
 40
0.4952480107785686
 50
5.5832699175098659
 51
18.6106250216940303
  0
ARC
  5
8405
  8
0
 10
104.9100372586133005
 20
-23.2246807957871013
 30
0.0
 40
0.0395803260631451
 50
92.8645365536988834
 51
151.316811675438089
  0
ARC
  5
8406
  8
0
 10
105.120146895217502
 20
-23.3217020335246907
 30
0.0
 40
0.2709307135449841
 50
154.6452325925660034
 51
172.2916892385034942
  0
ARC
  5
8407
  8
0
 10
107.0640786391727062
 20
-23.6093511458116794
 30
0.0
 40
2.2360111255282309
 50
171.6687441859141074
 51
177.8312184771455975
  0
ARC
  5
8408
  8
0
 10
446.4493824855628077
 20
-35.8891312656032966
 30
0.0
 40
341.8433952073644946
 50
177.9271724892365114
 51
177.9864896744668101
  0
ARC
  5
8409
  8
0
 10
104.7953477280104977
 20
-23.8780613521610405
 30
0.0
 40
0.0217067637195682
 50
357.6664707789278168
 51
359.0752042945420044
  0
ARC
  5
840A
  8
0
 10
107.8219683482486033
 20
-23.8299870404028695
 30
0.0
 40
1.023037325880676
 50
182.7152501470499999
 51
185.1325946753723031
  0
ARC
  5
8A82
  8
0
 10
106.7763551200539069
 20
-21.5704770842259386
 30
0.0
 40
0.0196499617409216
 50
13.88784446790328
 51
92.4616240275107231
  0
ARC
  5
8A8B
  8
0
 10
104.6905816807497018
 20
-21.9433524050026492
 30
0.0
 40
2.09626367358476
 50
1.7375593163444261
 51
6.8091151714507916
  0
ARC
  5
8A8C
  8
0
 10
115.7073825784178069
 20
-21.7014647605676387
 30
0.0
 40
8.9232831288814918
 50
181.1450939081746867
 51
182.8877491772408916
  0
ARC
  5
8A94
  8
0
 10
104.8437144318032068
 20
-21.5704770842259386
 30
0.0
 40
0.0196499617409216
 50
87.5383759724892769
 51
166.1956064133534028
  0
ARC
  5
8A9A
  8
0
 10
106.9294878711073977
 20
-21.9433524050026492
 30
0.0
 40
2.09626367358476
 50
173.1908848285495992
 51
178.2624406836555124
  0
ARC
  5
8A9B
  8
0
 10
95.9126869734394063
 20
-21.7014647605676387
 30
0.0
 40
8.9232831288814918
 50
357.1113780132716897
 51
358.8549060918247733
  0
ARC
  5
8AAD
  8
0
 10
105.8109817577940959
 20
-23.0219353116544312
 30
0.0
 40
0.8564764553918314
 50
260.0803668037959255
 51
277.4321118639707038
  0
ARC
  5
8AAE
  8
0
 10
105.8637986179152932
 20
-23.3836656126429787
 30
0.0
 40
0.4909847273736217
 50
276.7806091234522796
 51
290.762139319919811
  0
ARC
  5
8AAF
  8
0
 10
105.9827799085476983
 20
-23.6923734293926813
 30
0.0
 40
0.1601571339819629
 50
290.1106365794007047
 51
314.5118046620320911
  0
ARC
  5
8AB0
  8
0
 10
106.044747472150604
 20
-23.7554060977530916
 30
0.0
 40
0.0717654136710997
 50
314.5118046620323184
 51
347.368499802001395
  0
ARC
  5
8AB1
  8
0
 10
106.0521467559159987
 20
-23.7570643054024409
 30
0.0
 40
0.0641826006805472
 50
347.3684998020005992
 51
357.5597612840641091
  0
LINE
  5
8AB2
  8
0
 10
106.1162711541786052
 20
-23.759797028875969
 30
0.0
 11
106.1248829406786029
 21
-23.6675646110759708
 31
0.0
  0
ARC
  5
8AB3
  8
0
 10
106.0849980026497974
 20
-23.6660464643762403
 30
0.0
 40
0.0398988441517891
 50
357.8195715544787845
 51
52.8878584872299626
  0
ARC
  5
8AB4
  8
0
 10
105.9854749406266023
 20
-23.7874819446018186
 30
0.0
 40
0.1968825639819532
 50
51.1141597760983615
 51
73.8458843628525017
  0
ARC
  5
8AB5
  8
0
 10
105.8165232067685935
 20
-24.3769303366972991
 30
0.0
 40
0.8100655539597084
 50
73.9672936097088467
 51
93.5194773328300357
  0
ARC
  5
8AB6
  8
0
 10
105.7912890651303996
 20
-24.3310427121141295
 30
0.0
 40
0.7630433719390802
 50
91.8395364579671138
 51
104.8735994263906974
  0
ARC
  5
8AB7
  8
0
 10
105.6539731704828995
 20
-23.8263285682074013
 30
0.0
 40
0.2400134974470146
 50
104.1189275939512981
 51
125.1201352938229974
  0
ARC
  5
8AB8
  8
0
 10
105.5426025297741006
 20
-23.6695993581862716
 30
0.0
 40
0.0477555561556521
 50
124.0040709585454977
 51
174.229571140288698
  0
LINE
  5
8AB9
  8
0
 10
105.4950889637785991
 20
-23.6647978802759589
 30
0.0
 11
105.5039517845786037
 21
-23.7624869924759707
 31
0.0
  0
ARC
  5
8ABA
  8
0
 10
105.5736729521140944
 20
-23.7561615566119499
 30
0.0
 40
0.0700075163206241
 50
185.1839536523598042
 51
225.2377812737151999
  0
ARC
  5
8ABB
  8
0
 10
105.6320699747608955
 20
-23.6993578230915887
 30
0.0
 40
0.1514684569188784
 50
224.683731487796706
 51
247.7116571736781907
  0
ARC
  5
8ABC
  8
0
 10
105.7341419910052025
 20
-23.4608131419902683
 30
0.0
 40
0.4109225786295126
 50
247.1576073877600095
 51
260.092496170407685
  0
ARC
  5
8ABD
  8
0
 10
105.5570263041473993
 20
-23.5980798024157714
 30
0.0
 40
0.1399256424839359
 50
221.9796995633938081
 51
246.2424932578520043
  0
ARC
  5
8ABE
  8
0
 10
105.4838292174985952
 20
-23.6646624270574009
 30
0.0
 40
0.0409808392731557
 50
164.1875932864944048
 51
221.2286400619597941
  0
ARC
  5
8ABF
  8
0
 10
105.5255082691710982
 20
-23.6911084558742608
 30
0.0
 40
0.0894059148560667
 50
113.7652148011496962
 51
155.1213718624763942
  0
ARC
  5
8AC0
  8
0
 10
105.7324509457121025
 20
-24.1377727875717802
 30
0.0
 40
0.5816667525425387
 50
93.9234037683535377
 51
114.6905631165187032
  0
ARC
  5
8AC1
  8
0
 10
105.808800482586193
 20
-24.6372647879191788
 30
0.0
 40
1.0860244065421181
 50
78.500701726738555
 51
96.1394465490625976
  0
ARC
  5
8AC2
  8
0
 10
105.9468288480489946
 20
-23.9773123151948191
 30
0.0
 40
0.4118188423241811
 50
66.5395084777518235
 51
79.0144133458969549
  0
ARC
  5
8AC3
  8
0
 10
106.0289883211361968
 20
-23.7895836260990912
 30
0.0
 40
0.2069006875843093
 50
53.4365258094896305
 51
66.7139252836866632
  0
ARC
  5
8AC4
  8
0
 10
106.1077883918515994
 20
-23.6833378059481099
 30
0.0
 40
0.074622097312471
 50
28.7797222594801205
 51
53.4365258094896305
  0
ARC
  5
8AC5
  8
0
 10
106.1416079343023
 20
-23.6647609387560891
 30
0.0
 40
0.0360363299073151
 50
332.664968146474223
 51
28.7797222594797901
  0
ARC
  5
8AC6
  8
0
 10
106.1047636163586958
 20
-23.6441473070859409
 30
0.0
 40
0.0782445228905129
 50
304.1050110728336904
 51
331.6447222711516929
  0
ARC
  5
8AC7
  8
0
 10
106.0392758360700043
 20
-23.5560417105654913
 30
0.0
 40
0.1879785756998016
 50
295.2357543429441762
 51
305.5751620491315066
  0
ARC
  5
8AC8
  8
0
 10
105.8099809552525983
 20
-25.0529466635813307
 30
0.0
 40
1.5602283154557639
 50
82.4287567273598967
 51
97.4478771071228635
  0
ARC
  5
8AC9
  8
0
 10
105.8840478504272937
 20
-24.4957776362424404
 30
0.0
 40
0.9981578306814816
 50
74.5775812972088801
 51
82.4292845988222638
  0
ARC
  5
8ACA
  8
0
 10
106.0066810458620949
 20
-24.0512400926318008
 30
0.0
 40
0.5370151973217459
 50
65.4376927259731929
 51
74.5775812972088801
  0
ARC
  5
8ACB
  8
0
 10
106.1364904317288023
 20
-23.7672182968448418
 30
0.0
 40
0.2247351032697435
 50
44.8971332571500383
 51
65.4376927259731929
  0
ARC
  5
8ACC
  8
0
 10
106.2564808466493957
 20
-23.6476579630220094
 30
0.0
 40
0.0553468713980101
 50
345.5943003346108071
 51
44.8971332571500383
  0
ARC
  5
8ACD
  8
0
 10
106.2426852133237958
 20
-23.6404983471950203
 30
0.0
 40
0.0705769165864474
 50
317.9235252509125758
 51
342.7498590795619862
  0
ARC
  5
8ACE
  8
0
 10
106.1555159505835064
 20
-23.5546414700411084
 30
0.0
 40
0.192886163601874
 50
294.4394553217027237
 51
316.3450316810100844
  0
ARC
  5
8ACF
  8
0
 10
105.9882241729394963
 20
-23.1994469406360899
 30
0.0
 40
0.5854931848094492
 50
282.4827434169130811
 51
294.9627258354316268
  0
ARC
  5
8AD0
  8
0
 10
105.7348101412873973
 20
-24.48893077483865
 30
0.0
 40
0.9912279894359045
 50
97.3654212813196551
 51
105.4587849253667997
  0
ARC
  5
8AD1
  8
0
 10
105.5873930763440995
 20
-23.9754769802941006
 30
0.0
 40
0.4570862679665809
 50
104.8037833217637029
 51
119.3083923093425938
  0
ARC
  5
8AD2
  8
0
 10
105.4286541304905995
 20
-23.6958706845140483
 30
0.0
 40
0.1355747830464409
 50
118.6533907057389996
 51
146.3577279682750998
  0
ARC
  5
8AD3
  8
0
 10
105.361500793034196
 20
-23.6483484815639997
 30
0.0
 40
0.0533933525576778
 50
148.890496601026598
 51
182.0364034807699056
  0
ARC
  5
8AD4
  8
0
 10
105.3681974485182025
 20
-23.6454462924655786
 30
0.0
 40
0.0602477618644795
 50
184.5691721135225123
 51
220.1847226561505124
  0
ARC
  5
8AD5
  8
0
 10
105.4631353583341991
 20
-23.5582758297352086
 30
0.0
 40
0.1890996986612852
 50
221.8018221720400049
 51
246.5644059249817985
  0
ARC
  5
8AD6
  8
0
 10
105.6344422293017971
 20
-23.190735129044981
 30
0.0
 40
0.5945546753697536
 50
245.5045103258790959
 51
257.4568959704822078
  0
ARC
  5
8AD8
  8
0
 10
101.2259534682491022
 20
-19.244812247992261
 30
0.0
 40
6.7403585341950594
 50
318.8281662647279973
 51
320.1138550636890159
  0
ARC
  5
8AD9
  8
0
 10
104.3673414043911976
 20
-22.1314213497081305
 30
0.0
 40
2.4869242321722989
 50
324.738023650861976
 51
330.9339055732747852
  0
ARC
  5
8ADA
  8
0
 10
131.5722878347507958
 20
-34.7163748487418573
 30
0.0
 40
27.4953257874094099
 50
155.2040096338537012
 51
155.5580741604472905
  0
ARC
  5
8ADB
  8
0
 10
104.4489285860434933
 20
-24.3695688836450408
 30
0.0
 40
1.1099865947654
 50
38.2999121521957377
 51
42.922856511330842
  0
ARC
  5
8ADC
  8
0
 10
106.4615186151100943
 20
-22.6155820744303888
 30
0.0
 40
1.56064589640058
 50
207.6191850515506871
 51
219.7563801695831103
  0
ARC
  5
8ADD
  8
0
 10
103.8401034656011035
 20
-23.9567874253718891
 30
0.0
 40
1.3840892259436861
 50
26.5057195037565485
 51
33.8834685327070417
  0
ARC
  5
8AE7
  8
0
 10
105.8132324535992979
 20
-24.8168725360148485
 30
0.0
 40
1.306091417566855
 50
81.617861029974236
 51
102.6123766924179961
  0
ARC
  5
8AE8
  8
0
 10
105.8912171084295011
 20
-24.2876198942627504
 30
0.0
 40
0.7711241613814445
 50
67.9688290540565703
 51
81.617861029974236
  0
ARC
  5
8AE9
  8
0
 10
106.1203655950452003
 20
-23.7213446622674589
 30
0.0
 40
0.1602422846740223
 50
42.9813081319987376
 51
67.9688290540565703
  0
ARC
  5
8AEA
  8
0
 10
106.1958297330161969
 20
-23.6510192284783187
 30
0.0
 40
0.0570894720253014
 50
1.074149011718573
 51
42.9813081319990502
  0
ARC
  5
8AEB
  8
0
 10
106.1828169373468
 20
-23.6390603248677102
 30
0.0
 40
0.0709329608523967
 50
302.9174274424076998
 51
351.1697997504094246
  0
ARC
  5
8AEC
  8
0
 10
106.0317354400068979
 20
-23.4229159116875998
 30
0.0
 40
0.3346097017038978
 50
284.8562466860796007
 51
304.5215199620693056
  0
ARC
  5
8AED
  8
0
 10
105.6235043936899984
 20
-23.9577383714009393
 30
0.0
 40
0.4262676147477939
 50
102.9410946171337002
 51
119.2676586703757948
  0
ARC
  5
8AEE
  8
0
 10
105.4737370478425049
 20
-23.6905027600485489
 30
0.0
 40
0.1199260898820093
 50
119.2676586703754964
 51
146.5213298436775915
  0
ARC
  5
8AEF
  8
0
 10
105.4093309299136934
 20
-23.6479077529772503
 30
0.0
 40
0.042708976143795
 50
146.5213298436769094
 51
214.7818464914109882
  0
ARC
  5
8AF0
  8
0
 10
105.4793000353894996
 20
-23.5993108282069883
 30
0.0
 40
0.1278989803591044
 50
214.7818464914109882
 51
241.8835693152988995
  0
ARC
  5
8AF1
  8
0
 10
105.6282527334838051
 20
-23.3205396491207004
 30
0.0
 40
0.443969030440962
 50
241.8835693152987005
 51
253.5439473581230914
  0
ARC
  5
8AF2
  8
0
 10
105.8100137097999038
 20
-24.5215886230683786
 30
0.0
 40
0.8079087268699932
 50
83.9561265423665049
 51
96.0382091627378855
  0
ARC
  5
8AF3
  8
0
 10
105.8298928349146024
 20
-24.3338344858003417
 30
0.0
 40
0.6191051366589106
 50
76.1776643835520844
 51
83.9561265423665049
  0
ARC
  5
8AF4
  8
0
 10
105.9131415822454017
 20
-23.9954757621577706
 30
0.0
 40
0.2706557432067573
 50
63.1117254171553768
 51
76.1776643835520844
  0
ARC
  5
8AF5
  8
0
 10
106.0017289078545986
 20
-23.8246109171604203
 30
0.0
 40
0.0782185373562985
 50
35.2054140042495334
 51
64.3835806880880881
  0
ARC
  5
8AF6
  8
0
 10
106.0433753636870051
 20
-23.7938681831135916
 30
0.0
 40
0.0264894052473773
 50
340.7918167020716282
 51
32.8037818291680807
  0
ARC
  5
8AF7
  8
0
 10
106.0218778109666005
 20
-23.7827722460517599
 30
0.0
 40
0.0505555859556075
 50
303.873231450580306
 51
336.9293716204634848
  0
ARC
  5
8AF8
  8
0
 10
105.9400277780696058
 20
-23.6608564160254815
 30
0.0
 40
0.1973986909453679
 50
285.3649353626670973
 51
303.8753154556155778
  0
ARC
  5
8AF9
  8
0
 10
105.8352744625386066
 20
-23.298992249233109
 30
0.0
 40
0.5741079851708976
 50
273.9541054607792034
 51
285.8766626488383054
  0
ARC
  5
8AFA
  8
0
 10
105.8105822684595978
 20
-23.0708160323852915
 30
0.0
 40
0.8034930432505291
 50
261.5468550356969786
 51
274.588690205563978
  0
ARC
  5
8AFB
  8
0
 10
105.7580367638806962
 20
-23.4208147471813106
 30
0.0
 40
0.4495726589286821
 50
251.425340003869195
 51
261.6137204826414973
  0
ARC
  5
8AFC
  8
0
 10
105.6777987946261987
 20
-23.660804076959991
 30
0.0
 40
0.1965258926914224
 50
239.4297207633892981
 51
251.3122491476472078
  0
ARC
  5
8AFD
  8
0
 10
105.610543561791502
 20
-23.7713411401785599
 30
0.0
 40
0.0671683846485912
 50
212.3931796929867062
 51
240.8702554312870916
  0
ARC
  5
8AFE
  8
0
 10
105.5768546131887007
 20
-23.7940159999945706
 30
0.0
 40
0.0265968884789028
 50
147.0222041276682035
 51
210.0262841187903859
  0
ARC
  5
8AFF
  8
0
 10
105.6333603162962049
 20
-23.8404864957091291
 30
0.0
 40
0.0996332165670724
 50
108.681787044941899
 51
142.2860818584244953
  0
ARC
  5
8B00
  8
0
 10
105.7654355458146966
 20
-24.1841573295049592
 30
0.0
 40
0.4677437264775238
 50
94.9558023791931731
 51
110.5237542090497982
  0
ARC
  5
8B01
  8
0
 10
105.8099747646300983
 20
-24.5858589599146313
 30
0.0
 40
0.9206897636974982
 50
79.6428131906127845
 51
100.234635838809794
  0
ARC
  5
8B02
  8
0
 10
105.9288601792003988
 20
-23.9845562573068314
 30
0.0
 40
0.3079379391413123
 50
57.1483996853922704
 51
81.2885071055882946
  0
ARC
  5
8B03
  8
0
 10
106.0702094890533971
 20
-23.7643640901387485
 30
0.0
 40
0.0462875257783295
 50
5.6624279679476137
 51
56.2793627569113184
  0
ARC
  5
8B04
  8
0
 10
105.7015421583327992
 20
-24.0193548514498687
 30
0.0
 40
0.3439866102816198
 50
99.2267037989522436
 51
119.3379302692338939
  0
ARC
  5
8B05
  8
0
 10
105.5623709637075933
 20
-23.7717389405798905
 30
0.0
 40
0.0599403803658111
 50
119.3379302692338939
 51
168.2593492492943028
  0
ARC
  5
8B06
  8
0
 10
105.6212235382534033
 20
-23.7316666931924694
 30
0.0
 40
0.0820856253538231
 50
215.6758540697032913
 51
247.1373683442494951
  0
ARC
  5
8B07
  8
0
 10
105.8103916719895068
 20
-23.3376191084849403
 30
0.0
 40
0.5191061208883445
 50
244.7956504220925922
 51
268.7077163073657857
  0
ARC
  5
8B08
  8
0
 10
105.8101540707848045
 20
-23.3386368156907196
 30
0.0
 40
0.5180833584246141
 50
268.7314480658524758
 51
287.7056643478501883
  0
ARC
  5
8B09
  8
0
 10
105.8100495936786984
 20
-23.3389175084762286
 30
0.0
 40
0.5178477689997142
 50
287.7261214689473263
 51
294.5595098858012761
  0
ARC
  5
8B0A
  8
0
 10
105.9878401794506004
 20
-23.7182217035299203
 30
0.0
 40
0.0990455954276277
 50
292.2145173262545086
 51
321.7669750152483061
  0
LINE
  5
8B0B
  8
0
 10
105.6328842393785976
 20
-23.8153441847759701
 30
0.0
 11
105.6328842393785976
 21
-23.7880272738082184
 31
0.0
  0
ARC
  5
8B0C
  8
0
 10
105.810049593728607
 20
-23.2764902889788097
 30
0.0
 40
0.5413479930971611
 50
250.8970204772782893
 51
289.1024745669304821
  0
ARC
  5
8B0D
  8
0
 10
105.8100495937786008
 20
-23.30082234817597
 30
0.0
 40
0.5413479927999943
 50
250.8970204607848018
 51
289.102454192276582
  0
LINE
  5
8B0E
  8
0
 10
105.6328842393785976
 20
-23.7880272738082184
 30
0.0
 11
105.6328842393785976
 21
-23.7825317185759708
 31
0.0
  0
LINE
  5
8B0F
  8
0
 10
105.6328842393785976
 20
-23.7825317185759708
 30
0.0
 11
105.6316513331080955
 21
-23.7821005406863115
 31
0.0
  0
LINE
  5
8B10
  8
0
 10
105.6316513331080955
 20
-23.7821005406863115
 30
0.0
 11
105.6237291750260994
 21
-23.7847431953340589
 31
0.0
  0
LINE
  5
8B11
  8
0
 10
105.6237291750260994
 20
-23.7847431953340589
 30
0.0
 11
105.6139290154786039
 21
-23.7810270894759697
 31
0.0
  0
LINE
  5
8B12
  8
0
 10
105.6139290154786039
 20
-23.7810270894759697
 30
0.0
 11
105.6126988547941039
 21
-23.7877850530906692
 31
0.0
  0
LINE
  5
8B13
  8
0
 10
105.6126988547941039
 20
-23.7877850530906692
 30
0.0
 11
105.5982447135323952
 21
-23.7818676273722183
 31
0.0
  0
LINE
  5
8B14
  8
0
 10
105.5982447135323952
 20
-23.7818676273722183
 30
0.0
 11
105.586879550733002
 21
-23.78333821066526
 31
0.0
  0
LINE
  5
8B15
  8
0
 10
105.586879550733002
 20
-23.78333821066526
 30
0.0
 11
105.5982447134793034
 21
-23.7940336568351292
 31
0.0
  0
LINE
  5
8B16
  8
0
 10
105.5982447134793034
 20
-23.7940336568351292
 30
0.0
 11
105.6126988547785999
 21
-23.799951082675971
 31
0.0
  0
LINE
  5
8B17
  8
0
 10
105.6126988547785999
 20
-23.799951082675971
 30
0.0
 11
105.6209750389785995
 21
-23.7955172196511597
 31
0.0
  0
LINE
  5
8B18
  8
0
 10
105.6209750389785995
 20
-23.7955172196511597
 30
0.0
 11
105.632340201718506
 21
-23.7837432579523984
 31
0.0
  0
LINE
  5
8B19
  8
0
 10
105.632340201718506
 20
-23.7837432579523984
 30
0.0
 11
105.6274281463721962
 21
-23.7835093012715717
 31
0.0
  0
LINE
  5
8B1A
  8
0
 10
105.6209750389785995
 20
-23.7955172196511597
 30
0.0
 11
105.6209992297408036
 21
-23.78370803201679
 31
0.0
  0
LINE
  5
8B1B
  8
0
 10
105.6205885869360941
 20
-23.7835523210689495
 30
0.0
 11
105.6126988547941039
 21
-23.7877850530906692
 31
0.0
  0
LINE
  5
8B1C
  8
0
 10
105.5982447134233979
 20
-23.781867627325731
 30
0.0
 11
105.5982447134205984
 21
-23.7940336567826591
 31
0.0
  0
LINE
  5
8B1D
  8
0
 10
105.6328842393785976
 20
-23.8153441847759701
 30
0.0
 11
105.6316511942049061
 21
-23.8149129583084012
 31
0.0
  0
LINE
  5
8B1E
  8
0
 10
105.6316511942049061
 20
-23.8149129583084012
 30
0.0
 11
105.6237291749845042
 21
-23.8090752543417814
 31
0.0
  0
LINE
  5
8B1F
  8
0
 10
105.6237291749845042
 20
-23.8090752543417814
 30
0.0
 11
105.613929015388706
 21
-23.8053591484913198
 31
0.0
  0
LINE
  5
8B20
  8
0
 10
105.613929015388706
 20
-23.8053591484913198
 30
0.0
 11
105.6126988547949992
 21
-23.7999510826671603
 31
0.0
  0
LINE
  5
8B21
  8
0
 10
105.6237291749845042
 20
-23.8090752543417814
 30
0.0
 11
105.6237291749786067
 21
-23.800179605616961
 31
0.0
  0
LINE
  5
8B22
  8
0
 10
105.6237291749786067
 20
-23.800179605616961
 30
0.0
 11
105.6202861702023057
 21
-23.800116984576519
 31
0.0
  0
LINE
  5
8B23
  8
0
 10
105.6202861702023057
 20
-23.800116984576519
 30
0.0
 11
105.6316513330738047
 21
-23.7883156754601295
 31
0.0
  0
LINE
  5
8B24
  8
0
 10
105.6316513330738047
 20
-23.7883156754601295
 30
0.0
 11
105.6328831268118051
 21
-23.7877227677082104
 31
0.0
  0
LINE
  5
8B25
  8
0
 10
105.623729174948906
 20
-23.800179605616421
 30
0.0
 11
105.6139290154968933
 21
-23.8053591485335403
 31
0.0
  0
LINE
  5
8B26
  8
0
 10
105.6316513330785938
 20
-23.8149130068759689
 30
0.0
 11
105.6316513329943945
 21
-23.7883156755409395
 31
0.0
  0
LINE
  5
8B27
  8
0
 10
105.5982447134786071
 20
-23.7715366877759706
 30
0.0
 11
105.5982447134597066
 21
-23.7540180743527216
 31
0.0
  0
LINE
  5
8B28
  8
0
 10
105.5982447134597066
 20
-23.7540180743527216
 30
0.0
 11
105.5868795506767981
 21
-23.7581256238235312
 31
0.0
  0
LINE
  5
8B29
  8
0
 10
105.5868795506767981
 20
-23.7581256238235312
 30
0.0
 11
105.5982447134786071
 21
-23.7715366878245895
 31
0.0
  0
LINE
  5
8B2A
  8
0
 10
105.5982447134786071
 20
-23.7715366878245895
 30
0.0
 11
105.6209750390116966
 21
-23.780659102952729
 31
0.0
  0
LINE
  5
8B2B
  8
0
 10
105.6209750390116966
 20
-23.780659102952729
 30
0.0
 11
105.6323402017934967
 21
-23.7764806365251786
 31
0.0
  0
LINE
  5
8B2C
  8
0
 10
105.6323402017934967
 20
-23.7764806365251786
 30
0.0
 11
105.6209750389317037
 21
-23.7632487550651916
 31
0.0
  0
LINE
  5
8B2D
  8
0
 10
105.6209750389317037
 20
-23.7632487550651916
 30
0.0
 11
105.5982447134597066
 21
-23.7540180743527216
 31
0.0
  0
LINE
  5
8B2E
  8
0
 10
105.6209750389785995
 20
-23.7632487551221487
 30
0.0
 11
105.620975038948302
 21
-23.7806591029289898
 31
0.0
  0
LINE
  5
8B2F
  8
0
 10
105.6543816586194993
 20
-23.777467664954461
 30
0.0
 11
105.6543816586110012
 21
-23.757535654790491
 31
0.0
  0
LINE
  5
8B30
  8
0
 10
105.6543816586110012
 20
-23.757535654790491
 30
0.0
 11
105.6657468213554978
 21
-23.7712392744090906
 31
0.0
  0
LINE
  5
8B31
  8
0
 10
105.6657468213554978
 20
-23.7712392744090906
 30
0.0
 11
105.6543816586194993
 21
-23.777467664954461
 31
0.0
  0
LINE
  5
8B32
  8
0
 10
105.6543816586194993
 20
-23.777467664954461
 30
0.0
 11
105.6316513329842053
 21
-23.7699972489047688
 31
0.0
  0
LINE
  5
8B33
  8
0
 10
105.6316513329842053
 20
-23.7699972489047688
 30
0.0
 11
105.6202861702786038
 21
-23.7561691069759711
 31
0.0
  0
LINE
  5
8B34
  8
0
 10
105.6202861702786038
 20
-23.7561691069759711
 30
0.0
 11
105.6316513330785938
 21
-23.7499357799004116
 31
0.0
  0
LINE
  5
8B35
  8
0
 10
105.6316513330785938
 20
-23.7499357799004116
 30
0.0
 11
105.6543816586110012
 21
-23.7575356547905017
 31
0.0
  0
LINE
  5
8B36
  8
0
 10
105.6316513330785938
 20
-23.7499357799004116
 30
0.0
 11
105.6316513293019028
 21
-23.7699972444244487
 31
0.0
  0
LINE
  5
8B37
  8
0
 10
105.6650579526771025
 20
-23.7639257157081509
 30
0.0
 11
105.6650579525785929
 21
-23.7413011548759698
 31
0.0
  0
LINE
  5
8B38
  8
0
 10
105.6650579525785929
 20
-23.7413011548759698
 30
0.0
 11
105.6536927899189067
 21
-23.7496144842652193
 31
0.0
  0
LINE
  5
8B39
  8
0
 10
105.6536927898327036
 20
-23.7496144843243613
 30
0.0
 11
105.6650579525785929
 21
-23.7639257157759616
 31
0.0
  0
LINE
  5
8B3A
  8
0
 10
105.6650579525785929
 20
-23.7639257157759616
 30
0.0
 11
105.6877882781786013
 21
-23.7698571190589085
 31
0.0
  0
LINE
  5
8B3B
  8
0
 10
105.6877882781786013
 20
-23.7698571190589085
 30
0.0
 11
105.6991534409661
 21
-23.7616118576589592
 31
0.0
  0
LINE
  5
8B3C
  8
0
 10
105.6991534409661
 20
-23.7616118576589592
 30
0.0
 11
105.6877882781786013
 21
-23.7473686689759695
 31
0.0
  0
LINE
  5
8B3D
  8
0
 10
105.6877882781786013
 20
-23.7473686689759695
 30
0.0
 11
105.6650579524421971
 21
-23.7413011549757584
 31
0.0
  0
LINE
  5
8B3E
  8
0
 10
105.6877882818653944
 20
-23.7698571163841592
 30
0.0
 11
105.6877882781853941
 21
-23.7473686690463985
 31
0.0
  0
LINE
  5
8B3F
  8
0
 10
105.6984645721785938
 20
-23.7281657992366206
 30
0.0
 11
105.6870994094468017
 21
-23.7385769665936692
 31
0.0
  0
LINE
  5
8B40
  8
0
 10
105.6870994094468017
 20
-23.7385769665936692
 30
0.0
 11
105.6984645721785938
 21
-23.7534477559771204
 31
0.0
  0
LINE
  5
8B41
  8
0
 10
105.6984645721785938
 20
-23.7534477559771204
 30
0.0
 11
105.7211948977786022
 21
-23.7579048907759613
 31
0.0
  0
LINE
  5
8B42
  8
0
 10
105.7211948977786022
 20
-23.7579048907759613
 30
0.0
 11
105.7325600605511937
 21
-23.7476182761471115
 31
0.0
  0
LINE
  5
8B43
  8
0
 10
105.7325600605511937
 20
-23.7476182761471115
 30
0.0
 11
105.7211948977786022
 21
-23.7327524211451184
 31
0.0
  0
LINE
  5
8B44
  8
0
 10
105.7211948977786022
 20
-23.7327524211451184
 30
0.0
 11
105.6984645721785938
 21
-23.7281657991208803
 31
0.0
  0
LINE
  5
8B45
  8
0
 10
105.6984645721785938
 20
-23.7281657991208803
 30
0.0
 11
105.698464572196599
 21
-23.7534477558278709
 31
0.0
  0
LINE
  5
8B46
  8
0
 10
105.7211948946968931
 20
-23.7327524205232692
 30
0.0
 11
105.7211948998682942
 21
-23.7579048888845605
 31
0.0
  0
LINE
  5
8B47
  8
0
 10
105.6984645721785938
 20
-23.769082312183901
 30
0.0
 11
105.6870994094618936
 21
-23.7767767734049116
 31
0.0
  0
LINE
  5
8B48
  8
0
 10
105.6870994094618936
 20
-23.7767767734049116
 30
0.0
 11
105.6984645721585991
 21
-23.7888254968914801
 31
0.0
  0
LINE
  5
8B49
  8
0
 10
105.6984645721585991
 20
-23.7888254968914801
 30
0.0
 11
105.7211948977786022
 21
-23.7931456081759691
 31
0.0
  0
LINE
  5
8B4A
  8
0
 10
105.7211948977786022
 20
-23.7931456081759691
 30
0.0
 11
105.7325600605434062
 21
-23.7854858574932102
 31
0.0
  0
LINE
  5
8B4B
  8
0
 10
105.7325600605434062
 20
-23.7854858574932102
 30
0.0
 11
105.7211948977786022
 21
-23.7734718382759702
 31
0.0
  0
LINE
  5
8B4C
  8
0
 10
105.7211948977786022
 20
-23.7734718382759702
 30
0.0
 11
105.6984645721785938
 21
-23.769082312183901
 31
0.0
  0
LINE
  5
8B4D
  8
0
 10
105.6984645721785938
 20
-23.769082312183901
 30
0.0
 11
105.6984645721785938
 21
-23.7888254969126791
 31
0.0
  0
LINE
  5
8B4E
  8
0
 10
105.7211948977786022
 20
-23.7734718384484687
 30
0.0
 11
105.7211949010353038
 21
-23.7931456059810493
 31
0.0
  0
LINE
  5
8B4F
  8
0
 10
105.7318711917785947
 20
-23.7783522892759684
 30
0.0
 11
105.7318711917785947
 21
-23.7560526584440304
 31
0.0
  0
LINE
  5
8B50
  8
0
 10
105.7318711917785947
 20
-23.7560526584440304
 30
0.0
 11
105.7205060289939951
 21
-23.7657649497812784
 31
0.0
  0
LINE
  5
8B51
  8
0
 10
105.7205060289939951
 20
-23.7657649497812784
 30
0.0
 11
105.7318711917785947
 21
-23.7783522893645589
 31
0.0
  0
LINE
  5
8B52
  8
0
 10
105.7318711917785947
 20
-23.7783522893645589
 30
0.0
 11
105.754601517298795
 21
-23.7812376106440411
 31
0.0
  0
LINE
  5
8B53
  8
0
 10
105.754601517298795
 20
-23.7812376106440411
 30
0.0
 11
105.7659666801362022
 21
-23.7715972225971015
 31
0.0
  0
LINE
  5
8B54
  8
0
 10
105.7659666801362022
 20
-23.7715972225971015
 30
0.0
 11
105.7546015173786031
 21
-23.7590005321410302
 31
0.0
  0
LINE
  5
8B55
  8
0
 10
105.7546015173786031
 20
-23.7590005321410302
 30
0.0
 11
105.7318711917785947
 21
-23.7560526583382803
 31
0.0
  0
LINE
  5
8B56
  8
0
 10
105.7546015137813953
 20
-23.7590005316745199
 30
0.0
 11
105.7546015173786031
 21
-23.7812376105763512
 31
0.0
  0
LINE
  5
8B57
  8
0
 10
105.7652778113785956
 20
-23.7386144096759715
 30
0.0
 11
105.7652778113548067
 21
-23.7636050121218894
 31
0.0
  0
LINE
  5
8B58
  8
0
 10
105.7652778113548067
 20
-23.7636050121218894
 30
0.0
 11
105.7880081369694949
 21
-23.7650634106418117
 31
0.0
  0
LINE
  5
8B59
  8
0
 10
105.7880081369694949
 20
-23.7650634106418117
 30
0.0
 11
105.799373299767197
 21
-23.7533698113861718
 31
0.0
  0
LINE
  5
8B5A
  8
0
 10
105.799373299767197
 20
-23.7533698113861718
 30
0.0
 11
105.7880081369885943
 21
-23.7401135672953387
 31
0.0
  0
LINE
  5
8B5B
  8
0
 10
105.7880081369885943
 20
-23.7401135672953387
 30
0.0
 11
105.7652778113785956
 21
-23.7386144096759715
 31
0.0
  0
LINE
  5
8B5C
  8
0
 10
105.7652778113785956
 20
-23.7386144096759715
 30
0.0
 11
105.7539126486078942
 21
-23.750413086618039
 31
0.0
  0
LINE
  5
8B5D
  8
0
 10
105.7539126486078942
 20
-23.750413086618039
 30
0.0
 11
105.7652778113548067
 21
-23.7636050121218894
 31
0.0
  0
LINE
  5
8B5E
  8
0
 10
105.7880081369885943
 20
-23.7401135672953387
 30
0.0
 11
105.7880081368786023
 21
-23.7650634107353618
 31
0.0
  0
LINE
  5
8B5F
  8
0
 10
105.7652778112978069
 20
-23.7986741096579912
 30
0.0
 11
105.7652778113785956
 21
-23.7790873229031412
 31
0.0
  0
LINE
  5
8B60
  8
0
 10
105.7652778113785956
 20
-23.7790873229031412
 30
0.0
 11
105.7539126485504966
 21
-23.7881804564941106
 31
0.0
  0
LINE
  5
8B61
  8
0
 10
105.7539126485504966
 20
-23.7881804564941106
 30
0.0
 11
105.7652778112249052
 21
-23.7986741095938505
 31
0.0
  0
LINE
  5
8B62
  8
0
 10
105.7652778112249052
 20
-23.7986741095938505
 30
0.0
 11
105.7880081368786023
 21
-23.8000892354113311
 31
0.0
  0
LINE
  5
8B63
  8
0
 10
105.7880081368786023
 20
-23.8000892354113311
 30
0.0
 11
105.7993732997339009
 21
-23.7910324038329897
 31
0.0
  0
LINE
  5
8B64
  8
0
 10
105.7993732997339009
 20
-23.7910324038329897
 30
0.0
 11
105.788008136954403
 21
-23.7805243882758788
 31
0.0
  0
LINE
  5
8B65
  8
0
 10
105.788008136954403
 20
-23.7805243882758788
 30
0.0
 11
105.7652778113785956
 21
-23.7790873229031412
 31
0.0
  0
LINE
  5
8B66
  8
0
 10
105.788008136954403
 20
-23.7805243882758788
 30
0.0
 11
105.7880081350524932
 21
-23.8000892352976408
 31
0.0
  0
LINE
  5
8B67
  8
0
 10
105.7590806705716062
 20
-23.7989416808036296
 30
0.0
 11
105.7546015173215039
 21
-23.7948994534498617
 31
0.0
  0
LINE
  5
8B68
  8
0
 10
105.7546015173215039
 20
-23.7948994534498617
 30
0.0
 11
105.7318711918034069
 21
-23.7920452884604394
 31
0.0
  0
LINE
  5
8B69
  8
0
 10
105.7318711918034069
 20
-23.7920452884604394
 30
0.0
 11
105.7273920385210033
 21
-23.794971619096561
 31
0.0
  0
LINE
  5
8B6A
  8
0
 10
105.7273920385210033
 20
-23.794971619096561
 30
0.0
 11
105.7590806651574979
 21
-23.7989416759176216
 31
0.0
  0
LINE
  5
8B6B
  8
0
 10
105.6922674314281068
 20
-23.7882971776456813
 30
0.0
 11
105.6877882781199958
 21
-23.783644053240991
 31
0.0
  0
LINE
  5
8B6C
  8
0
 10
105.6877882781199958
 20
-23.783644053240991
 30
0.0
 11
105.6650579525777971
 21
-23.7777802572763797
 31
0.0
  0
LINE
  5
8B6D
  8
0
 10
105.6650579525777971
 20
-23.7777802572763797
 30
0.0
 11
105.6605787993785981
 21
-23.7801417057759714
 31
0.0
  0
LINE
  5
8B6E
  8
0
 10
105.6605787993785981
 20
-23.7801417057759714
 30
0.0
 11
105.6922674314011061
 21
-23.7882971776944991
 31
0.0
  0
LINE
  5
8B6F
  8
0
 10
105.7559616936291036
 20
-23.7154900617865998
 30
0.0
 11
105.7659666801286988
 21
-23.7291522199441793
 31
0.0
  0
LINE
  5
8B70
  8
0
 10
105.7659666801286988
 20
-23.7291522199441793
 30
0.0
 11
105.7546015173786031
 21
-23.7415647059759713
 31
0.0
  0
LINE
  5
8B71
  8
0
 10
105.7546015173786031
 20
-23.7415647059759713
 30
0.0
 11
105.7318711917785947
 21
-23.7385588786211414
 31
0.0
  0
LINE
  5
8B72
  8
0
 10
105.7318711917785947
 20
-23.7385588786211414
 30
0.0
 11
105.7205090186797065
 21
-23.7230318553755808
 31
0.0
  0
LINE
  5
8B73
  8
0
 10
105.7205090186797065
 20
-23.7230318553755808
 30
0.0
 11
105.725028447708695
 21
-23.7181622006873489
 31
0.0
  0
LINE
  5
8B74
  8
0
 10
105.7318711969104044
 20
-23.7385588792997702
 30
0.0
 11
105.7318711917785947
 21
-23.7174678250349196
 31
0.0
  0
LINE
  5
8B75
  8
0
 10
105.7546015140914051
 20
-23.7415647308339288
 30
0.0
 11
105.7546015173786031
 21
-23.7155824196904206
 31
0.0
  0
LINE
  5
8B76
  8
0
 10
105.6209750389785995
 20
-23.8167076579759716
 30
0.0
 11
105.6209750389785995
 21
-23.8097859468091997
 31
0.0
  0
LINE
  5
8B77
  8
0
 10
105.6209750389785995
 20
-23.8097859468091997
 30
0.0
 11
105.5982447133732052
 21
-23.8006635316094517
 31
0.0
  0
LINE
  5
8B78
  8
0
 10
105.5982447133732052
 20
-23.8006635316094517
 30
0.0
 11
105.5868795507847011
 21
-23.799418497164659
 31
0.0
  0
LINE
  5
8B79
  8
0
 10
105.5868795507847011
 20
-23.799418497164659
 30
0.0
 11
105.5982447134221047
 21
-23.8074769771572505
 31
0.0
  0
LINE
  5
8B7A
  8
0
 10
105.5982447134221047
 20
-23.8074769771572505
 30
0.0
 11
105.6209750390590045
 21
-23.8167076578866386
 31
0.0
  0
LINE
  5
8B7B
  8
0
 10
105.6209750390590045
 20
-23.8167076578866386
 30
0.0
 11
105.6323402017956994
 21
-23.8177735098961492
 31
0.0
  0
LINE
  5
8B7C
  8
0
 10
105.6323402017956994
 20
-23.8177735098961492
 30
0.0
 11
105.6210251817197019
 21
-23.8098060707137904
 31
0.0
  0
LINE
  5
8B7D
  8
0
 10
105.5982447134786071
 20
-23.8006635316545783
 30
0.0
 11
105.5982447134838935
 21
-23.8074769772275516
 31
0.0
  0
LINE
  5
8B7E
  8
0
 10
105.6543816584951969
 20
-23.8316409942500904
 30
0.0
 11
105.6543816585786004
 21
-23.8272409455640499
 31
0.0
  0
LINE
  5
8B7F
  8
0
 10
105.6543816585786004
 20
-23.8272409455640499
 30
0.0
 11
105.6657468213786046
 21
-23.83317858447597
 31
0.0
  0
LINE
  5
8B80
  8
0
 10
105.6657468213786046
 20
-23.83317858447597
 30
0.0
 11
105.6543816584951969
 21
-23.8316409942500904
 31
0.0
  0
LINE
  5
8B81
  8
0
 10
105.6543816584951969
 20
-23.8316409942500904
 30
0.0
 11
105.6316513330785938
 21
-23.8240411194846686
 31
0.0
  0
LINE
  5
8B82
  8
0
 10
105.6316513330785938
 20
-23.8240411194846686
 30
0.0
 11
105.6202861703407052
 21
-23.8181084171087498
 31
0.0
  0
LINE
  5
8B83
  8
0
 10
105.6202861703407052
 20
-23.8181084171087498
 30
0.0
 11
105.6316513330785938
 21
-23.8197705293660285
 31
0.0
  0
LINE
  5
8B84
  8
0
 10
105.6316513330785938
 20
-23.8197705293660285
 30
0.0
 11
105.6543816623803025
 21
-23.8272409475502407
 31
0.0
  0
LINE
  5
8B85
  8
0
 10
105.6316513330292963
 20
-23.8197705293613211
 30
0.0
 11
105.6316513307576059
 21
-23.8240411182731187
 31
0.0
  0
LINE
  5
8B86
  8
0
 10
105.6877882781357982
 20
-23.8371029560920711
 30
0.0
 11
105.6877882781786013
 21
-23.8359337054934812
 31
0.0
  0
LINE
  5
8B87
  8
0
 10
105.6877882781786013
 20
-23.8359337054934812
 30
0.0
 11
105.6922674314785979
 21
-23.8369612956759696
 31
0.0
  0
LINE
  5
8B88
  8
0
 10
105.6922674314785979
 20
-23.8369612956759696
 30
0.0
 11
105.6877882781016069
 21
-23.8371029560840491
 31
0.0
  0
LINE
  5
8B89
  8
0
 10
105.6877882781016069
 20
-23.8371029560840491
 30
0.0
 11
105.6650579525785929
 21
-23.8312391601759685
 31
0.0
  0
LINE
  5
8B8A
  8
0
 10
105.6650579525785929
 20
-23.8312391601759685
 30
0.0
 11
105.6605787993825061
 21
-23.8288058237352907
 31
0.0
  0
LINE
  5
8B8B
  8
0
 10
105.6605787993825061
 20
-23.8288058237352907
 30
0.0
 11
105.6877882781788003
 21
-23.8359337054935416
 31
0.0
  0
LINE
  5
8B8C
  8
0
 10
105.6650579557674945
 20
-23.8312391619083606
 30
0.0
 11
105.6650579522930968
 21
-23.8299791969029009
 31
0.0
  0
LINE
  5
8B8D
  8
0
 10
105.6984645722136946
 20
-23.8385987775182109
 30
0.0
 11
105.6984645722316003
 21
-23.8431876515895382
 31
0.0
  0
LINE
  5
8B8E
  8
0
 10
105.6984645722316003
 20
-23.8431876515895382
 30
0.0
 11
105.7211948977654004
 21
-23.8475771778236805
 31
0.0
  0
LINE
  5
8B8F
  8
0
 10
105.7211948977654004
 20
-23.8475771778236805
 30
0.0
 11
105.7325600604228981
 21
-23.8474251675304885
 31
0.0
  0
LINE
  5
8B90
  8
0
 10
105.7325600604228981
 20
-23.8474251675304885
 30
0.0
 11
105.7211948977887062
 21
-23.8429188887381898
 31
0.0
  0
LINE
  5
8B91
  8
0
 10
105.7211948977887062
 20
-23.8429188887381898
 30
0.0
 11
105.6984645721478984
 21
-23.8385987774567205
 31
0.0
  0
LINE
  5
8B92
  8
0
 10
105.6984645721478984
 20
-23.8385987774567205
 30
0.0
 11
105.6870994093781064
 21
-23.8387160834327787
 31
0.0
  0
LINE
  5
8B93
  8
0
 10
105.6870994093781064
 20
-23.8387160834327787
 30
0.0
 11
105.6984645722316003
 21
-23.8431876516984183
 31
0.0
  0
LINE
  5
8B94
  8
0
 10
105.721194895485695
 20
-23.8475771773834495
 30
0.0
 11
105.7211948977887062
 21
-23.8429188887381898
 31
0.0
  0
LINE
  5
8B95
  8
0
 10
105.727392038748107
 20
-23.8436357370864016
 30
0.0
 11
105.7590806706409978
 21
-23.8476057987070185
 31
0.0
  0
LINE
  5
8B96
  8
0
 10
105.7590806706409978
 20
-23.8476057987070185
 30
0.0
 11
105.7546015173280978
 21
-23.8483583563432298
 31
0.0
  0
LINE
  5
8B97
  8
0
 10
105.7546015173280978
 20
-23.8483583563432298
 30
0.0
 11
105.7318711917785947
 21
-23.8455041912759711
 31
0.0
  0
LINE
  5
8B98
  8
0
 10
105.7318711917785947
 20
-23.8455041912759711
 30
0.0
 11
105.7273920385537025
 21
-23.8436357370019891
 31
0.0
  0
LINE
  5
8B99
  8
0
 10
105.7318711898612946
 20
-23.84550419047617
 30
0.0
 11
105.7318711917785947
 21
-23.8443111036759703
 31
0.0
  0
LINE
  5
8B9A
  8
0
 10
105.754601517594395
 20
-23.8483583562984904
 30
0.0
 11
105.7546015173786031
 21
-23.8471605338328914
 31
0.0
  0
LINE
  5
8B9B
  8
0
 10
105.7318711917785947
 20
-23.848772006559809
 30
0.0
 11
105.7546015173786031
 21
-23.8516573278759694
 31
0.0
  0
LINE
  5
8B9C
  8
0
 10
105.7546015173786031
 20
-23.8516573278759694
 30
0.0
 11
105.765966679845306
 21
-23.8541829692774989
 31
0.0
  0
LINE
  5
8B9D
  8
0
 10
105.765966679845306
 20
-23.8541829692774989
 30
0.0
 11
105.7550857749038045
 21
-23.8537706584112108
 31
0.0
  0
LINE
  5
8B9E
  8
0
 10
105.7529070030985991
 20
-23.85353254849813
 30
0.0
 11
105.7343714693829071
 21
-23.8511286931466095
 31
0.0
  0
LINE
  5
8B9F
  8
0
 10
105.7310312801685939
 20
-23.8506230977031315
 30
0.0
 11
105.7205060292198056
 21
-23.8483506965496801
 31
0.0
  0
LINE
  5
8BA0
  8
0
 10
105.7205060292198056
 20
-23.8483506965496801
 30
0.0
 11
105.7318711917785947
 21
-23.8487720065759703
 31
0.0
  0
LINE
  5
8BA1
  8
0
 10
105.7318711917785947
 20
-23.8487720065759703
 30
0.0
 11
105.7318711917785947
 21
-23.8507523260134811
 31
0.0
  0
LINE
  5
8BA2
  8
0
 10
105.7546015173786031
 20
-23.8516573279652206
 30
0.0
 11
105.7546015173222003
 21
-23.8537185401702985
 31
0.0
  0
LINE
  5
8BA3
  8
0
 10
105.7880081369594052
 20
-23.8546297277264685
 30
0.0
 11
105.7880081368786023
 21
-23.8498625159015596
 31
0.0
  0
LINE
  5
8BA4
  8
0
 10
105.7880081368786023
 20
-23.8498625159015596
 30
0.0
 11
105.7993732995106058
 21
-23.8529717138386594
 31
0.0
  0
LINE
  5
8BA5
  8
0
 10
105.7993732995106058
 20
-23.8529717138386594
 30
0.0
 11
105.7880081369594052
 21
-23.8546297277793791
 31
0.0
  0
LINE
  5
8BA6
  8
0
 10
105.7880081369594052
 20
-23.8546297277793791
 30
0.0
 11
105.7652778114258041
 21
-23.8531926625021988
 31
0.0
  0
LINE
  5
8BA7
  8
0
 10
105.7652778114258041
 20
-23.8531926625021988
 30
0.0
 11
105.7539126486103953
 21
-23.8501197666564906
 31
0.0
  0
LINE
  5
8BA8
  8
0
 10
105.7539126486103953
 20
-23.8501197666564906
 30
0.0
 11
105.7652778113804004
 21
-23.8484473901358989
 31
0.0
  0
LINE
  5
8BA9
  8
0
 10
105.7652778113804004
 20
-23.8484473901358989
 30
0.0
 11
105.7880081368786023
 21
-23.8498625011882091
 31
0.0
  0
LINE
  5
8BAA
  8
0
 10
105.7652778113804004
 20
-23.8484473901358989
 30
0.0
 11
105.7652778113785956
 21
-23.8531926624759691
 31
0.0
  0
LINE
  5
8BAB
  8
0
 10
105.665057952560403
 20
-23.8359656492983092
 30
0.0
 11
105.6650579525785929
 21
-23.8343454329759616
 31
0.0
  0
LINE
  5
8BAC
  8
0
 10
105.6650579525785929
 20
-23.8343454329759616
 30
0.0
 11
105.6536927898936966
 21
-23.8322002310376284
 31
0.0
  0
LINE
  5
8BAD
  8
0
 10
105.6536927898936966
 20
-23.8322002310376284
 30
0.0
 11
105.6631294300037069
 21
-23.8353991772191591
 31
0.0
  0
LINE
  5
8BAE
  8
0
 10
105.6694340520033961
 20
-23.8372210641572586
 30
0.0
 11
105.683616473299594
 21
-23.8410068454639799
 31
0.0
  0
LINE
  5
8BAF
  8
0
 10
105.6891699314787019
 20
-23.8423729637166595
 30
0.0
 11
105.6991534409786055
 21
-23.8441976043759709
 31
0.0
  0
LINE
  5
8BB0
  8
0
 10
105.6991534409786055
 20
-23.8441976043759709
 30
0.0
 11
105.6877882781871989
 21
-23.8402768362967414
 31
0.0
  0
LINE
  5
8BB1
  8
0
 10
105.6877882781871989
 20
-23.8402768362967414
 30
0.0
 11
105.6650579525785929
 21
-23.8343454329434401
 31
0.0
  0
LINE
  5
8BB2
  8
0
 10
105.6877882781786013
 20
-23.8402768362759616
 30
0.0
 11
105.6877882773406014
 21
-23.8420391441341089
 31
0.0
  0
LINE
  5
8BB3
  8
0
 10
105.9872102355531069
 20
-23.8153455095805811
 30
0.0
 11
105.9872104398258017
 21
-23.7880285986136002
 31
0.0
  0
LINE
  5
8BB4
  8
0
 10
105.9872104398258017
 20
-23.7880285986136002
 30
0.0
 11
105.9872104809209929
 21
-23.7825330433814983
 31
0.0
  0
LINE
  5
8BB5
  8
0
 10
105.9872104809209929
 20
-23.7825330433814983
 30
0.0
 11
105.9884433904155969
 21
-23.7821018747113904
 31
0.0
  0
LINE
  5
8BB6
  8
0
 10
105.9884433904155969
 20
-23.7821018747113904
 30
0.0
 11
105.9963655287360069
 21
-23.7847445886000592
 31
0.0
  0
LINE
  5
8BB7
  8
0
 10
105.9963655287360069
 20
-23.7847445886000592
 30
0.0
 11
106.0061657160719051
 21
-23.7810285560265413
 31
0.0
  0
LINE
  5
8BB8
  8
0
 10
106.0061657160719051
 20
-23.7810285560265413
 30
0.0
 11
106.0073958262209999
 21
-23.7877865288400514
 31
0.0
  0
LINE
  5
8BB9
  8
0
 10
106.0073958262209999
 20
-23.7877865288400514
 30
0.0
 11
106.021850011732198
 21
-23.7818692112081784
 31
0.0
  0
LINE
  5
8BBA
  8
0
 10
106.021850011732198
 20
-23.7818692112081784
 30
0.0
 11
106.0332151635343934
 21
-23.7833398794885795
 31
0.0
  0
LINE
  5
8BBB
  8
0
 10
106.0332151635343934
 20
-23.7833398794885795
 30
0.0
 11
106.0218499208091032
 21
-23.7940352406707483
 31
0.0
  0
LINE
  5
8BBC
  8
0
 10
106.0218499208091032
 20
-23.7940352406707483
 30
0.0
 11
106.0073957352604026
 21
-23.7999525584250087
 31
0.0
  0
LINE
  5
8BBD
  8
0
 10
106.0073957352604026
 20
-23.7999525584250087
 30
0.0
 11
105.9991195842165013
 21
-23.7955186335119713
 31
0.0
  0
LINE
  5
8BBE
  8
0
 10
105.9991195842165013
 20
-23.7955186335119713
 30
0.0
 11
105.9877545095211957
 21
-23.7837445868261597
 31
0.0
  0
LINE
  5
8BBF
  8
0
 10
105.9877545095211957
 20
-23.7837445868261597
 30
0.0
 11
105.9926665666170038
 21
-23.7835106668771203
 31
0.0
  0
LINE
  5
8BC0
  8
0
 10
105.9991195842165013
 20
-23.7955186335119713
 30
0.0
 11
105.9990954817620974
 21
-23.7837094456970384
 31
0.0
  0
LINE
  5
8BC1
  8
0
 10
105.9995061257311022
 20
-23.7835537378199398
 30
0.0
 11
106.0073958262209999
 21
-23.7877865288400514
 31
0.0
  0
LINE
  5
8BC2
  8
0
 10
106.0218500118410958
 20
-23.7818692111616983
 30
0.0
 11
106.0218499208676945
 21
-23.7940352406182782
 31
0.0
  0
LINE
  5
8BC3
  8
0
 10
105.9872102355531069
 20
-23.8153455095805811
 30
0.0
 11
105.9884432839513977
 21
-23.8149142923336008
 31
0.0
  0
LINE
  5
8BC4
  8
0
 10
105.9884432839513977
 20
-23.8149142923336008
 30
0.0
 11
105.9963653468253
 21
-23.8090766476070996
 31
0.0
  0
LINE
  5
8BC5
  8
0
 10
105.9963653468253
 20
-23.8090766476070996
 30
0.0
 11
106.0061655342094014
 21
-23.8053606150412094
 31
0.0
  0
LINE
  5
8BC6
  8
0
 10
106.0061655342094014
 20
-23.8053606150412094
 30
0.0
 11
106.0073957352439038
 21
-23.7999525584162015
 31
0.0
  0
LINE
  5
8BC7
  8
0
 10
105.9963653468253
 20
-23.8090766476070996
 30
0.0
 11
105.9963654133517963
 21
-23.8001809988825315
 31
0.0
  0
LINE
  5
8BC8
  8
0
 10
105.9963654133517963
 20
-23.8001809988825315
 30
0.0
 11
105.9998084185962028
 21
-23.8001184035884812
 31
0.0
  0
LINE
  5
8BC9
  8
0
 10
105.9998084185962028
 20
-23.8001184035884812
 30
0.0
 11
105.9884433439738984
 21
-23.7883170094850414
 31
0.0
  0
LINE
  5
8BCA
  8
0
 10
105.9884433439738984
 20
-23.7883170094850414
 30
0.0
 11
105.9872104421068997
 21
-23.787723556994159
 31
0.0
  0
LINE
  5
8BCB
  8
0
 10
105.996365413381497
 20
-23.8001809988819915
 30
0.0
 11
106.0061655341011999
 21
-23.8053606150834405
 31
0.0
  0
LINE
  5
8BCC
  8
0
 10
105.9884432839513977
 20
-23.8149142923336008
 30
0.0
 11
105.9884433440532945
 21
-23.7883170095658585
 31
0.0
  0
LINE
  5
8BCD
  8
0
 10
106.0218500890396029
 20
-23.7715382716122186
 30
0.0
 11
106.0218502200605997
 21
-23.7540196581894598
 31
0.0
  0
LINE
  5
8BCE
  8
0
 10
106.0218502200605997
 20
-23.7540196581894598
 30
0.0
 11
106.0332153521273995
 21
-23.7581272926475506
 31
0.0
  0
LINE
  5
8BCF
  8
0
 10
106.0332153521273995
 20
-23.7581272926475506
 30
0.0
 11
106.0218500890396029
 21
-23.771538271660841
 31
0.0
  0
LINE
  5
8BD0
  8
0
 10
106.0218500890396029
 20
-23.771538271660841
 30
0.0
 11
105.9991196952907018
 21
-23.7806605168139598
 31
0.0
  0
LINE
  5
8BD1
  8
0
 10
105.9991196952907018
 20
-23.7806605168139598
 30
0.0
 11
105.9877545637553027
 21
-23.7764819653991388
 31
0.0
  0
LINE
  5
8BD2
  8
0
 10
105.9877545637553027
 20
-23.7764819653991388
 30
0.0
 11
105.999119825563298
 21
-23.7632501689268985
 31
0.0
  0
LINE
  5
8BD3
  8
0
 10
105.999119825563298
 20
-23.7632501689268985
 30
0.0
 11
106.0218502200605997
 21
-23.7540196581894598
 31
0.0
  0
LINE
  5
8BD4
  8
0
 10
105.9991198255164022
 20
-23.7632501689838591
 30
0.0
 11
105.9991196953540964
 21
-23.7806605167902099
 31
0.0
  0
LINE
  5
8BD5
  8
0
 10
105.9657130995490064
 20
-23.7774688290048992
 30
0.0
 11
105.9657132486068036
 21
-23.7575368188415013
 31
0.0
  0
LINE
  5
8BD6
  8
0
 10
105.9657132486068036
 20
-23.7575368188415013
 30
0.0
 11
105.9543479833885016
 21
-23.7712403534723116
 31
0.0
  0
LINE
  5
8BD7
  8
0
 10
105.9543479833885016
 20
-23.7712403534723116
 30
0.0
 11
105.9657130995490064
 21
-23.7774688290048992
 31
0.0
  0
LINE
  5
8BD8
  8
0
 10
105.9657130995490064
 20
-23.7774688290048992
 30
0.0
 11
105.9884434810467013
 21
-23.7699985829301887
 31
0.0
  0
LINE
  5
8BD9
  8
0
 10
105.9884434810467013
 20
-23.7699985829301887
 30
0.0
 11
105.9998087471572035
 21
-23.7561705259891589
 31
0.0
  0
LINE
  5
8BDA
  8
0
 10
105.9998087471572035
 20
-23.7561705259891589
 30
0.0
 11
105.9884436309695985
 21
-23.7499371139263893
 31
0.0
  0
LINE
  5
8BDB
  8
0
 10
105.9884436309695985
 20
-23.7499371139263893
 30
0.0
 11
105.9657132486068036
 21
-23.7575368188415013
 31
0.0
  0
LINE
  5
8BDC
  8
0
 10
105.9884436309695985
 20
-23.7499371139263893
 30
0.0
 11
105.9884434810467013
 21
-23.7699985829301887
 31
0.0
  0
LINE
  5
8BDD
  8
0
 10
105.9550369067568028
 20
-23.7639267999228601
 30
0.0
 11
105.9550370760393037
 21
-23.7413022390913113
 31
0.0
  0
LINE
  5
8BDE
  8
0
 10
105.9550370760393037
 20
-23.7413022390913113
 30
0.0
 11
105.9664021765324975
 21
-23.7496156534677212
 31
0.0
  0
LINE
  5
8BDF
  8
0
 10
105.9664021766187005
 20
-23.7496156535268597
 30
0.0
 11
105.9550369068553977
 21
-23.7639267999906814
 31
0.0
  0
LINE
  5
8BE0
  8
0
 10
105.9550369068553977
 20
-23.7639267999906814
 30
0.0
 11
105.9323065369017058
 21
-23.7698580332986893
 31
0.0
  0
LINE
  5
8BE1
  8
0
 10
105.9323065369017058
 20
-23.7698580332986893
 30
0.0
 11
105.9209414357715957
 21
-23.7616126869115796
 31
0.0
  0
LINE
  5
8BE2
  8
0
 10
105.9209414357715957
 20
-23.7616126869115796
 30
0.0
 11
105.9323067050677025
 21
-23.7473695832163685
 31
0.0
  0
LINE
  5
8BE3
  8
0
 10
105.9323067050677025
 20
-23.7473695832163685
 30
0.0
 11
105.9550370761756994
 21
-23.7413022391910999
 31
0.0
  0
LINE
  5
8BE4
  8
0
 10
105.9323065332148985
 20
-23.7698580306239116
 30
0.0
 11
105.932306705060995
 21
-23.747369583286801
 31
0.0
  0
LINE
  5
8BE5
  8
0
 10
105.9216305546649011
 20
-23.7281666336414609
 30
0.0
 11
105.9329956395427956
 21
-23.7385778859855989
 31
0.0
  0
LINE
  5
8BE6
  8
0
 10
105.9329956395427956
 20
-23.7385778859855989
 30
0.0
 11
105.9216303656093032
 21
-23.7534485903812502
 31
0.0
  0
LINE
  5
8BE7
  8
0
 10
105.9216303656093032
 20
-23.7534485903812502
 30
0.0
 11
105.8989000066799946
 21
-23.7579055552051983
 31
0.0
  0
LINE
  5
8BE8
  8
0
 10
105.8989000066799946
 20
-23.7579055552051983
 30
0.0
 11
105.8875349208297934
 21
-23.7476188555892485
 31
0.0
  0
LINE
  5
8BE9
  8
0
 10
105.8875349208297934
 20
-23.7476188555892485
 30
0.0
 11
105.8989001947672932
 21
-23.7327530855750517
 31
0.0
  0
LINE
  5
8BEA
  8
0
 10
105.8989001947672932
 20
-23.7327530855750517
 30
0.0
 11
105.9216305546649011
 21
-23.7281666335257206
 31
0.0
  0
LINE
  5
8BEB
  8
0
 10
105.9216305546649011
 20
-23.7281666335257206
 30
0.0
 11
105.9216303655913975
 21
-23.7534485902319901
 31
0.0
  0
LINE
  5
8BEC
  8
0
 10
105.8989001978490023
 20
-23.7327530849532309
 30
0.0
 11
105.8989000045903026
 21
-23.7579055533137797
 31
0.0
  0
LINE
  5
8BED
  8
0
 10
105.9216302486959052
 20
-23.7690831465876009
 30
0.0
 11
105.9329953538740057
 21
-23.776777692795779
 31
0.0
  0
LINE
  5
8BEE
  8
0
 10
105.9329953538740057
 20
-23.776777692795779
 30
0.0
 11
105.9216301010786054
 21
-23.7888263312946187
 31
0.0
  0
LINE
  5
8BEF
  8
0
 10
105.9216301010786054
 20
-23.7888263312946187
 30
0.0
 11
105.8988997431540042
 21
-23.7931462726042113
 31
0.0
  0
LINE
  5
8BF0
  8
0
 10
105.8988997431540042
 20
-23.7931462726042113
 30
0.0
 11
105.8875346376681961
 21
-23.7854864369342813
 31
0.0
  0
LINE
  5
8BF1
  8
0
 10
105.8875346376681961
 20
-23.7854864369342813
 30
0.0
 11
105.8988998902722045
 21
-23.7734725027047595
 31
0.0
  0
LINE
  5
8BF2
  8
0
 10
105.8988998902722045
 20
-23.7734725027047595
 30
0.0
 11
105.9216302486959052
 21
-23.7690831465876009
 31
0.0
  0
LINE
  5
8BF3
  8
0
 10
105.9216302486959052
 20
-23.7690831465876009
 30
0.0
 11
105.9216301010585966
 21
-23.7888263313158284
 31
0.0
  0
LINE
  5
8BF4
  8
0
 10
105.8988998902722045
 20
-23.7734725028772615
 30
0.0
 11
105.8988997398973027
 21
-23.7931462704092702
 31
0.0
  0
LINE
  5
8BF5
  8
0
 10
105.8882235597770034
 20
-23.7783528738685206
 30
0.0
 11
105.8882237265310948
 21
-23.7560532430372007
 31
0.0
  0
LINE
  5
8BF6
  8
0
 10
105.8882237265310948
 20
-23.7560532430372007
 30
0.0
 11
105.8995888166878956
 21
-23.7657656193615807
 31
0.0
  0
LINE
  5
8BF7
  8
0
 10
105.8995888166878956
 20
-23.7657656193615807
 30
0.0
 11
105.8882235597770034
 21
-23.7783528739571217
 31
0.0
  0
LINE
  5
8BF8
  8
0
 10
105.8882235597770034
 20
-23.7783528739571217
 30
0.0
 11
105.8654932126814003
 21
-23.7812380252617395
 31
0.0
  0
LINE
  5
8BF9
  8
0
 10
105.8654932126814003
 20
-23.7812380252617395
 30
0.0
 11
105.854128121933897
 21
-23.7715975522276786
 31
0.0
  0
LINE
  5
8BFA
  8
0
 10
105.854128121933897
 20
-23.7715975522276786
 30
0.0
 11
105.8654933788879049
 21
-23.7590009467593504
 31
0.0
  0
LINE
  5
8BFB
  8
0
 10
105.8654933788879049
 20
-23.7590009467593504
 30
0.0
 11
105.8882237265310948
 21
-23.7560532429314684
 31
0.0
  0
LINE
  5
8BFC
  8
0
 10
105.8654933824849991
 20
-23.7590009462928684
 30
0.0
 11
105.8654932126015069
 21
-23.7812380251940496
 31
0.0
  0
LINE
  5
8BFD
  8
0
 10
105.8548172373332932
 20
-23.7386147444587614
 30
0.0
 11
105.8548170504801931
 21
-23.7636053469039794
 31
0.0
  0
LINE
  5
8BFE
  8
0
 10
105.8548170504801931
 20
-23.7636053469039794
 30
0.0
 11
105.8320867139603934
 21
-23.76506357544908
 31
0.0
  0
LINE
  5
8BFF
  8
0
 10
105.8320869005134028
 20
-23.7401137321033104
 30
0.0
 11
105.8548172373332932
 21
-23.7386147444587614
 31
0.0
  0
LINE
  5
8C00
  8
0
 10
105.8548172373332932
 20
-23.7386147444587614
 30
0.0
 11
105.8661823118744962
 21
-23.7504135063878792
 31
0.0
  0
LINE
  5
8C01
  8
0
 10
105.8661823118744962
 20
-23.7504135063878792
 30
0.0
 11
105.8548170504801931
 21
-23.7636053469039794
 31
0.0
  0
LINE
  5
8C02
  8
0
 10
105.8320869005134028
 20
-23.7401137321033104
 30
0.0
 11
105.8320867140513002
 21
-23.7650635755426407
 31
0.0
  0
LINE
  5
8C03
  8
0
 10
105.8548167882944
 20
-23.7986744444391007
 30
0.0
 11
105.8548169346814944
 21
-23.7790876576847907
 31
0.0
  0
LINE
  5
8C04
  8
0
 10
105.8548169346814944
 20
-23.7790876576847907
 30
0.0
 11
105.8661820295118048
 21
-23.7881808762628992
 31
0.0
  0
LINE
  5
8C05
  8
0
 10
105.8661820295118048
 20
-23.7881808762628992
 30
0.0
 11
105.8548167883674012
 21
-23.79867444437496
 31
0.0
  0
LINE
  5
8C06
  8
0
 10
105.8548167883674012
 20
-23.79867444437496
 30
0.0
 11
105.8320864521322022
 21
-23.8000894002176189
 31
0.0
  0
LINE
  5
8C07
  8
0
 10
105.8320864521322022
 20
-23.8000894002176189
 30
0.0
 11
105.8207213570031939
 21
-23.791032483652149
 31
0.0
  0
LINE
  5
8C08
  8
0
 10
105.8207213570031939
 20
-23.791032483652149
 30
0.0
 11
105.8320865983601067
 21
-23.7805245530827207
 31
0.0
  0
LINE
  5
8C09
  8
0
 10
105.8320865983601067
 20
-23.7805245530827207
 30
0.0
 11
105.8548169346814944
 21
-23.7790876576847907
 31
0.0
  0
LINE
  5
8C0A
  8
0
 10
105.8320865983601067
 20
-23.7805245530827207
 30
0.0
 11
105.8320864539582971
 21
-23.8000894001039498
 31
0.0
  0
LINE
  5
8C0B
  8
0
 10
105.8610139270195987
 20
-23.7989420619262404
 30
0.0
 11
105.8654931104968995
 21
-23.7948998680671799
 31
0.0
  0
LINE
  5
8C0C
  8
0
 10
105.8654931104968995
 20
-23.7948998680671799
 30
0.0
 11
105.8882234573574976
 21
-23.7920458730526114
 31
0.0
  0
LINE
  5
8C0D
  8
0
 10
105.8882234573574976
 20
-23.7920458730526114
 30
0.0
 11
105.8927025887570039
 21
-23.7949722371832415
 31
0.0
  0
LINE
  5
8C0E
  8
0
 10
105.8927025887570039
 20
-23.7949722371832415
 30
0.0
 11
105.8610139324338064
 21
-23.7989420570402714
 31
0.0
  0
LINE
  5
8C0F
  8
0
 10
105.9278272457597012
 20
-23.7882980583903496
 30
0.0
 11
105.9323064338632037
 21
-23.7836449674803809
 31
0.0
  0
LINE
  5
8C10
  8
0
 10
105.9323064338632037
 20
-23.7836449674803809
 30
0.0
 11
105.9550368032535062
 21
-23.7777813414907087
 31
0.0
  0
LINE
  5
8C11
  8
0
 10
105.9550368032535062
 20
-23.7777813414907087
 30
0.0
 11
105.9595159387939987
 21
-23.7801428234848196
 31
0.0
  0
LINE
  5
8C12
  8
0
 10
105.9595159387939987
 20
-23.7801428234848196
 30
0.0
 11
105.9278272457867018
 21
-23.7882980584391603
 31
0.0
  0
LINE
  5
8C13
  8
0
 10
105.8641306349010023
 20
-23.7154944168056794
 30
0.0
 11
105.8541284393403004
 21
-23.7291525495759501
 31
0.0
  0
LINE
  5
8C14
  8
0
 10
105.8541284393403004
 20
-23.7291525495759501
 30
0.0
 11
105.8654935092710048
 21
-23.7415651205947817
 31
0.0
  0
LINE
  5
8C15
  8
0
 10
105.8654935092710048
 20
-23.7415651205947817
 30
0.0
 11
105.8882238573475973
 21
-23.7385594632148091
 31
0.0
  0
LINE
  5
8C16
  8
0
 10
105.8882238573475973
 20
-23.7385594632148091
 30
0.0
 11
105.8995861465555066
 21
-23.7230325249347089
 31
0.0
  0
LINE
  5
8C17
  8
0
 10
105.8995861465555066
 20
-23.7230325249347089
 30
0.0
 11
105.8950734817452002
 21
-23.7181700857235498
 31
0.0
  0
LINE
  5
8C18
  8
0
 10
105.8882238522158019
 20
-23.7385594638933988
 30
0.0
 11
105.8882240150640968
 21
-23.7174684096291699
 31
0.0
  0
LINE
  5
8C19
  8
0
 10
105.8654935125580039
 20
-23.7415651454527605
 30
0.0
 11
105.8654937035322945
 21
-23.7155870838340306
 31
0.0
  0
LINE
  5
8C1A
  8
0
 10
105.999119425756902
 20
-23.8167090718361898
 30
0.0
 11
105.9991194775166008
 21
-23.8097873606696098
 31
0.0
  0
LINE
  5
8C1B
  8
0
 10
105.9991194775166008
 20
-23.8097873606696098
 30
0.0
 11
106.0218498713376931
 21
-23.8006651154448896
 31
0.0
  0
LINE
  5
8C1C
  8
0
 10
106.0218498713376931
 20
-23.8006651154448896
 30
0.0
 11
106.0332150432360976
 21
-23.7994201659875202
 31
0.0
  0
LINE
  5
8C1D
  8
0
 10
106.0332150432360976
 20
-23.7994201659875202
 30
0.0
 11
106.0218498203387014
 21
-23.8074785609925001
 31
0.0
  0
LINE
  5
8C1E
  8
0
 10
106.0218498203387014
 20
-23.8074785609925001
 30
0.0
 11
105.9991194256763976
 21
-23.8167090717468604
 31
0.0
  0
LINE
  5
8C1F
  8
0
 10
105.9991194256763976
 20
-23.8167090717468604
 30
0.0
 11
105.9877542549697012
 21
-23.8177748387689583
 31
0.0
  0
LINE
  5
8C20
  8
0
 10
105.9877542549697012
 20
-23.8177748387689583
 30
0.0
 11
105.9990693346250055
 21
-23.80980748419924
 31
0.0
  0
LINE
  5
8C21
  8
0
 10
106.0218498712324049
 20
-23.8006651154900197
 30
0.0
 11
106.0218498202767989
 21
-23.8074785610628012
 31
0.0
  0
LINE
  5
8C22
  8
0
 10
105.9657126945713941
 20
-23.8316421582990117
 30
0.0
 11
105.965712727391093
 21
-23.8272421096130991
 31
0.0
  0
LINE
  5
8C23
  8
0
 10
105.965712727391093
 20
-23.8272421096130991
 30
0.0
 11
105.9543475201903959
 21
-23.8331796635374609
 31
0.0
  0
LINE
  5
8C24
  8
0
 10
105.9543475201903959
 20
-23.8331796635374609
 30
0.0
 11
105.9657126945713941
 21
-23.8316421582990117
 31
0.0
  0
LINE
  5
8C25
  8
0
 10
105.9657126945713941
 20
-23.8316421582990117
 30
0.0
 11
105.9884430768183989
 21
-23.8240424535085786
 31
0.0
  0
LINE
  5
8C26
  8
0
 10
105.9884430768183989
 20
-23.8240424535085786
 30
0.0
 11
105.9998082839200038
 21
-23.818109836120211
 31
0.0
  0
LINE
  5
8C27
  8
0
 10
105.9998082839200038
 20
-23.818109836120211
 30
0.0
 11
105.9884431087533017
 21
-23.8197718633900486
 31
0.0
  0
LINE
  5
8C28
  8
0
 10
105.9884431087533017
 20
-23.8197718633900486
 30
0.0
 11
105.9657127235893057
 21
-23.8272421115992614
 31
0.0
  0
LINE
  5
8C29
  8
0
 10
105.9884431088026986
 20
-23.8197718633853484
 30
0.0
 11
105.9884430791393015
 21
-23.8240424522970393
 31
0.0
  0
LINE
  5
8C2A
  8
0
 10
105.9323060340878015
 20
-23.8371038703299689
 30
0.0
 11
105.9323060427884968
 21
-23.835934619731411
 31
0.0
  0
LINE
  5
8C2B
  8
0
 10
105.9323060427884968
 20
-23.835934619731411
 30
0.0
 11
105.9278268818045063
 21
-23.8369621764192701
 31
0.0
  0
LINE
  5
8C2C
  8
0
 10
105.9278268818045063
 20
-23.8369621764192701
 30
0.0
 11
105.9323060341220071
 21
-23.8371038703219504
 31
0.0
  0
LINE
  5
8C2D
  8
0
 10
105.9323060341220071
 20
-23.8371038703219504
 30
0.0
 11
105.955036403493196
 21
-23.8312402443887983
 31
0.0
  0
LINE
  5
8C2E
  8
0
 10
105.955036403493196
 20
-23.8312402443887983
 30
0.0
 11
105.9595155748854012
 21
-23.8288069414427817
 31
0.0
  0
LINE
  5
8C2F
  8
0
 10
105.9595155748854012
 20
-23.8288069414427817
 30
0.0
 11
105.9323060427882979
 21
-23.8359346197314714
 31
0.0
  0
LINE
  5
8C30
  8
0
 10
105.9550364003042944
 20
-23.831240246121169
 30
0.0
 11
105.9550364132005029
 21
-23.8299802811157697
 31
0.0
  0
LINE
  5
8C31
  8
0
 10
105.9216297288245983
 20
-23.8385996119199604
 30
0.0
 11
105.9216296944915996
 21
-23.8431884859911598
 31
0.0
  0
LINE
  5
8C32
  8
0
 10
105.9216296944915996
 20
-23.8431884859911598
 30
0.0
 11
105.8988993361340931
 21
-23.8475778422504092
 31
0.0
  0
LINE
  5
8C33
  8
0
 10
105.8988993361340931
 20
-23.8475778422504092
 30
0.0
 11
105.8875341746136058
 21
-23.8474257469698401
 31
0.0
  0
LINE
  5
8C34
  8
0
 10
105.8875341746136058
 20
-23.8474257469698401
 30
0.0
 11
105.8988993709450028
 21
-23.8429195531650393
 31
0.0
  0
LINE
  5
8C35
  8
0
 10
105.8988993709450028
 20
-23.8429195531650393
 30
0.0
 11
105.9216297288903945
 21
-23.83859961185847
 31
0.0
  0
LINE
  5
8C36
  8
0
 10
105.9216297288903945
 20
-23.83859961185847
 30
0.0
 11
105.9329948907826946
 21
-23.8387170028219089
 31
0.0
  0
LINE
  5
8C37
  8
0
 10
105.9329948907826946
 20
-23.8387170028219089
 30
0.0
 11
105.9216296944915996
 21
-23.8431884861000292
 31
0.0
  0
LINE
  5
8C38
  8
0
 10
105.8988993384137984
 20
-23.8475778418101889
 30
0.0
 11
105.8988993709450028
 21
-23.8429195531650393
 31
0.0
  0
LINE
  5
8C39
  8
0
 10
105.8927022246251965
 20
-23.8436363551717214
 30
0.0
 11
105.8610135630456028
 21
-23.8476061798282686
 31
0.0
  0
LINE
  5
8C3A
  8
0
 10
105.8610135630456028
 20
-23.8476061798282686
 30
0.0
 11
105.8654927107308055
 21
-23.8483587709590488
 31
0.0
  0
LINE
  5
8C3B
  8
0
 10
105.8654927107308055
 20
-23.8483587709590488
 30
0.0
 11
105.8882230576227954
 21
-23.8455047758666403
 31
0.0
  0
LINE
  5
8C3C
  8
0
 10
105.8882230576227954
 20
-23.8455047758666403
 30
0.0
 11
105.892702224819601
 21
-23.8436363550873196
 31
0.0
  0
LINE
  5
8C3D
  8
0
 10
105.8882230595400955
 20
-23.8455047750668712
 30
0.0
 11
105.8882230665444979
 21
-23.8443116882666786
 31
0.0
  0
LINE
  5
8C3E
  8
0
 10
105.8654927104644941
 20
-23.8483587709143094
 30
0.0
 11
105.8654927196375013
 21
-23.8471609484487601
 31
0.0
  0
LINE
  5
8C3F
  8
0
 10
105.8882230331864065
 20
-23.8487725911504
 30
0.0
 11
105.8654926860109953
 21
-23.8516577424916996
 31
0.0
  0
LINE
  5
8C40
  8
0
 10
105.8654926860109953
 20
-23.8516577424916996
 30
0.0
 11
105.8541275046580949
 21
-23.8541832989057809
 31
0.0
  0
LINE
  5
8C41
  8
0
 10
105.8541275046580949
 20
-23.8541832989057809
 30
0.0
 11
105.8650084126824993
 21
-23.8537710694056599
 31
0.0
  0
LINE
  5
8C42
  8
0
 10
105.8671871862681968
 20
-23.8535329757851997
 30
0.0
 11
105.8857227379590995
 21
-23.8511292590403308
 31
0.0
  0
LINE
  5
8C43
  8
0
 10
105.8890629309540969
 20
-23.85062368857443
 30
0.0
 11
105.8995881988954011
 21
-23.8483513661276589
 31
0.0
  0
LINE
  5
8C44
  8
0
 10
105.8995881988954011
 20
-23.8483513661276589
 30
0.0
 11
105.8882230331864065
 21
-23.8487725911665507
 31
0.0
  0
LINE
  5
8C45
  8
0
 10
105.8882230331864065
 20
-23.8487725911665507
 30
0.0
 11
105.8882230183778006
 21
-23.8507529106040117
 31
0.0
  0
LINE
  5
8C46
  8
0
 10
105.8654926860109953
 20
-23.8516577425809508
 30
0.0
 11
105.8654926706537935
 21
-23.8537189547859683
 31
0.0
  0
LINE
  5
8C47
  8
0
 10
105.8320860442038054
 20
-23.8546298925312392
 30
0.0
 11
105.8320860799333047
 21
-23.8498626807064689
 31
0.0
  0
LINE
  5
8C48
  8
0
 10
105.8320860799333047
 20
-23.8498626807064689
 30
0.0
 11
105.8207208940513055
 21
-23.8529717936560886
 31
0.0
  0
LINE
  5
8C49
  8
0
 10
105.8207208940513055
 20
-23.8529717936560886
 30
0.0
 11
105.8320860442038054
 21
-23.8546298925841604
 31
0.0
  0
LINE
  5
8C4A
  8
0
 10
105.8320860442038054
 20
-23.8546298925841604
 30
0.0
 11
105.8548163804830011
 21
-23.8531929972817913
 31
0.0
  0
LINE
  5
8C4B
  8
0
 10
105.8548163804830011
 20
-23.8531929972817913
 30
0.0
 11
105.866181566276893
 21
-23.8501201864235384
 31
0.0
  0
LINE
  5
8C4C
  8
0
 10
105.866181566276893
 20
-23.8501201864235384
 30
0.0
 11
105.8548164160129943
 21
-23.8484477249156193
 31
0.0
  0
LINE
  5
8C4D
  8
0
 10
105.8548164160129943
 20
-23.8484477249156193
 30
0.0
 11
105.8320860799334042
 21
-23.8498626659931183
 31
0.0
  0
LINE
  5
8C4E
  8
0
 10
105.8548164160129943
 20
-23.8484477249156193
 30
0.0
 11
105.8548163805301954
 21
-23.853192997255551
 31
0.0
  0
LINE
  5
8C4F
  8
0
 10
105.9550363681671996
 20
-23.835966733511011
 30
0.0
 11
105.9550363802648008
 21
-23.8343465171887097
 31
0.0
  0
LINE
  5
8C50
  8
0
 10
105.9550363802648008
 20
-23.8343465171887097
 30
0.0
 11
105.9664015589908956
 21
-23.8322014002378211
 31
0.0
  0
LINE
  5
8C51
  8
0
 10
105.9664015589908956
 20
-23.8322014002378211
 30
0.0
 11
105.9569648949598957
 21
-23.83540027585315
 31
0.0
  0
LINE
  5
8C52
  8
0
 10
105.9506602593364022
 20
-23.8372221156459503
 30
0.0
 11
105.9364778097310023
 21
-23.8410077908980398
 31
0.0
  0
LINE
  5
8C53
  8
0
 10
105.930924341336393
 20
-23.8423738676225589
 30
0.0
 11
105.9209408181924061
 21
-23.8441984336262784
 31
0.0
  0
LINE
  5
8C54
  8
0
 10
105.9209408181924061
 20
-23.8441984336262784
 30
0.0
 11
105.9323060103024972
 21
-23.8402777505345398
 31
0.0
  0
LINE
  5
8C55
  8
0
 10
105.9323060103024972
 20
-23.8402777505345398
 30
0.0
 11
105.9550363802648008
 21
-23.8343465171561917
 31
0.0
  0
LINE
  5
8C56
  8
0
 10
105.9323060103110947
 20
-23.8402777505137706
 30
0.0
 11
105.9323059979707011
 21
-23.8420400583718717
 31
0.0
  0
LINE
  5
8C57
  8
0
 10
105.8320910505785974
 20
-23.7401135672648209
 30
0.0
 11
105.820725887802098
 21
-23.7533698113196898
 31
0.0
  0
LINE
  5
8C58
  8
0
 10
105.820725887802098
 20
-23.7533698113196898
 30
0.0
 11
105.8320867140513002
 21
-23.7650635755426407
 31
0.0
  0
LINE
  5
8C59
  8
0
 10
105.7986844324610018
 20
-23.7618413517548603
 30
0.0
 11
105.8214147564786032
 21
-23.7618414214878797
 31
0.0
  0
LINE
  5
8C5A
  8
0
 10
105.8214147564786032
 20
-23.7618414214878797
 30
0.0
 11
105.8327602153295004
 21
-23.7729766152423387
 31
0.0
  0
LINE
  5
8C5B
  8
0
 10
105.8327602153295004
 20
-23.7729766152423387
 30
0.0
 11
105.8214147579084994
 21
-23.7840190014176187
 31
0.0
  0
LINE
  5
8C5C
  8
0
 10
105.8214147579084994
 20
-23.7840190014176187
 30
0.0
 11
105.7986850736142941
 21
-23.7840195333354991
 31
0.0
  0
LINE
  5
8C5D
  8
0
 10
105.7986850736142941
 20
-23.7840195333354991
 30
0.0
 11
105.7873192681639978
 21
-23.7729565375776097
 31
0.0
  0
LINE
  5
8C5E
  8
0
 10
105.7873192681639978
 20
-23.7729565375776097
 30
0.0
 11
105.7986844324610018
 21
-23.7618413517548603
 31
0.0
  0
LINE
  5
8C5F
  8
0
 10
105.7986844324610018
 20
-23.7618413517548603
 30
0.0
 11
105.7986844309785965
 21
-23.7840189078209399
 31
0.0
  0
LINE
  5
8C60
  8
0
 10
105.8214147564812038
 20
-23.7618414214906117
 30
0.0
 11
105.8214147579084994
 21
-23.7840190014176187
 31
0.0
  0
LINE
  5
8C61
  8
0
 10
105.8214147578033959
 20
-23.7444607987190111
 30
0.0
 11
105.8214147564786032
 21
-23.7165564651023608
 31
0.0
  0
LINE
  5
8C62
  8
0
 10
105.8214147564786032
 20
-23.7165564651023608
 30
0.0
 11
105.7986844309785965
 21
-23.7165564651023608
 31
0.0
  0
LINE
  5
8C63
  8
0
 10
105.7986844309785965
 20
-23.7165564651023608
 30
0.0
 11
105.7873192681965975
 21
-23.7305768642444903
 31
0.0
  0
LINE
  5
8C64
  8
0
 10
105.7873192681965975
 20
-23.7305768642444903
 30
0.0
 11
105.7986844188446014
 21
-23.7444612830130914
 31
0.0
  0
LINE
  5
8C65
  8
0
 10
105.7986844188446014
 20
-23.7444612830130914
 30
0.0
 11
105.8214147578033959
 21
-23.7444612819339405
 31
0.0
  0
LINE
  5
8C66
  8
0
 10
105.8214147578033959
 20
-23.7444612819339405
 30
0.0
 11
105.8327799192410055
 21
-23.7305768643466592
 31
0.0
  0
LINE
  5
8C67
  8
0
 10
105.8327799192410055
 20
-23.7305768643466592
 30
0.0
 11
105.8214147550011006
 21
-23.7165564651023608
 31
0.0
  0
LINE
  5
8C68
  8
0
 10
105.7986844303798932
 20
-23.7165564658409203
 30
0.0
 11
105.7986732643492047
 21
-23.7444476559447004
 31
0.0
  0
LINE
  5
8C69
  8
0
 10
105.7986844308923935
 20
-23.7976510947036104
 30
0.0
 11
105.8214147565147982
 21
-23.7976510947341389
 31
0.0
  0
LINE
  5
8C6A
  8
0
 10
105.8214147565147982
 20
-23.7976510947341389
 30
0.0
 11
105.8258939140475974
 21
-23.8011281407791593
 31
0.0
  0
LINE
  5
8C6B
  8
0
 10
105.8258939140475974
 20
-23.8011281407791593
 30
0.0
 11
105.7942052393910046
 21
-23.8011293062235083
 31
0.0
  0
LINE
  5
8C6C
  8
0
 10
105.7942052393910046
 20
-23.8011293062235083
 30
0.0
 11
105.7986844321117985
 21
-23.7976510393722407
 31
0.0
  0
LINE
  5
8C6D
  8
0
 10
105.7986844309785965
 20
-23.8499011394759712
 30
0.0
 11
105.8214147564786032
 21
-23.8499061991364911
 31
0.0
  0
LINE
  5
8C6E
  8
0
 10
105.8214147564786032
 20
-23.8499061991364911
 30
0.0
 11
105.8258939097785998
 21
-23.8497921132759707
 31
0.0
  0
LINE
  5
8C6F
  8
0
 10
105.8258939097785998
 20
-23.8497921132759707
 30
0.0
 11
105.8214147564786032
 21
-23.8511099975759713
 31
0.0
  0
LINE
  5
8C70
  8
0
 10
105.8214147564786032
 20
-23.8511099975759713
 30
0.0
 11
105.7986844309530028
 21
-23.8511099976471215
 31
0.0
  0
LINE
  5
8C71
  8
0
 10
105.7986844309530028
 20
-23.8511099976471215
 30
0.0
 11
105.7942052776551947
 21
-23.8497921132850514
 31
0.0
  0
LINE
  5
8C72
  8
0
 10
105.7942052776551947
 20
-23.8497921132850514
 30
0.0
 11
105.7986844309785965
 21
-23.8499011394759712
 31
0.0
  0
LINE
  5
8C73
  8
0
 10
105.7986844309785965
 20
-23.8499011394759712
 30
0.0
 11
105.7986844246637048
 21
-23.8511099957966586
 31
0.0
  0
LINE
  5
8C74
  8
0
 10
105.8214147564786032
 20
-23.8499061991364911
 30
0.0
 11
105.8214147583585998
 21
-23.8511099970228102
 31
0.0
  0
LINE
  5
8C75
  8
0
 10
105.7986844309315018
 20
-23.8544386539453086
 30
0.0
 11
105.8214147565398946
 21
-23.8544386537852589
 31
0.0
  0
LINE
  5
8C76
  8
0
 10
105.8214147565398946
 20
-23.8544386537852589
 30
0.0
 11
105.832779919270294
 21
-23.8555422843479086
 31
0.0
  0
LINE
  5
8C77
  8
0
 10
105.832779919270294
 20
-23.8555422843479086
 30
0.0
 11
105.8214147564786032
 21
-23.85659319767597
 31
0.0
  0
LINE
  5
8C78
  8
0
 10
105.8214147564786032
 20
-23.85659319767597
 30
0.0
 11
105.7986844286954948
 21
-23.8565931976244592
 31
0.0
  0
LINE
  5
8C79
  8
0
 10
105.7986844286954948
 20
-23.8565931976244592
 30
0.0
 11
105.7873192684503039
 21
-23.8555422843129286
 31
0.0
  0
LINE
  5
8C7A
  8
0
 10
105.7873192684503039
 20
-23.8555422843129286
 30
0.0
 11
105.7986844309315018
 21
-23.8544386539453086
 31
0.0
  0
LINE
  5
8C7B
  8
0
 10
105.7986844309315018
 20
-23.8544386539453086
 30
0.0
 11
105.7986844778017996
 21
-23.8565931976244698
 31
0.0
  0
LINE
  5
8C7C
  8
0
 10
105.8214147565398946
 20
-23.8544386537852589
 30
0.0
 11
105.8214147572819002
 21
-23.8565931976016898
 31
0.0
  0
LINE
  5
8C7E
  8
0
 10
106.7954306628162016
 20
-22.8660226803868305
 30
0.0
 11
106.7954306628162016
 21
-21.5657606592297917
 31
0.0
  0
LINE
  5
8C7F
  8
0
 10
104.8246320398382068
 20
-22.8656594413875212
 30
0.0
 11
104.8246320398382068
 21
-21.5657884476102808
 31
0.0
  0
ENDSEC
  0
EOF
