  0
SECTION
  2
HEADER
  9
$ACADVER
  1
AC1009
  9
$INSBASE
 10
4541.2213853430239396
 20
-8.6166750950142728
 30
0.0
  9
$EXTMIN
 10
4483.9273372938023385
 20
-31.6461027190508908
 30
0.0
  9
$EXTMAX
 10
4571.6030645481696411
 20
24.9189072647764682
 30
0.0
  9
$LIMMIN
 10
0.0
 20
0.0
  9
$LIMMAX
 10
11.6929133858000007
 20
8.2677165353999982
  9
$ORTHOMODE
 70
     0
  9
$REGENMODE
 70
     1
  9
$FILLMODE
 70
     1
  9
$QTEXTMODE
 70
     0
  9
$MIRRTEXT
 70
     0
  9
$DRAGMODE
 70
     2
  9
$LTSCALE
 40
0.6431102362
  9
$OSMODE
 70
  4095
  9
$ATTMODE
 70
     1
  9
$TEXTSIZE
 40
0.2
  9
$TRACEWID
 40
0.05
  9
$TEXTSTYLE
  7
STANDARD
  9
$CLAYER
  8
0
  9
$CELTYPE
  6
BYLAYER
  9
$CECOLOR
 62
   256
  9
$DIMSCALE
 40
1.0
  9
$DIMASZ
 40
0.1875
  9
$DIMEXO
 40
0.0625
  9
$DIMDLI
 40
0.4443307087
  9
$DIMRND
 40
0.0
  9
$DIMDLE
 40
0.0
  9
$DIMEXE
 40
0.125
  9
$DIMTP
 40
0.01
  9
$DIMTM
 40
0.01
  9
$DIMTXT
 40
2.0
  9
$DIMCEN
 40
0.1052362205
  9
$DIMTSZ
 40
0.0
  9
$DIMTOL
 70
     1
  9
$DIMLIM
 70
     0
  9
$DIMTIH
 70
     1
  9
$DIMTOH
 70
     1
  9
$DIMSE1
 70
     0
  9
$DIMSE2
 70
     0
  9
$DIMTAD
 70
     0
  9
$DIMZIN
 70
     0
  9
$DIMBLK
  1

  9
$DIMASO
 70
     1
  9
$DIMSHO
 70
     1
  9
$DIMPOST
  1
\X
  9
$DIMAPOST
  1

  9
$DIMALT
 70
     1
  9
$DIMALTD
 70
     2
  9
$DIMALTF
 40
25.3999999999999986
  9
$DIMLFAC
 40
1.0
  9
$DIMTOFL
 70
     0
  9
$DIMTVP
 40
0.0
  9
$DIMTIX
 70
     0
  9
$DIMSOXD
 70
     0
  9
$DIMSAH
 70
     0
  9
$DIMBLK1
  1

  9
$DIMBLK2
  1

  9
$DIMSTYLE
  2
STANDARD
  9
$DIMCLRD
 70
     0
  9
$DIMCLRE
 70
     0
  9
$DIMCLRT
 70
     0
  9
$DIMTFAC
 40
1.0
  9
$DIMGAP
 40
0.09
  9
$LUNITS
 70
     2
  9
$LUPREC
 70
     4
  9
$SKETCHINC
 40
0.1
  9
$FILLETRAD
 40
0.0
  9
$AUNITS
 70
     0
  9
$AUPREC
 70
     0
  9
$MENU
  1
.
  9
$ELEVATION
 40
0.0
  9
$PELEVATION
 40
0.0
  9
$THICKNESS
 40
0.0
  9
$LIMCHECK
 70
     0
  9
$BLIPMODE
 70
     0
  9
$CHAMFERA
 40
0.0
  9
$CHAMFERB
 40
0.0
  9
$SKPOLY
 70
     0
  9
$TDCREATE
 40
2458060.468368056230247
  9
$TDUPDATE
 40
2459215.5120254629291594
  9
$TDINDWG
 40
0.4559677083
  9
$TDUSRTIMER
 40
0.4559677083
  9
$USRTIMER
 70
     1
  9
$ANGBASE
 50
0.0
  9
$ANGDIR
 70
     0
  9
$PDMODE
 70
     0
  9
$PDSIZE
 40
0.3125
  9
$PLINEWID
 40
0.0
  9
$COORDS
 70
     1
  9
$SPLFRAME
 70
     0
  9
$SPLINETYPE
 70
     6
  9
$SPLINESEGS
 70
     8
  9
$ATTDIA
 70
     1
  9
$ATTREQ
 70
     1
  9
$HANDLING
 70
     1
  9
$HANDSEED
  5
1455B
  9
$SURFTAB1
 70
     6
  9
$SURFTAB2
 70
     6
  9
$SURFTYPE
 70
     6
  9
$SURFU
 70
     6
  9
$SURFV
 70
     6
  9
$UCSNAME
  2

  9
$UCSORG
 10
0.0
 20
0.0
 30
0.0
  9
$UCSXDIR
 10
1.0
 20
0.0
 30
0.0
  9
$UCSYDIR
 10
0.0
 20
1.0
 30
0.0
  9
$PUCSNAME
  2

  9
$PUCSORG
 10
0.0
 20
0.0
 30
0.0
  9
$PUCSXDIR
 10
1.0
 20
0.0
 30
0.0
  9
$PUCSYDIR
 10
0.0
 20
1.0
 30
0.0
  9
$USERI1
 70
     0
  9
$USERI2
 70
     0
  9
$USERI3
 70
     0
  9
$USERI4
 70
     0
  9
$USERI5
 70
     0
  9
$USERR1
 40
0.0
  9
$USERR2
 40
0.0
  9
$USERR3
 40
0.0
  9
$USERR4
 40
0.0
  9
$USERR5
 40
0.0
  9
$WORLDVIEW
 70
     1
  9
$SHADEDGE
 70
     3
  9
$SHADEDIF
 70
    70
  9
$TILEMODE
 70
     1
  9
$MAXACTVP
 70
    64
  9
$PLIMCHECK
 70
     0
  9
$PEXTMIN
 10
1.0000000000000000E+20
 20
1.0000000000000000E+20
 30
1.0000000000000000E+20
  9
$PEXTMAX
 10
-1.0000000000000000E+20
 20
-1.0000000000000000E+20
 30
-1.0000000000000000E+20
  9
$PLIMMIN
 10
0.0
 20
0.0
  9
$PLIMMAX
 10
12.0
 20
9.0
  9
$UNITMODE
 70
     0
  9
$VISRETAIN
 70
     1
  9
$PLINEGEN
 70
     0
  9
$PSLTSCALE
 70
     1
  0
ENDSEC
  0
SECTION
  2
TABLES
  0
TABLE
  2
VPORT
 70
     1
  0
VPORT
  2
*ACTIVE
 70
     0
 10
0.0
 20
0.0
 11
1.0
 21
1.0
 12
787.108285264223241
 22
-97.362270603737656
 13
0.0
 23
0.0
 14
1.0
 24
1.0
 15
0.0
 25
0.0
 16
0.0
 26
0.0
 36
5.1040778033513332
 17
3792.35791015625
 27
120.1806564331053977
 37
0.0
 40
241.3227736665020018
 41
2.005224660397074
 42
50.0
 43
0.0
 44
0.0
 50
0.0
 51
0.0
 71
     0
 72
   100
 73
     1
 74
     1
 75
     0
 76
     0
 77
     0
 78
     0
  0
ENDTAB
  0
TABLE
  2
LTYPE
 70
     2
  0
LTYPE
  2
CONTINUOUS
 70
     0
  3
Solid line
 72
    65
 73
     0
 40
0.0
  0
LTYPE
  2
PHANTOM2
 70
     0
  3
___ _ _ ___ _ _ ___ _ _ ___ _ _
 72
    65
 73
     6
 40
1.25
 49
0.625
 49
-0.125
 49
0.125
 49
-0.125
 49
0.125
 49
-0.125
  0
ENDTAB
  0
TABLE
  2
LAYER
 70
     2
  0
LAYER
  2
0
 70
     0
 62
   255
  6
CONTINUOUS
  0
LAYER
  2
DEFPOINTS
 70
     0
 62
     7
  6
CONTINUOUS
  0
ENDTAB
  0
TABLE
  2
STYLE
 70
     1
  0
STYLE
  2
STANDARD
 70
     0
 40
0.0
 41
0.8
 50
0.0
 71
     0
 42
0.2
  3
txt
  4

  0
ENDTAB
  0
TABLE
  2
VIEW
 70
     0
  0
ENDTAB
  0
TABLE
  2
UCS
 70
     0
  0
ENDTAB
  0
TABLE
  2
APPID
 70
     9
  0
APPID
  2
ACAD
 70
     0
  0
APPID
  2
ACAD_MLEADERVER
 70
     0
  0
APPID
  2
ACAD_EXEMPT_FROM_CAD_STANDARDS
 70
     0
  0
APPID
  2
ACAD_NAV_VCDISPLAY
 70
     0
  0
APPID
  2
ACAECLAYERSTANDARD
 70
     0
  0
APPID
  2
ACCMTRANSPARENCY
 70
     0
  0
APPID
  2
ACAD_DSTYLE_DIMJAG
 70
     0
  0
APPID
  2
ACAD_DSTYLE_DIMTALN
 70
     0
  0
APPID
  2
ACDBATTR
 70
     0
  0
ENDTAB
  0
TABLE
  2
DIMSTYLE
 70
     1
  0
DIMSTYLE
  2
STANDARD
 70
     0
  3

  4

  5

  6

  7

 40
1.0
 41
0.1875
 42
0.0625
 43
0.38
 44
0.125
 45
0.0
 46
0.0
 47
0.01
 48
0.01
140
0.15625
141
0.09
142
0.0
143
25.3999999999999986
144
1.0
145
0.0
146
1.0
147
0.09
 71
     1
 72
     0
 73
     1
 74
     1
 75
     0
 76
     0
 77
     0
 78
     4
170
     0
171
     2
172
     0
173
     0
174
     0
175
     0
176
     0
177
     0
178
     0
  0
ENDTAB
  0
ENDSEC
  0
SECTION
  2
BLOCKS
  0
BLOCK
  8
0
  2
$MODEL_SPACE
 70
     0
 10
0.0
 20
0.0
 30
0.0
  3
$MODEL_SPACE
  1

  0
ENDBLK
  5
21
  8
0
  0
BLOCK
 67
     1
  8
0
  2
$PAPER_SPACE
 70
     0
 10
0.0
 20
0.0
 30
0.0
  3
$PAPER_SPACE
  1

  0
ENDBLK
  5
1D
 67
     1
  8
0
  0
BLOCK
  8
0
  2
_FILLED
 70
     0
 10
0.0
 20
0.0
 30
0.0
  3
_FILLED
  1

  0
SOLID
  5
69B4
  8
0
  6
BYBLOCK
 62
     0
 10
0.0
 20
0.0
 30
0.0
 11
-1.0
 21
0.1666666667
 31
0.0
 12
-1.0
 22
-0.1666666667
 32
0.0
 13
-1.0
 23
-0.1666666667
 33
0.0
  0
ENDBLK
  5
69B5
  8
0
  6
BYBLOCK
 62
     0
  0
BLOCK
  8
0
  2
A$CDFAF6206
 70
     0
 10
0.0
 20
0.0
 30
0.0
  3
A$CDFAF6206
  1

  0
LINE
  5
6A0E
  8
0
 10
7.4646650085734834
 20
10.9287685970688493
 30
0.0
 11
7.4646650085734896
 21
10.8905784766688498
 31
0.0
  0
ARC
  5
6A0F
  8
0
 10
7.7269027075262349
 20
10.8926811525838598
 30
0.0
 40
0.2622461286616791
 50
180.4593995232625048
 51
217.0214027758331099
  0
LINE
  5
6A10
  8
0
 10
9.767814609867095
 20
10.9287685970688493
 30
0.0
 11
9.767814609867095
 21
10.8905433757650094
 31
0.0
  0
ARC
  5
6A11
  8
0
 10
9.5068669568548287
 20
10.8922438613003703
 30
0.0
 40
0.2609531936261092
 50
322.8847083717149076
 51
359.6266329125650145
  0
LINE
  5
6A12
  8
0
 10
7.517522606271406
 20
10.7347792678688396
 30
0.0
 11
9.7149570120691777
 21
10.7347792678688396
 31
0.0
  0
LINE
  5
6A13
  8
0
 10
7.4646650085734834
 20
10.9287685970688493
 30
0.0
 11
9.7678146123202936
 21
10.9287685970688493
 31
0.0
  0
ARC
  5
6A14
  8
0
 10
4.0826771419203629
 20
8.527951346868889
 30
0.0
 40
4.0826771653999172
 50
13.3117747050523896
 51
32.7200330051415591
  0
ARC
  5
6A15
  8
0
 10
4.0826771460567306
 20
8.5279513475907933
 30
0.0
 40
4.0826771612084691
 50
359.6656501984817851
 51
13.3117747085593798
  0
ARC
  5
6A16
  8
0
 10
13.1498041284835097
 20
8.5279508235212234
 30
0.0
 40
4.0826788382043553
 50
147.2799733478981068
 51
166.6882233021349862
  0
ARC
  5
6A17
  8
0
 10
13.1498064934207992
 20
8.5279506557033251
 30
0.0
 40
4.0826811782395342
 50
166.688228652086309
 51
180.3343397625230011
  0
LINE
  5
6A18
  8
0
 10
8.1652847935202928
 20
8.504127000268852
 30
0.0
 11
9.0671948248202892
 21
8.5041270002687881
 31
0.0
  0
LINE
  5
6A19
  8
0
 10
8.1652847935202786
 20
8.5041270002667204
 30
0.0
 11
8.1652847935202928
 21
8.3607006934688481
 31
0.0
  0
ARC
  5
6A1A
  8
0
 10
5.6196779630382627
 20
8.3631022096452732
 30
0.0
 40
2.545607963272567
 50
342.0511668832173768
 51
359.945947387132378
  0
LINE
  5
6A1B
  8
0
 10
9.0671948248202892
 20
8.5041270002687881
 30
0.0
 11
9.0671948248202892
 21
8.2885990108688503
 31
0.0
  0
ARC
  5
6A1C
  8
0
 10
9.4521885297801163
 20
7.9614488056228501
 30
0.0
 40
0.5052201595850959
 50
139.6436242991769916
 51
174.6757930071850069
  0
ARC
  5
6A1D
  8
0
 10
9.9238413395551746
 20
8.1492417579399508
 30
0.0
 40
0.9848265662939324
 50
188.2263441834095943
 51
209.5593615864376034
  0
ARC
  5
6A1E
  8
0
 10
8.0788764238271256
 20
7.5665710856463297
 30
0.0
 40
0.0393715937169877
 50
162.1669117288323037
 51
227.2023190037006088
  0
ARC
  5
6A1F
  8
0
 10
8.7223682141740682
 20
8.2079667397440517
 30
0.0
 40
0.947895137885075
 50
225.0018610752970858
 51
261.4598823366255829
  0
ARC
  5
6A20
  8
0
 10
8.6645157662702701
 20
8.1695128573935332
 30
0.0
 40
0.9027466462812931
 50
264.7303071214498118
 51
281.8608311947915013
  0
ARC
  5
6A21
  8
0
 10
8.6645157662698935
 20
8.1695128573999671
 30
0.0
 40
0.9027466462876658
 50
299.1741886792128753
 51
299.1743179154552195
  0
ARC
  5
6A22
  8
0
 10
9.0843330931590316
 20
7.4150554710086141
 30
0.0
 40
0.0393703053609601
 50
251.9700352025496954
 51
252.4698971938937859
  0
ARC
  5
6A23
  8
0
 10
9.0843330931590316
 20
7.4150554710086141
 30
0.0
 40
0.0393703053609601
 50
297.2453716727138726
 51
6.8376113572703074
  0
LINE
  5
6A24
  8
0
 10
9.0671948248202892
 20
7.663402160468852
 30
0.0
 11
9.1234233799329516
 21
7.419742732911689
 31
0.0
  0
ARC
  5
6A25
  8
0
 10
8.8843741880892395
 20
9.8961379890094676
 30
0.0
 40
2.5255097382132701
 50
263.792800240752797
 51
274.9514951129821156
  0
ARC
  5
6A26
  8
0
 10
8.8258167405968848
 20
9.2763025889666508
 30
0.0
 40
1.9029970832759311
 50
246.0108363320686067
 51
263.5276935074397215
  0
ARC
  5
6A27
  8
0
 10
8.607491361665744
 20
8.3225444804829642
 30
0.0
 40
1.064510137163637
 50
283.1717405874071005
 51
297.7022170607311864
  0
LINE
  5
6A28
  8
0
 10
9.0671948248202892
 20
8.2885990108688503
 30
0.0
 11
26.2014378595979593
 21
8.2885990108689942
 31
0.0
  0
LINE
  5
6A29
  8
0
 10
26.2014378595979913
 20
7.6634021604689053
 30
0.0
 11
9.0671948248202892
 21
7.6634021604688618
 31
0.0
  0
LINE
  5
6A2A
  8
0
 10
27.8039676758446994
 20
10.9287685970690802
 30
0.0
 11
27.8039676758446888
 21
10.8905784766690807
 31
0.0
  0
ARC
  5
6A2B
  8
0
 10
27.5417299768919399
 20
10.8926811525840801
 30
0.0
 40
0.2622461286616791
 50
322.9785972241680838
 51
359.5406004767386889
  0
LINE
  5
6A2C
  8
0
 10
25.5008180745510913
 20
10.9287685970690305
 30
0.0
 11
25.5008180745510913
 21
10.8905433757651799
 31
0.0
  0
ARC
  5
6A2D
  8
0
 10
25.7617657275633505
 20
10.8922438613005497
 30
0.0
 40
0.2609531936261092
 50
180.3733670874362929
 51
217.1152916282862861
  0
LINE
  5
6A2E
  8
0
 10
27.7511100781467803
 20
10.7347792678690706
 30
0.0
 11
25.5536756723490015
 21
10.7347792678690208
 31
0.0
  0
LINE
  5
6A2F
  8
0
 10
27.8039676758446888
 20
10.9287685970686006
 30
0.0
 11
25.5008180745510806
 21
10.9287685970686006
 31
0.0
  0
ARC
  5
6A30
  8
0
 10
31.1859555424978616
 20
8.5279513468691981
 30
0.0
 40
4.0826771653999172
 50
147.2799669948597057
 51
166.6882252949490066
  0
ARC
  5
6A31
  8
0
 10
31.185955538361501
 20
8.5279513475911024
 30
0.0
 40
4.0826771612084691
 50
166.6882252914419098
 51
180.3343498015194086
  0
ARC
  5
6A32
  8
0
 10
22.1188285559344706
 20
8.5279508235212251
 30
0.0
 40
4.0826788382046102
 50
13.3117766978667795
 51
32.7200266521023977
  0
ARC
  5
6A33
  8
0
 10
22.1188261909974315
 20
8.5279506557034264
 30
0.0
 40
4.0826811782395342
 50
359.665660237478221
 51
13.31177134791497
  0
LINE
  5
6A34
  8
0
 10
27.1033478908979397
 20
8.5041270002690652
 30
0.0
 11
26.2014378595979416
 21
8.5041270002689835
 31
0.0
  0
LINE
  5
6A35
  8
0
 10
27.1033478908979504
 20
8.5041270002669354
 30
0.0
 11
27.1033478908979397
 21
8.3607006934690649
 31
0.0
  0
ARC
  5
6A36
  8
0
 10
29.6489547213799689
 20
8.3631022096455467
 30
0.0
 40
2.545607963272567
 50
180.0540526128687873
 51
197.9488331167837032
  0
LINE
  5
6A37
  8
0
 10
26.2014378595979416
 20
8.5041270002689835
 30
0.0
 11
26.2014378595979487
 21
8.2885990108690457
 31
0.0
  0
ARC
  5
6A38
  8
0
 10
25.8164441546381305
 20
7.9614488056230366
 30
0.0
 40
0.5052201595850959
 50
5.324206992816312
 51
40.3563757008241879
  0
ARC
  5
6A39
  8
0
 10
25.3447913448601803
 20
8.149241757940846
 30
0.0
 40
0.9848265662968968
 50
330.4406384136033807
 51
351.7736558165743759
  0
ARC
  5
6A3A
  8
0
 10
27.1897562605911212
 20
7.5665710856465473
 30
0.0
 40
0.0393715937169877
 50
312.7976809963004143
 51
17.8330882711689185
  0
ARC
  5
6A3B
  8
0
 10
26.5462644702441715
 20
8.2079667397442542
 30
0.0
 40
0.947895137885075
 50
278.5401176633754972
 51
314.9981389247041079
  0
ARC
  5
6A3C
  8
0
 10
26.6041169181479695
 20
8.1695128573937392
 30
0.0
 40
0.9027466462812931
 50
258.139168805210204
 51
275.2696928785518935
  0
ARC
  5
6A3D
  8
0
 10
26.6041169181483497
 20
8.1695128574001732
 30
0.0
 40
0.9027466462876658
 50
240.8256820845460027
 51
240.8258113207880058
  0
ARC
  5
6A3E
  8
0
 10
26.1842995912592293
 20
7.4150554710088086
 30
0.0
 40
0.0393703053609601
 50
287.5301028061073794
 51
288.0299647974517825
  0
ARC
  5
6A3F
  8
0
 10
26.1842995912592293
 20
7.4150554710088086
 30
0.0
 40
0.0393703053609601
 50
173.1623886427310026
 51
242.7546283272870085
  0
LINE
  5
6A40
  8
0
 10
26.2014378595981192
 20
7.6634021604690448
 30
0.0
 11
26.1452093044853093
 21
7.4197427329118826
 31
0.0
  0
ARC
  5
6A41
  8
0
 10
26.384258496328961
 20
9.8961379890096666
 30
0.0
 40
2.5255097382132701
 50
265.0485048870193054
 51
276.2071997592482262
  0
ARC
  5
6A42
  8
0
 10
26.4428159438213299
 20
9.2763025889668516
 30
0.0
 40
1.9029970832759311
 50
276.4723064925619838
 51
293.9891636679327007
  0
ARC
  5
6A43
  8
0
 10
26.6611413227524885
 20
8.3225444804831703
 30
0.0
 40
1.064510137163637
 50
242.2977829392704052
 51
256.8282594125943774
  0
LINE
  5
6A44
  8
0
 62
     4
 10
17.9031473532159602
 20
10.9287685970686006
 30
0.0
 11
24.6329820359843588
 21
20.0952817181593808
 31
0.0
  0
LINE
  5
6A45
  8
0
 62
     4
 10
17.9031473532159602
 20
-0.0000000300842942
 30
0.0
 11
22.3963351323106608
 21
4.993614497796286
 31
0.0
  0
ENDBLK
  5
6A49
  8
0
  0
BLOCK
  8
0
  2
A$CACF2A18F
 70
     0
 10
0.0
 20
0.0
 30
0.0
  3
A$CACF2A18F
  1

  0
ARC
  5
CFA6
  8
0
 10
90.9208493850157424
 20
135.5472364407675059
 30
0.0
 40
0.0629921259999989
 50
359.9999999999984084
 51
87.9704269091006239
  0
ARC
  5
CFA7
  8
0
 10
89.7554239393253113
 20
135.4937573822367085
 30
0.0
 40
0.0787401574548956
 50
42.0773635511485935
 51
90.002466555011452
  0
ARC
  5
CFA8
  8
0
 10
89.9015343044157476
 20
135.6256734111915989
 30
0.0
 40
0.1181102362000077
 50
222.0773636588268971
 51
234.3682258658787134
  0
LINE
  5
CFA9
  8
0
 10
90.9230802716565307
 20
135.6101890505846939
 30
0.0
 11
89.8327263757157368
 21
135.6496318304747035
 31
0.0
  0
LINE
  5
CFAA
  8
0
 10
89.7357385506157357
 20
135.6496319409293108
 30
0.0
 11
81.9429610260157375
 21
135.6496319409293108
 31
0.0
  0
LINE
  5
CFAB
  8
0
 10
89.8327263757157368
 20
135.2444170534614898
 30
0.0
 11
90.3389727534157458
 21
135.2174495086674995
 31
0.0
  0
LINE
  5
CFAC
  8
0
 10
90.3389727534157458
 20
135.2174495086674995
 30
0.0
 11
90.9230937140361277
 21
135.1968096516384037
 31
0.0
  0
LINE
  5
CFAD
  8
0
 10
89.7357395163157463
 20
135.2566525115915965
 30
0.0
 11
80.9475489342853649
 21
135.2564286793412123
 31
0.0
  0
ARC
  5
CFAE
  8
0
 10
90.2197617461889649
 20
136.2985719900806032
 30
0.0
 40
1.2937347858106101
 50
267.7184551852546974
 51
272.4872961405357046
  0
ARC
  5
CFAF
  8
0
 10
90.161425934271449
 20
134.8546895753603962
 30
0.0
 40
0.1513275261683463
 50
87.41226818063015
 51
96.6300949882361522
  0
ARC
  5
CFB0
  8
0
 10
90.3917150669901446
 20
134.0534384848214131
 30
0.0
 40
0.9832927258449227
 50
104.594176069167105
 51
115.6549639542118939
  0
ARC
  5
CFB1
  8
0
 10
90.1039855324148817
 20
134.5831242373861016
 30
0.0
 40
0.3824333409135057
 50
111.1502617608979051
 51
129.8497993486172106
  0
ARC
  5
CFB2
  8
0
 10
89.8989597026026246
 20
134.8232523178710949
 30
0.0
 40
0.0667982939209932
 50
126.8160581161625942
 51
172.5428466734601045
  0
ARC
  5
CFB3
  8
0
 10
90.9221611872533373
 20
135.1337989895872056
 30
0.0
 40
0.0630175621420564
 50
1.187899428871287
 51
89.1521125650926365
  0
ARC
  5
CFB4
  8
0
 10
89.7357581747290567
 20
135.2369729215540133
 30
0.0
 40
0.0196795988827029
 50
2.3973328742479421
 51
90.0543226770949872
  0
ARC
  5
CFB5
  8
0
 10
90.9208458348440161
 20
133.8578912205124141
 30
0.0
 40
0.063009217481839
 50
272.0320038128788838
 51
0.0346248908634999
  0
ARC
  5
CFB6
  8
0
 10
89.7555353681320582
 20
133.9105553138537061
 30
0.0
 40
0.0782153337747571
 50
269.9158909216677102
 51
318.2276022520738934
  0
ARC
  5
CFB7
  8
0
 10
89.9069638153048771
 20
133.7723906698973906
 30
0.0
 40
0.1267796318283982
 50
125.8427610984978031
 51
137.2490328321725883
  0
ARC
  5
CFB8
  8
0
 10
89.7315073674556061
 20
133.7794717149606072
 30
0.0
 40
0.0239827914775955
 50
280.1616415091331191
 51
355.6335690181455789
  0
LINE
  5
CFB9
  8
0
 10
90.9230799982157407
 20
133.7949216246607875
 30
0.0
 11
89.8327263757157368
 21
133.7558651189305863
 31
0.0
  0
LINE
  5
CFBA
  8
0
 10
85.0925657650159053
 20
133.755865118953011
 30
0.0
 11
80.9672396713157241
 21
133.7558651189305863
 31
0.0
  0
LINE
  5
CFBB
  8
0
 10
89.8327263757157368
 20
134.1606734271902042
 30
0.0
 11
90.3390074429583052
 21
134.187677026581099
 31
0.0
  0
LINE
  5
CFBC
  8
0
 10
90.3390074429583052
 20
134.187677026581099
 30
0.0
 11
90.9231270116794406
 21
134.2083562376716941
 31
0.0
  0
LINE
  5
CFBD
  8
0
 10
89.7357396079135867
 20
134.1485348421146
 30
0.0
 11
80.9475532037162822
 21
134.1480651233304968
 31
0.0
  0
ARC
  5
CFBE
  8
0
 10
90.219904441479116
 20
133.1047023715165949
 30
0.0
 40
1.2955788663513901
 50
87.5225628950288552
 51
92.2837067831259787
  0
ARC
  5
CFBF
  8
0
 10
90.1614361839132243
 20
134.5504249971644981
 30
0.0
 40
0.1513275261683463
 50
263.3737652127608726
 51
272.5915920203676137
  0
ARC
  5
CFC0
  8
0
 10
90.3916713332455259
 20
135.3516916012048057
 30
0.0
 40
0.9832927258449226
 50
244.3488962467849035
 51
255.4096841318309998
  0
ARC
  5
CFC1
  8
0
 10
90.1039774859565199
 20
134.8219864645778046
 30
0.0
 40
0.3824333409135056
 50
230.1540608523800131
 51
248.8535984400996881
  0
ARC
  5
CFC2
  8
0
 10
89.8990096960601761
 20
134.5818819499284018
 30
0.0
 40
0.0668533032594063
 50
187.4871435347060071
 51
233.1782741628138069
  0
ARC
  5
CFC3
  8
0
 10
90.9222110699439696
 20
134.2713173869580032
 30
0.0
 40
0.0629678113698403
 50
270.8334646776481804
 51
358.8119062776855799
  0
LINE
  5
CFC4
  8
0
 10
90.9838415110157541
 20
135.5472364407675059
 30
0.0
 11
90.9838550969262343
 21
135.1466471274912919
 31
0.0
  0
LINE
  5
CFC5
  8
0
 10
90.9838550968811148
 20
134.2584737421607031
 30
0.0
 11
90.9838550408203446
 21
133.8579292981362983
 31
0.0
  0
ARC
  5
CFC6
  8
0
 10
76.734460106680288
 20
134.7025563209411985
 30
0.0
 40
14.2572681307406608
 50
358.2614635325682002
 51
1.7385547714942791
  0
ARC
  5
CFC7
  8
0
 10
90.3393191069916384
 20
135.1542061470873932
 30
0.0
 40
0.0634125121153757
 50
92.309202391883133
 51
179.7748873377555014
  0
LINE
  5
CFC8
  8
0
 10
90.2759070843157332
 20
135.1544552914888868
 30
0.0
 11
90.2759070843157332
 21
134.250652806494287
 31
0.0
  0
ARC
  5
CFC9
  8
0
 10
90.3394510291694957
 20
134.2509666458774973
 30
0.0
 40
0.0635447198651119
 50
180.2829778027835914
 51
266.8791669327802083
  0
LINE
  5
CFCA
  8
0
 10
89.8327263757157368
 20
135.6496318304747035
 30
0.0
 11
89.8327263757157368
 21
133.7558651189305863
 31
0.0
  0
LINE
  5
CFCB
  8
0
 10
89.7554205496004158
 20
135.6276753496148046
 30
0.0
 11
89.7554205496004158
 21
133.7776457886841968
 31
0.0
  0
ARC
  5
CFCC
  8
0
 10
89.7363035371115103
 20
134.1676438497304105
 30
0.0
 40
0.0191173269104045
 50
268.3096250407359094
 51
359.6713900154404087
  0
ARC
  5
CFCD
  8
0
 10
80.9704001942968432
 20
133.7785288180162979
 30
0.0
 40
0.0228830103300126
 50
183.2783555628222985
 51
262.0611248940360838
  0
LINE
  5
CFCE
  8
0
 10
80.9475541702160228
 20
133.7772201168388904
 30
0.0
 11
80.9475477417157379
 21
135.5660251417916129
 31
0.0
  0
ARC
  5
CFCF
  8
0
 10
80.9672328589596759
 20
135.5660250017471924
 30
0.0
 40
0.0196851172444256
 50
90.0000834739708893
 51
179.9995923847855863
  0
LINE
  5
CFD0
  8
0
 10
80.9672328302805084
 20
135.5857101189916136
 30
0.0
 11
81.0291909095157337
 21
135.5857068328915886
 31
0.0
  0
ARC
  5
CFD1
  8
0
 10
81.9372019941309162
 20
135.6526354220935957
 30
0.0
 40
0.0064951787777083
 50
292.4840382100289844
 51
332.4568168081971749
  0
ARC
  5
CFD2
  8
0
 10
33.7964180741156497
 20
227.3483389889192949
 30
0.0
 40
103.5711202157468023
 50
297.6693745356491831
 51
297.6994104604295899
  0
ARC
  5
CFD3
  8
0
 10
81.270454071815152
 20
136.8165331196867953
 30
0.0
 40
1.346905119510126
 50
288.661698856367309
 51
297.4626601690857228
  0
ARC
  5
CFD4
  8
0
 10
81.4177506133888613
 20
133.0514820026776022
 30
0.0
 40
0.8603844207287361
 50
75.9183391021734622
 51
116.847913235625299
  0
ARC
  5
CFD5
  8
0
 10
81.2884137462074108
 20
132.6166869240269932
 30
0.0
 40
1.3137292862536949
 50
60.9780008092711583
 51
75.06075796277824
  0
ARC
  5
CFD6
  8
0
 10
82.0760120039756487
 20
134.0363407952193882
 30
0.0
 40
0.3097632869366516
 50
240.9847058525959085
 51
244.8841802755605954
  0
LINE
  5
CFD7
  8
0
 10
81.029180529912054
 20
133.819124264191089
 30
0.0
 11
80.9672395440609591
 21
133.8191242529966019
 31
0.0
  0
ARC
  5
CFD8
  8
0
 10
80.9672408746944967
 20
133.8388111788243862
 30
0.0
 40
0.0196869258728019
 50
180.0043775548184897
 51
269.996127394795792
  0
LINE
  5
CFD9
  8
0
 10
81.0256391588158209
 20
133.8191242635508047
 30
0.0
 11
81.0256391588158209
 21
133.7575352478253876
 31
0.0
  0
ARC
  5
CFDA
  8
0
 10
81.5646052469859058
 20
136.7820053678667875
 30
0.0
 40
1.310648197477968
 50
245.8886612785981924
 51
249.5861188524023078
  0
ARC
  5
CFDB
  8
0
 10
81.451048923091605
 20
136.4615289628372068
 30
0.0
 40
0.9707049454699953
 50
249.2699100313409986
 51
261.979837100192924
  0
LINE
  5
CFDC
  8
0
 10
81.3156146387157435
 20
135.5003184521916069
 30
0.0
 11
81.4232744839157334
 21
135.500318449991596
 31
0.0
  0
ARC
  5
CFDD
  8
0
 10
81.4232740425988482
 20
136.4845723513475093
 30
0.0
 40
0.9842539013559805
 50
270.0000256901150806
 51
286.416183220057917
  0
ARC
  5
CFDE
  8
0
 10
84.4067883598379893
 20
130.8214750443059984
 30
0.0
 40
4.43532678126821
 50
85.0631672356332871
 51
89.125840176735224
  0
ARC
  5
CFDF
  8
0
 10
84.950050534809165
 20
137.1722834491287131
 30
0.0
 40
1.938680211484171
 50
265.2194297349064982
 51
268.9970024567040809
  0
LINE
  5
CFE0
  8
0
 10
84.916166026715743
 20
135.23390028889159
 30
0.0
 11
86.2768727376157472
 21
135.2339119448915881
 31
0.0
  0
ARC
  5
CFE1
  8
0
 10
86.2545599943710357
 20
137.0054722083307865
 30
0.0
 40
1.771700772000657
 50
270.7216003033186098
 51
274.9291003399807209
  0
ARC
  5
CFE2
  8
0
 10
86.8365621763867637
 20
129.9464167473066993
 30
0.0
 40
5.3113231638964269
 50
91.273162197160417
 51
94.6412344768987737
  0
ARC
  5
CFE3
  8
0
 10
84.3900656931744493
 20
138.827278663212212
 30
0.0
 40
4.6797859919302809
 50
271.0332650454718078
 51
274.883815271756589
  0
ARC
  5
CFE4
  8
0
 10
84.9500524042005907
 20
132.2325474075439899
 30
0.0
 40
1.938680211484171
 50
91.0030409092724284
 51
94.7806136310701817
  0
ARC
  5
CFE5
  8
0
 10
86.2546380255291609
 20
132.4004852748653889
 30
0.0
 40
1.770572740902195
 50
85.0702728015282048
 51
89.2810117445249602
  0
ARC
  5
CFE6
  8
0
 10
86.8388692172328973
 20
139.4932114954181941
 30
0.0
 40
5.3461920161150811
 50
265.3643010780530176
 51
268.7104164903785204
  0
LINE
  5
CFE7
  8
0
 10
84.916114891637605
 20
134.1709305501763936
 30
0.0
 11
85.3715683932157248
 21
134.1709101234916091
 31
0.0
  0
LINE
  5
CFE8
  8
0
 10
85.82153866017849
 20
134.1709187231354008
 30
0.0
 11
86.2768558504157284
 21
134.1709186113916132
 31
0.0
  0
ARC
  5
CFE9
  8
0
 10
85.5515266326436716
 20
135.8323780575491924
 30
0.0
 40
1.65748834095982
 50
262.198799919443104
 51
267.4796387609791282
  0
ARC
  5
CFEA
  8
0
 10
85.5444241410958739
 20
136.1477453043659125
 30
0.0
 40
1.9843783831557591
 50
262.2188865560257227
 51
267.4595521805580915
  0
LINE
  5
CFEB
  8
0
 10
85.275761171315736
 20
134.1834530794916134
 30
0.0
 11
85.275761171315736
 21
134.1816380396915918
 31
0.0
  0
LINE
  5
CFEC
  8
0
 10
85.275761171315736
 20
134.1816380396915918
 30
0.0
 11
85.3265452582157451
 21
134.1902297750916091
 31
0.0
  0
LINE
  5
CFED
  8
0
 10
85.3265452582157451
 20
134.1902297750916091
 30
0.0
 11
85.3265452863393534
 21
134.1924299597590107
 31
0.0
  0
ARC
  5
CFEE
  8
0
 10
85.6733252150028619
 20
132.305087154986694
 30
0.0
 40
1.918936992621108
 50
95.8229594013657504
 51
100.4113859192745934
  0
ARC
  5
CFEF
  8
0
 10
73.7081018881684855
 20
199.7097045617836102
 30
0.0
 40
66.5394732341156185
 50
280.0115426836866277
 51
280.0559510601710258
  0
ARC
  5
CFF0
  8
0
 10
85.1302007098492055
 20
134.952099788787109
 30
0.0
 40
0.7823162996443158
 50
273.087492324912489
 51
280.7231395454846847
  0
ARC
  5
CFF1
  8
0
 10
85.5965041958850463
 20
133.0156830784561066
 30
0.0
 40
1.2042215647363761
 50
84.3832496000250671
 51
95.6168864652218957
  0
LINE
  5
CFF2
  8
0
 10
85.4564672595157333
 20
134.1653172086915902
 30
0.0
 11
85.4786395491132538
 21
134.1764930755904004
 31
0.0
  0
LINE
  5
CFF3
  8
0
 10
85.4786395491132538
 20
134.1764930755904004
 30
0.0
 11
85.4786395491157549
 21
134.2141226897915942
 31
0.0
  0
ARC
  5
CFF4
  8
0
 10
85.6414791157878028
 20
135.8323780575491924
 30
0.0
 40
1.65748834095982
 50
272.5203612390208718
 51
277.8012000805570096
  0
ARC
  5
CFF5
  8
0
 10
85.6485816073356148
 20
136.1477453043659125
 30
0.0
 40
1.9843783831557591
 50
272.5404478194420221
 51
277.7811134439742204
  0
LINE
  5
CFF6
  8
0
 10
85.9172445771157385
 20
134.1834530794916134
 30
0.0
 11
85.9172445771157385
 21
134.1816380396915918
 31
0.0
  0
LINE
  5
CFF7
  8
0
 10
85.9172445771157385
 20
134.1816380396915918
 30
0.0
 11
85.8664604902157436
 21
134.1902297750916091
 31
0.0
  0
LINE
  5
CFF8
  8
0
 10
85.8664604902157436
 20
134.1902297750916091
 30
0.0
 11
85.866460462092121
 21
134.1924299597590107
 31
0.0
  0
ARC
  5
CFF9
  8
0
 10
85.5196805334286267
 20
132.305087154986694
 30
0.0
 40
1.918936992621108
 50
79.5886140807253781
 51
84.1770405986342354
  0
ARC
  5
CFFA
  8
0
 10
97.4849038602629889
 20
199.7097045617836102
 30
0.0
 40
66.5394732341156185
 50
259.9440489398289742
 51
259.9884573163133723
  0
ARC
  5
CFFB
  8
0
 10
86.0628050385822831
 20
134.952099788787109
 30
0.0
 40
0.7823162996443158
 50
259.2768604545153153
 51
266.912507675087511
  0
LINE
  5
CFFC
  8
0
 10
85.7365384889157411
 20
134.1653172086915902
 30
0.0
 11
85.7143661993182064
 21
134.1764930755904004
 31
0.0
  0
LINE
  5
CFFD
  8
0
 10
85.7143661993182064
 20
134.1764930755904004
 30
0.0
 11
85.7143661993157338
 21
134.2141226897915942
 31
0.0
  0
LINE
  5
CFFE
  8
0
 10
85.4675806285157336
 20
134.1709188643916093
 30
0.0
 11
85.7254251198063457
 21
134.170918762291592
 31
0.0
  0
ARC
  5
CFFF
  8
0
 10
85.596502981429694
 20
137.4364561881081102
 30
0.0
 40
3.2289457247164228
 50
267.9075533895111221
 51
272.0918759344639284
  0
ARC
  5
D000
  8
0
 10
85.6360816012064134
 20
133.3913804659497941
 30
0.0
 40
0.7189897659337339
 50
116.7122967711910064
 51
128.263030860078004
  0
ARC
  5
D001
  8
0
 10
85.6087495525073336
 20
133.2633136886512091
 30
0.0
 40
0.8251851492042105
 50
90.850365207210956
 51
111.0105354689462018
  0
ARC
  5
D002
  8
0
 10
85.4462687157407572
 20
133.6147660046457872
 30
0.0
 40
0.4261812125943506
 50
126.8243704931687006
 51
146.0895042228470118
  0
ARC
  5
D003
  8
0
 10
85.1099079317252176
 20
133.8011739439018015
 30
0.0
 40
0.0349459770523619
 50
185.7421118673779858
 51
228.4307568027753064
  0
ARC
  5
D004
  8
0
 10
85.204750217898976
 20
133.7803438371560958
 30
0.0
 40
0.133393940307579
 50
147.2373676280668064
 51
161.02494523769181
  0
ARC
  5
D005
  8
0
 10
85.1363812167660541
 20
133.802773143698289
 30
0.0
 40
0.0614555280764696
 50
160.0738308738771138
 51
184.7561374531242961
  0
ARC
  5
D006
  8
0
 10
85.1620680273896085
 20
133.8548613107612937
 30
0.0
 40
0.0692256472472733
 50
203.3933598243295933
 51
211.9455965193156999
  0
ARC
  5
D007
  8
0
 10
85.1567074278298151
 20
133.8542703669311038
 30
0.0
 40
0.0641543805075797
 50
181.5533491719799883
 51
204.8693047376621905
  0
ARC
  5
D008
  8
0
 10
85.100675032096035
 20
133.7736591786737961
 30
0.0
 40
0.0140216863841487
 50
174.3938309670118088
 51
203.7573186797162066
  0
ARC
  5
D009
  8
0
 10
85.0997461981148433
 20
133.7737930690994119
 30
0.0
 40
0.0132348265775682
 50
205.9082857077004007
 51
237.0152247414582973
  0
ARC
  5
D00A
  8
0
 10
85.350741071511564
 20
133.742957909788089
 30
0.0
 40
0.265961388636474
 50
161.493830622942113
 51
173.0741137846150934
  0
ARC
  5
D00B
  8
0
 10
85.1602796865781642
 20
133.7815879441465938
 30
0.0
 40
0.0677238917356544
 50
147.2417251833142018
 51
179.0168419101900952
  0
ARC
  5
D00C
  8
0
 10
85.1921892265970087
 20
133.7625958897297949
 30
0.0
 40
0.1048430823032592
 50
139.5290747448850084
 51
147.9492014871175058
  0
ARC
  5
D00D
  8
0
 10
85.254319264185213
 20
133.7034704478188019
 30
0.0
 40
0.1905404974806701
 50
118.1233058172307011
 51
138.1299029315856046
  0
ARC
  5
D00E
  8
0
 10
85.4517845092822625
 20
133.310295224727497
 30
0.0
 40
0.630459719436068
 50
102.218466709992498
 51
117.1072125045629946
  0
ARC
  5
D00F
  8
0
 10
85.5853564687493247
 20
132.6980300651225093
 30
0.0
 40
1.2571252007611731
 50
89.4919755344798347
 51
102.2625198549728935
  0
ARC
  5
D010
  8
0
 10
85.5889130994211058
 20
132.8565864196980044
 30
0.0
 40
1.130760270783405
 50
89.6154221723703301
 51
102.2538782395917991
  0
ARC
  5
D011
  8
0
 10
85.5902172996379988
 20
132.739974749496497
 30
0.0
 40
1.2608274690635191
 50
89.7143634670732837
 51
101.0682192001957986
  0
ARC
  5
D012
  8
0
 10
85.5895387043506446
 20
132.7152167041431881
 30
0.0
 40
1.310818947135205
 50
89.6955953229795568
 51
100.7156248987066931
  0
ARC
  5
D013
  8
0
 10
85.4122630964789806
 20
133.5980636514389914
 30
0.0
 40
0.368998752919199
 50
99.8850659635655802
 51
132.1779899050478946
  0
ARC
  5
D014
  8
0
 10
85.4634267017431739
 20
133.359029689434692
 30
0.0
 40
0.6289712436500209
 50
100.5592222166126959
 51
114.9949410691122011
  0
ARC
  5
D015
  8
0
 10
85.2818101965882249
 20
133.7429518687391123
 30
0.0
 40
0.2042792683275294
 50
114.3258664366261002
 51
137.8271963159247946
  0
ARC
  5
D016
  8
0
 10
85.1809461622094517
 20
133.8337274958373087
 30
0.0
 40
0.0685840637759543
 50
137.4587477635508037
 51
182.5755453585042005
  0
ARC
  5
D017
  8
0
 10
85.4755068378820226
 20
133.3001701712059912
 30
0.0
 40
0.7148708838253403
 50
100.4527114500856015
 51
113.4669466321396953
  0
ARC
  5
D018
  8
0
 10
85.0752108427781906
 20
133.3603574461486119
 30
0.0
 40
0.1145361522001766
 50
155.2170140134921894
 51
179.7259006020912864
  0
ARC
  5
D019
  8
0
 10
85.0404520932917052
 20
133.3603698041040957
 30
0.0
 40
0.079777889832262
 50
156.4748804571129881
 51
179.6153527941310983
  0
ARC
  5
D01A
  8
0
 10
85.1134479017478753
 20
133.3420506889802084
 30
0.0
 40
0.1569266448365586
 50
133.5285239569111013
 51
155.0007082983572104
  0
ARC
  5
D01B
  8
0
 10
85.0929442615675384
 20
133.3340864436470952
 30
0.0
 40
0.1384339760131969
 50
126.5465075684275007
 51
155.1724712164937898
  0
ARC
  5
D01C
  8
0
 10
85.2271586527107843
 20
133.2189913381025974
 30
0.0
 40
0.3244711468730195
 50
114.5071599695016005
 51
133.1207910065467104
  0
ARC
  5
D01D
  8
0
 10
85.3956336973723467
 20
132.8685800838030104
 30
0.0
 40
0.7132425165816257
 50
104.7835038444469973
 51
115.145326652280005
  0
ARC
  5
D01E
  8
0
 10
85.2568347710373757
 20
133.1225155813062884
 30
0.0
 40
0.4060369061359887
 50
110.1682959245690938
 51
127.3480596602559984
  0
ARC
  5
D01F
  8
0
 10
85.4258302625102317
 20
132.7034035248796897
 30
0.0
 40
0.8578331548323115
 50
103.4472053026517955
 51
111.1122588791193948
  0
ARC
  5
D020
  8
0
 10
85.5782209218250074
 20
132.0392191946511957
 30
0.0
 40
1.539259613170701
 50
89.3194758486047533
 51
103.2148300206828964
  0
ARC
  5
D021
  8
0
 10
85.6018601120588158
 20
132.0498467342524123
 30
0.0
 40
1.5575245652978289
 50
90.1970740817407659
 51
104.4335019086549039
  0
ARC
  5
D022
  8
0
 10
85.5903409895273342
 20
132.3156793125253046
 30
0.0
 40
1.317577740043173
 50
89.7320452048339234
 51
100.8996880371325062
  0
ARC
  5
D023
  8
0
 10
85.4426439920018197
 20
133.0325540483744078
 30
0.0
 40
0.5857842614032162
 50
99.9725428505075939
 51
120.9094026126824986
  0
ARC
  5
D024
  8
0
 10
85.5803587098480847
 20
131.8801190019109129
 30
0.0
 40
1.539346692940166
 50
89.3990895982268654
 51
104.6614180655434012
  0
ARC
  5
D025
  8
0
 10
85.0621959768476046
 20
133.1959967391618136
 30
0.0
 40
0.1016924048298177
 50
131.8588811240649932
 51
176.6629696219561083
  0
ARC
  5
D026
  8
0
 10
85.2143195827981543
 20
133.0353128112602121
 30
0.0
 40
0.3229372675344381
 50
112.7185960563773932
 51
132.9369777025746089
  0
ARC
  5
D027
  8
0
 10
85.3861329792922845
 20
132.6630706587411908
 30
0.0
 40
0.732801335140889
 50
105.4643311250727038
 51
113.8696636103921946
  0
ARC
  5
D028
  8
0
 10
85.0765801767730636
 20
133.2027246150605038
 30
0.0
 40
0.1159069949711664
 50
180.3996346186251003
 51
206.2621873089182998
  0
ARC
  5
D029
  8
0
 10
85.1163680027105869
 20
133.2230215212971984
 30
0.0
 40
0.1605699395796594
 50
206.4750484937100055
 51
226.2467246123065081
  0
ARC
  5
D02A
  8
0
 10
85.3164481492664777
 20
133.5054643511082872
 30
0.0
 40
0.5087153422111046
 50
238.4249981579135067
 51
249.7370971882758113
  0
ARC
  5
D02B
  8
0
 10
85.1946580894805976
 20
133.3031712779225018
 30
0.0
 40
0.2726082296488843
 50
226.0107108241286937
 51
237.9702081192806133
  0
ARC
  5
D02C
  8
0
 10
85.2211762556338499
 20
133.2137370369952123
 30
0.0
 40
0.151549262537697
 50
214.4283348591970935
 51
237.6999453279395027
  0
ARC
  5
D02D
  8
0
 10
85.2308578330288213
 20
133.1071367264686955
 30
0.0
 40
0.1646506577107897
 50
117.9880370016478963
 51
144.6793937653779096
  0
ARC
  5
D02E
  8
0
 10
85.1497034032029205
 20
133.1649471619527958
 30
0.0
 40
0.0650116593981552
 50
144.8994838765308941
 51
214.574117740908207
  0
ARC
  5
D02F
  8
0
 10
85.4163987259685626
 20
132.7747792481735019
 30
0.0
 40
0.5452878167261548
 50
102.8145972826949048
 51
119.0481385179953975
  0
ARC
  5
D030
  8
0
 10
85.586543786843805
 20
132.059434753906686
 30
0.0
 40
1.280573291665335
 50
89.5544031488756644
 51
103.1388027337684008
  0
ARC
  5
D031
  8
0
 10
85.2413951395833038
 20
132.8007678646536078
 30
0.0
 40
0.0884726868139621
 50
118.6635371085731947
 51
172.9604035740181018
  0
ARC
  5
D032
  8
0
 10
85.3986083898893753
 20
132.5727135022389973
 30
0.0
 40
0.3651076071793086
 50
105.0761983008557934
 51
123.1495694305345978
  0
ARC
  5
D033
  8
0
 10
85.5555772544881137
 20
132.0515474097545905
 30
0.0
 40
0.9093046359642006
 50
95.1552517900467336
 51
106.0849886029458986
  0
ARC
  5
D034
  8
0
 10
85.5955560969750593
 20
131.7099965238269874
 30
0.0
 40
1.253099436709703
 50
89.9567177066342367
 51
95.5725784106704452
  0
ARC
  5
D035
  8
0
 10
85.2348395683734736
 20
132.8118682059252933
 30
0.0
 40
0.0812505894493618
 50
180.1816170409082929
 51
206.0697671811014118
  0
ARC
  5
D036
  8
0
 10
85.4233530393205456
 20
133.06554127326649
 30
0.0
 40
0.4030428020112358
 50
239.8951443686493121
 51
252.937723548219509
  0
ARC
  5
D037
  8
0
 10
85.2917990855308261
 20
132.8468586656603918
 30
0.0
 40
0.1479305688951187
 50
208.5488892222070092
 51
241.4913958567177872
  0
LINE
  5
D038
  8
0
 10
85.1535893871157441
 20
132.8116106569916894
 30
0.0
 11
85.1535893871157441
 21
132.8797895082915943
 31
0.0
  0
ARC
  5
D039
  8
0
 10
85.3814619714005545
 20
132.8828371057564937
 30
0.0
 40
0.2278929628552708
 50
177.9169783405895089
 51
180.766235495666308
  0
ARC
  5
D03A
  8
0
 10
85.2088463767816933
 20
132.8871214928169877
 30
0.0
 40
0.055271633501822
 50
156.2975921513539959
 51
175.8509551243747921
  0
ARC
  5
D03B
  8
0
 10
85.239399619518295
 20
132.8724177403927911
 30
0.0
 40
0.0891661126201969
 50
132.9044229439222136
 51
155.5384053461347094
  0
ARC
  5
D03C
  8
0
 10
85.3056335904389869
 20
132.8030057067155951
 30
0.0
 40
0.1851046482253432
 50
119.4142674676632936
 51
133.2949311755654946
  0
ARC
  5
D03D
  8
0
 10
85.3678423488512976
 20
132.699532230700413
 30
0.0
 40
0.3058101122153719
 50
115.0874957397874994
 51
120.0459667093506937
  0
ARC
  5
D03E
  8
0
 10
85.4331706115347487
 20
132.5557789782050975
 30
0.0
 40
0.4637046182044392
 50
107.3523917934285947
 51
114.8667718307782053
  0
ARC
  5
D03F
  8
0
 10
85.491780723935392
 20
132.3773864085426055
 30
0.0
 40
0.6514643586700811
 50
104.5985595226633933
 51
107.593152337971901
  0
ARC
  5
D040
  8
0
 10
85.5395325509112467
 20
132.1887791233037035
 30
0.0
 40
0.846019205285388
 50
99.4788380115129343
 51
104.5086663948987962
  0
ARC
  5
D041
  8
0
 10
85.5170309856525961
 20
132.3461628169523863
 30
0.0
 40
0.687088811265456
 50
96.483785435019044
 51
99.7893915645024236
  0
ARC
  5
D042
  8
0
 10
85.5852338768980445
 20
131.9584367328000098
 30
0.0
 40
1.0803028168477991
 50
91.1039463983402555
 51
97.7559154516594049
  0
ARC
  5
D043
  8
0
 10
85.5911488118218955
 20
132.0693257925092894
 30
0.0
 40
0.9695817189841209
 50
89.6836091982176526
 51
91.5796682458091453
  0
LINE
  5
D044
  8
0
 10
84.9606760012157451
 20
133.360905377791596
 30
0.0
 11
84.9606760012157309
 21
133.2019161772923042
 31
0.0
  0
LINE
  5
D045
  8
0
 10
85.0925657650171843
 20
133.5142306981740035
 30
0.0
 11
85.0925657650157348
 21
133.7827499847915931
 31
0.0
  0
ARC
  5
D046
  8
0
 10
85.5569241472250468
 20
133.3913804659497941
 30
0.0
 40
0.7189897659337339
 50
51.7369691399219889
 51
63.2877032288089509
  0
ARC
  5
D047
  8
0
 10
85.6025244557155105
 20
133.3579086422568878
 30
0.0
 40
0.7305241311731376
 50
67.6668149758754396
 51
90.4722843479672036
  0
ARC
  5
D048
  8
0
 10
85.7467370326907314
 20
133.6147660046457872
 30
0.0
 40
0.4261812125943506
 50
33.9104957771530096
 51
53.1756295068312426
  0
ARC
  5
D049
  8
0
 10
86.083097816706271
 20
133.8011739439018015
 30
0.0
 40
0.0349459770523619
 50
311.5692431972245799
 51
354.257888132621872
  0
ARC
  5
D04A
  8
0
 10
85.9882555305325269
 20
133.7803438371560958
 30
0.0
 40
0.133393940307579
 50
18.9750547623081189
 51
32.7626323719331793
  0
ARC
  5
D04B
  8
0
 10
86.0566245316654346
 20
133.802773143698289
 30
0.0
 40
0.0614555280764696
 50
355.2438625468756186
 51
19.9261691261228897
  0
ARC
  5
D04C
  8
0
 10
86.030937721041866
 20
133.8548613107612937
 30
0.0
 40
0.0692256472472733
 50
328.0544034806843001
 51
336.606640175670293
  0
ARC
  5
D04D
  8
0
 10
86.0362983206016594
 20
133.8542703669311038
 30
0.0
 40
0.0641543805075797
 50
335.1306952623377811
 51
358.4466508280199264
  0
ARC
  5
D04E
  8
0
 10
86.0923307163354536
 20
133.7736591786737961
 30
0.0
 40
0.0140216863841487
 50
336.2426813202837934
 51
5.6061690329881833
  0
ARC
  5
D04F
  8
0
 10
86.0932595503166169
 20
133.7737930690994119
 30
0.0
 40
0.0132348265775682
 50
302.9847752585416742
 51
334.0917142922996277
  0
ARC
  5
D050
  8
0
 10
85.8422646769199105
 20
133.742957909788089
 30
0.0
 40
0.265961388636474
 50
6.925886215384895
 51
18.5061693770578302
  0
ARC
  5
D051
  8
0
 10
86.0327260618533103
 20
133.7815879441465938
 30
0.0
 40
0.0677238917356544
 50
0.9831580898099171
 51
32.7582748166857769
  0
ARC
  5
D052
  8
0
 10
86.0008165218344658
 20
133.7625958897297949
 30
0.0
 40
0.1048430823032592
 50
32.0507985128825226
 51
40.4709252551149419
  0
ARC
  5
D053
  8
0
 10
85.9386864842462614
 20
133.7034704478188019
 30
0.0
 40
0.1905404974806701
 50
41.8700970684143883
 51
61.8766941827692989
  0
ARC
  5
D054
  8
0
 10
85.7412212391492119
 20
133.310295224727497
 30
0.0
 40
0.630459719436068
 50
62.8927874954369983
 51
77.7815332900075163
  0
ARC
  5
D055
  8
0
 10
85.6076492796821356
 20
132.6980300651223956
 30
0.0
 40
1.2571252007612681
 50
77.7374801450278881
 51
90.5080244655193553
  0
ARC
  5
D056
  8
0
 10
85.6040926490103686
 20
132.8565864196980044
 30
0.0
 40
1.130760270783475
 50
77.7461217604089398
 51
90.3845778276296841
  0
ARC
  5
D057
  8
0
 10
85.6027884487934756
 20
132.7399747494964117
 30
0.0
 40
1.260827469063547
 50
78.9317807998042014
 51
90.2856365329267163
  0
ARC
  5
D058
  8
0
 10
85.6034670440808156
 20
132.7152167041431028
 30
0.0
 40
1.31081894713526
 50
79.2843751012941169
 51
90.3044046770196189
  0
ARC
  5
D059
  8
0
 10
85.780742651952508
 20
133.5980636514389914
 30
0.0
 40
0.368998752919199
 50
47.8220100949520486
 51
80.1149340364344056
  0
ARC
  5
D05A
  8
0
 10
85.7295790466883147
 20
133.359029689434692
 30
0.0
 40
0.6289712436500209
 50
65.0050589308877562
 51
79.4407777833872615
  0
ARC
  5
D05B
  8
0
 10
85.9111955518432637
 20
133.7429518687391123
 30
0.0
 40
0.2042792683275294
 50
42.1728036840751699
 51
65.674133563373843
  0
ARC
  5
D05C
  8
0
 10
86.012059586222037
 20
133.8337274958373087
 30
0.0
 40
0.0685840637759543
 50
357.4244546414957995
 51
42.5412522364491608
  0
ARC
  5
D05D
  8
0
 10
85.7174989105494518
 20
133.3001701712059912
 30
0.0
 40
0.7148708838253403
 50
66.5330533678602478
 51
79.5472885499144127
  0
ARC
  5
D05E
  8
0
 10
86.1177949056532839
 20
133.3603574461486119
 30
0.0
 40
0.1145361522001766
 50
0.2740993979086779
 51
24.7829859865077999
  0
ARC
  5
D05F
  8
0
 10
86.1525536551397693
 20
133.3603698041040957
 30
0.0
 40
0.079777889832262
 50
0.3846472058689261
 51
23.525119542887019
  0
ARC
  5
D060
  8
0
 10
86.0795578466835991
 20
133.3420506889802084
 30
0.0
 40
0.1569266448365586
 50
24.9992917016427683
 51
46.4714760430888987
  0
ARC
  5
D061
  8
0
 10
86.100061486863936
 20
133.3340864436470952
 30
0.0
 40
0.1384339760131969
 50
24.8275287835061995
 51
53.4534924315724709
  0
ARC
  5
D062
  8
0
 10
85.965847095720676
 20
133.2189913381025974
 30
0.0
 40
0.3244711468730195
 50
46.879208993453318
 51
65.4928400304983427
  0
ARC
  5
D063
  8
0
 10
85.797372051059142
 20
132.8685800838030104
 30
0.0
 40
0.7132425165816257
 50
64.8546733477200235
 51
75.2164961555529459
  0
ARC
  5
D064
  8
0
 10
85.9361709773940845
 20
133.1225155813062884
 30
0.0
 40
0.4060369061359887
 50
52.6519403397440016
 51
69.8317040754308778
  0
ARC
  5
D065
  8
0
 10
85.7671754859212427
 20
132.7034035248796897
 30
0.0
 40
0.8578331548323115
 50
68.887741120880591
 51
76.5527946973482045
  0
ARC
  5
D066
  8
0
 10
85.614784826606467
 20
132.0392191946511957
 30
0.0
 40
1.5392596131706979
 50
76.7851699793171036
 51
90.6805241513952609
  0
ARC
  5
D067
  8
0
 10
85.5911456363726728
 20
132.0498467342524123
 30
0.0
 40
1.5575245652977889
 50
75.5664980913451103
 51
89.8029259182592341
  0
ARC
  5
D068
  8
0
 10
85.6026647577664477
 20
132.3156793002980862
 30
0.0
 40
1.3175777522648551
 50
79.100312014826315
 51
90.2679547432067437
  0
ARC
  5
D069
  8
0
 10
85.7503617564296547
 20
133.0325540483744078
 30
0.0
 40
0.5857842614032162
 50
59.090597387317537
 51
80.0274571494924061
  0
ARC
  5
D06A
  8
0
 10
85.612647038583404
 20
131.8801190019109129
 30
0.0
 40
1.5393466929401709
 50
75.3385819344565846
 51
90.6009104017731346
  0
ARC
  5
D06B
  8
0
 10
86.1308097715838841
 20
133.1959967391618136
 30
0.0
 40
0.1016924048298177
 50
3.337030378043889
 51
48.1411188759350281
  0
ARC
  5
D06C
  8
0
 10
85.9786861656333201
 20
133.0353128112602121
 30
0.0
 40
0.3229372675344381
 50
47.0630222974253201
 51
67.2814039436225926
  0
ARC
  5
D06D
  8
0
 10
85.8068727691391757
 20
132.6630706587411908
 30
0.0
 40
0.732801335140889
 50
66.1303363896078054
 51
74.535668874927282
  0
ARC
  5
D06E
  8
0
 10
86.116425571658425
 20
133.2027246150605038
 30
0.0
 40
0.1159069949711664
 50
333.7378126910816718
 51
359.6003653813748997
  0
ARC
  5
D06F
  8
0
 10
86.0766377457208733
 20
133.2230215212971984
 30
0.0
 40
0.1605699395796594
 50
313.7532753876935772
 51
333.5249515062899945
  0
ARC
  5
D070
  8
0
 10
85.8765575991649968
 20
133.5054643511082872
 30
0.0
 40
0.5087153422111046
 50
290.262902811724075
 51
301.5750018420865217
  0
ARC
  5
D071
  8
0
 10
85.9983476589508768
 20
133.3031712779225018
 30
0.0
 40
0.2726082296488843
 50
302.0297918807194151
 51
313.9892891758713063
  0
ARC
  5
D072
  8
0
 10
85.9718294927976245
 20
133.2137370369952123
 30
0.0
 40
0.151549262537697
 50
302.3000546720605257
 51
325.5716651408027928
  0
ARC
  5
D073
  8
0
 10
85.9621479154026673
 20
133.1071367264686955
 30
0.0
 40
0.1646506577107897
 50
35.3206062346220406
 51
62.0119629983520966
  0
ARC
  5
D074
  8
0
 10
86.0433023452285681
 20
133.1649471619527958
 30
0.0
 40
0.0650116593981552
 50
325.4258822590916793
 51
35.1005161234691201
  0
ARC
  5
D075
  8
0
 10
85.776607022462926
 20
132.7747792481735019
 30
0.0
 40
0.5452878167261548
 50
60.9518614820045386
 51
77.1854027173050241
  0
ARC
  5
D076
  8
0
 10
85.6064619615876694
 20
132.059434753906686
 30
0.0
 40
1.280573291665337
 50
76.8611972662315992
 51
90.4455968511243498
  0
ARC
  5
D077
  8
0
 10
85.9516106088481848
 20
132.8007678646536078
 30
0.0
 40
0.0884726868139621
 50
7.0395964259818422
 51
61.3364628914267911
  0
ARC
  5
D078
  8
0
 10
85.7943973585420991
 20
132.5727135022389973
 30
0.0
 40
0.3651076071793086
 50
56.8504305694653169
 51
74.9238016991442208
  0
ARC
  5
D079
  8
0
 10
85.6374284939433466
 20
132.0515474097545905
 30
0.0
 40
0.9093046359642006
 50
73.9150113970541156
 51
84.8447482099532948
  0
ARC
  5
D07A
  8
0
 10
85.5974496441943131
 20
131.7099964254971098
 30
0.0
 40
1.253099535280098
 50
84.4274216954388237
 51
90.0432968454068288
  0
ARC
  5
D07B
  8
0
 10
85.9581661800580008
 20
132.8118682059252933
 30
0.0
 40
0.0812505894493618
 50
333.9302328188986166
 51
359.8183829590915934
  0
ARC
  5
D07C
  8
0
 10
85.7696527091109289
 20
133.06554127326649
 30
0.0
 40
0.4030428020112358
 50
287.0622764517804058
 51
300.1048556313508016
  0
ARC
  5
D07D
  8
0
 10
85.9012066629006767
 20
132.8468586656603918
 30
0.0
 40
0.1479305688951187
 50
298.5086041432821844
 51
331.4511107777930192
  0
LINE
  5
D07E
  8
0
 10
86.0394163613157446
 20
132.8116106569916894
 30
0.0
 11
86.0394163613157446
 21
132.8797895082915943
 31
0.0
  0
ARC
  5
D07F
  8
0
 10
85.8115437770309057
 20
132.8828371057564937
 30
0.0
 40
0.2278929628552708
 50
359.233764504333692
 51
2.0830216594104369
  0
ARC
  5
D080
  8
0
 10
85.9841593716497954
 20
132.8871214928169877
 30
0.0
 40
0.055271633501822
 50
4.1490448756251972
 51
23.7024078486459402
  0
ARC
  5
D081
  8
0
 10
85.9536061289131652
 20
132.8724177403927911
 30
0.0
 40
0.0891661126201969
 50
24.46159465386528
 51
47.0955770560778433
  0
ARC
  5
D082
  8
0
 10
85.8873721579924734
 20
132.8030057067155951
 30
0.0
 40
0.1851046482253432
 50
46.7050688244344485
 51
60.5857325323366709
  0
ARC
  5
D083
  8
0
 10
85.8251633995801768
 20
132.699532230700413
 30
0.0
 40
0.3058101122153719
 50
59.9540332906493134
 51
64.9125042602124438
  0
ARC
  5
D084
  8
0
 10
85.7598351368967258
 20
132.5557789782050975
 30
0.0
 40
0.4637046182044392
 50
65.1332281692217236
 51
72.6476082065713769
  0
ARC
  5
D085
  8
0
 10
85.7012250244960967
 20
132.3773864085426055
 30
0.0
 40
0.6514643586700811
 50
72.4068476620280848
 51
75.4014404773366067
  0
ARC
  5
D086
  8
0
 10
85.6534731975202419
 20
132.1887791233037035
 30
0.0
 40
0.846019205285388
 50
75.4913336051011612
 51
80.5211619884870657
  0
ARC
  5
D087
  8
0
 10
85.6759747627788641
 20
132.3461628169523863
 30
0.0
 40
0.687088811265456
 50
80.2106084354976048
 51
83.5162145649809418
  0
ARC
  5
D088
  8
0
 10
85.6041006043799513
 20
131.9110480030169015
 30
0.0
 40
1.1277568538588469
 50
82.3841837605436353
 51
88.7559543894565763
  0
ARC
  5
D089
  8
0
 10
85.6018569366095932
 20
132.0693257925092894
 30
0.0
 40
0.9695817189841209
 50
88.4203317541908689
 51
90.3163908017823758
  0
LINE
  5
D08A
  8
0
 10
86.2323297472157435
 20
133.360905377791596
 30
0.0
 11
86.2323297472157435
 21
133.2019161772923042
 31
0.0
  0
LINE
  5
D08B
  8
0
 10
86.100439983414276
 20
133.5142306981740035
 30
0.0
 11
86.1004399834157255
 21
133.7827499847915931
 31
0.0
  0
LINE
  5
D08C
  8
0
 10
85.1403323841157373
 20
133.1649203933916112
 30
0.0
 11
85.1424619541157455
 21
133.1660519117916124
 31
0.0
  0
LINE
  5
D08D
  8
0
 10
85.1403323841157373
 20
133.1649203933916112
 30
0.0
 11
85.1403323841157373
 21
132.8874520140915934
 31
0.0
  0
LINE
  5
D08E
  8
0
 10
85.1535893871157441
 20
132.867576353891593
 30
0.0
 11
85.1424619541157455
 21
132.872393999191587
 31
0.0
  0
LINE
  5
D08F
  8
0
 10
85.1424619541157455
 20
132.872393999191587
 30
0.0
 11
85.1535893871157441
 21
132.8797895082915943
 31
0.0
  0
LINE
  5
D090
  8
0
 10
85.1424619541157455
 20
132.872393999191587
 30
0.0
 11
85.1424619541157455
 21
132.8863204955916046
 31
0.0
  0
LINE
  5
D091
  8
0
 10
85.1403323841157373
 20
132.8874520140915934
 30
0.0
 11
85.1535819116098622
 21
132.8804120555012958
 31
0.0
  0
LINE
  5
D092
  8
0
 10
85.1403323841157373
 20
132.8874520140915934
 30
0.0
 11
85.1541066094678172
 21
132.894770763656993
 31
0.0
  0
LINE
  5
D093
  8
0
 10
85.1541066094678172
 20
132.894770763656993
 30
0.0
 11
85.1424619541157455
 21
132.9025100288916121
 31
0.0
  0
LINE
  5
D094
  8
0
 10
85.1424619541157455
 20
132.9025100288916121
 30
0.0
 11
85.158237143215743
 21
132.909339929891587
 31
0.0
  0
LINE
  5
D095
  8
0
 10
85.158237143215743
 20
132.909339929891587
 30
0.0
 11
85.1488307809157448
 21
132.9174274510916121
 31
0.0
  0
LINE
  5
D096
  8
0
 10
85.1488307809157448
 20
132.9174274510916121
 30
0.0
 11
85.1664596450682581
 21
132.9237047345746987
 31
0.0
  0
LINE
  5
D097
  8
0
 10
85.1664596450682581
 20
132.9237047345746987
 30
0.0
 11
85.1593794004157445
 21
132.9320650006916082
 31
0.0
  0
LINE
  5
D098
  8
0
 10
85.1593794004157445
 20
132.9320650006916082
 30
0.0
 11
85.178697343815756
 21
132.937731057291586
 31
0.0
  0
LINE
  5
D099
  8
0
 10
85.178697343815756
 20
132.937731057291586
 30
0.0
 11
85.174009323215742
 21
132.9462860108916118
 31
0.0
  0
LINE
  5
D09A
  8
0
 10
85.174009323215742
 20
132.9462860108916118
 30
0.0
 11
85.194835979215739
 21
132.9512879380916957
 31
0.0
  0
LINE
  5
D09B
  8
0
 10
85.194835979215739
 20
132.9512879380916957
 30
0.0
 11
85.1925839534157348
 21
132.9599577039915914
 31
0.0
  0
LINE
  5
D09C
  8
0
 10
85.1925839534157348
 20
132.9599577039915914
 30
0.0
 11
85.2147248691615431
 21
132.9642488001811103
 31
0.0
  0
LINE
  5
D09D
  8
0
 10
85.2147248691615431
 20
132.9642488001811103
 30
0.0
 11
85.2149298648157441
 21
132.9729524308916098
 31
0.0
  0
LINE
  5
D09E
  8
0
 10
85.2149298648157441
 20
132.9729524308916098
 30
0.0
 11
85.2381783167208056
 21
132.9764926313081901
 31
0.0
  0
LINE
  5
D09F
  8
0
 10
85.2381783167208056
 20
132.9764926313081901
 30
0.0
 11
85.2408384196157556
 21
132.9851488634915881
 31
0.0
  0
LINE
  5
D0A0
  8
0
 10
85.2408384196157556
 20
132.9851488634915881
 30
0.0
 11
85.2649773373446607
 21
132.9879051119636983
 31
0.0
  0
LINE
  5
D0A1
  8
0
 10
85.2649773373446607
 20
132.9879051119636983
 30
0.0
 11
85.2700677167157437
 21
132.9964331268915885
 31
0.0
  0
LINE
  5
D0A2
  8
0
 10
85.2700677167157437
 20
132.9964331268915885
 30
0.0
 11
85.2948717330872057
 21
132.9983796934893974
 31
0.0
  0
LINE
  5
D0A3
  8
0
 10
85.2948717330872057
 20
132.9983796934893974
 30
0.0
 11
85.3023448500157428
 21
133.00669986299161
 31
0.0
  0
LINE
  5
D0A4
  8
0
 10
85.3628038459159768
 20
133.0161336183917911
 30
0.0
 11
85.3748115303157391
 21
133.0238077177916125
 31
0.0
  0
LINE
  5
D0A5
  8
0
 10
85.3748115303157391
 20
133.0238077177916125
 30
0.0
 11
85.400207304842553
 21
133.0232472002963107
 31
0.0
  0
LINE
  5
D0A6
  8
0
 10
85.400207304842553
 20
133.0232472002963107
 30
0.0
 11
85.4143244755157411
 21
133.0304891049916023
 31
0.0
  0
LINE
  5
D0A7
  8
0
 10
85.4143244755157411
 20
133.0304891049916023
 30
0.0
 11
85.4394435217157451
 21
133.0288569065751858
 31
0.0
  0
LINE
  5
D0A8
  8
0
 10
85.4394435217157451
 20
133.0288569065751858
 30
0.0
 11
85.4555383704157236
 21
133.0358349933916031
 31
0.0
  0
LINE
  5
D0A9
  8
0
 10
85.4555383704157236
 20
133.0358349933916031
 30
0.0
 11
85.4801461585157369
 21
133.0336161351916076
 31
0.0
  0
LINE
  5
D0AA
  8
0
 10
85.4801461585157369
 20
133.0336161351916076
 30
0.0
 11
85.4980684119157246
 21
133.0397954699915886
 31
0.0
  0
LINE
  5
D0AB
  8
0
 10
85.4980684119157246
 20
133.0397954699915886
 30
0.0
 11
85.5219351857157335
 21
133.0368835102460991
 31
0.0
  0
LINE
  5
D0AC
  8
0
 10
85.5219351857157335
 20
133.0368835102460991
 30
0.0
 11
85.5415175086157404
 21
133.0423335566916023
 31
0.0
  0
LINE
  5
D0AD
  8
0
 10
85.5415175086157404
 20
133.0423335566916023
 30
0.0
 11
85.5644204308463543
 21
133.0385390319146097
 31
0.0
  0
LINE
  5
D0AE
  8
0
 10
85.5644204308463543
 20
133.0385390319146097
 30
0.0
 11
85.5854799878157451
 21
133.0434255561916075
 31
0.0
  0
LINE
  5
D0AF
  8
0
 10
85.5854799878157451
 20
133.0434255561916075
 30
0.0
 11
85.6071936242582581
 21
133.0388928245153863
 31
0.0
  0
LINE
  5
D0B0
  8
0
 10
85.6071936242582581
 20
133.0388928245153863
 30
0.0
 11
85.6295453838157243
 21
133.04306127279159
 31
0.0
  0
LINE
  5
D0B1
  8
0
 10
85.6295453838157243
 20
133.04306127279159
 30
0.0
 11
85.6498900820157445
 21
133.0378748952959995
 31
0.0
  0
LINE
  5
D0B2
  8
0
 10
85.6498900820157445
 20
133.0378748952959995
 30
0.0
 11
85.6733022699157374
 21
133.0412441075916092
 31
0.0
  0
LINE
  5
D0B3
  8
0
 10
85.6733022699157374
 20
133.0412441075916092
 30
0.0
 11
85.6920764821226157
 21
133.0353681381924105
 31
0.0
  0
LINE
  5
D0B4
  8
0
 10
85.6920764821226157
 20
133.0353681381924105
 30
0.0
 11
85.7163420997157459
 21
133.0379910270916071
 31
0.0
  0
LINE
  5
D0B5
  8
0
 10
85.7163420997157459
 20
133.0379910270916071
 30
0.0
 11
85.7333705361157428
 21
133.0315227590915867
 31
0.0
  0
LINE
  5
D0B6
  8
0
 10
85.7333705361157428
 20
133.0315227590915867
 30
0.0
 11
85.7582630221157416
 21
133.0333324043915866
 31
0.0
  0
LINE
  5
D0B7
  8
0
 10
85.7582630221157416
 20
133.0333324043915866
 30
0.0
 11
85.7732207935678304
 21
133.0263350334255108
 31
0.0
  0
LINE
  5
D0B8
  8
0
 10
85.7732207935678304
 20
133.0263350334255108
 30
0.0
 11
85.7986736326157455
 21
133.0273117357916135
 31
0.0
  0
LINE
  5
D0B9
  8
0
 10
85.7986736326157455
 20
133.0273117357916135
 30
0.0
 11
85.8118311756082335
 21
133.0198454542831996
 31
0.0
  0
LINE
  5
D0BA
  8
0
 10
85.8118311756082335
 20
133.0198454542831996
 30
0.0
 11
85.8371966282157359
 21
133.0198454542831996
 31
0.0
  0
LINE
  5
D0BB
  8
0
 10
85.8371966282157359
 20
133.0198454542831996
 30
0.0
 11
85.8481062532354855
 21
133.0121216805910933
 31
0.0
  0
LINE
  5
D0BC
  8
0
 10
85.8481062532354855
 20
133.0121216805910933
 30
0.0
 11
85.8734723301157459
 21
133.0114213065915862
 31
0.0
  0
LINE
  5
D0BD
  8
0
 10
85.8734723301157459
 20
133.0114213065915862
 30
0.0
 11
85.8821122738708169
 21
133.0032343242785942
 31
0.0
  0
LINE
  5
D0BE
  8
0
 10
85.8821122738708169
 20
133.0032343242785942
 30
0.0
 11
85.9071620420157558
 21
133.0016999105916113
 31
0.0
  0
LINE
  5
D0BF
  8
0
 10
85.9071620420157558
 20
133.0016999105916113
 30
0.0
 11
85.9135820408475865
 21
132.9932533917078956
 31
0.0
  0
LINE
  5
D0C0
  8
0
 10
85.9135820408475865
 20
132.9932533917078956
 30
0.0
 11
85.9379512119157454
 21
132.990911812791694
 31
0.0
  0
LINE
  5
D0C1
  8
0
 10
85.9379512119157454
 20
132.990911812791694
 30
0.0
 11
85.9418309809557002
 21
132.9823096448862998
 31
0.0
  0
LINE
  5
D0C2
  8
0
 10
85.9418309809557002
 20
132.9823096448862998
 30
0.0
 11
85.9655523698157396
 21
132.9791577386916117
 31
0.0
  0
LINE
  5
D0C3
  8
0
 10
85.9655523698157396
 20
132.9791577386916117
 30
0.0
 11
85.9669864617734021
 21
132.9704677281241061
 31
0.0
  0
LINE
  5
D0C4
  8
0
 10
85.9669864617734021
 20
132.9704677281241061
 30
0.0
 11
85.9897078110157338
 21
132.9665474328915877
 31
0.0
  0
LINE
  5
D0C5
  8
0
 10
85.9897078110157338
 20
132.9665474328915877
 30
0.0
 11
85.9886911828827465
 21
132.9579191857608862
 31
0.0
  0
LINE
  5
D0C6
  8
0
 10
85.9886911828827465
 20
132.9579191857608862
 30
0.0
 11
86.0101920027157405
 21
132.9531986345915868
 31
0.0
  0
LINE
  5
D0C7
  8
0
 10
86.0101920027157405
 20
132.9531986345915868
 30
0.0
 11
86.006717922515719
 21
132.9445762057916056
 31
0.0
  0
LINE
  5
D0C8
  8
0
 10
86.006717922515719
 20
132.9445762057916056
 30
0.0
 11
86.026813689515734
 21
132.9392359777916113
 31
0.0
  0
LINE
  5
D0C9
  8
0
 10
86.026813689515734
 20
132.9392359777916113
 30
0.0
 11
86.0209698451923686
 21
132.9308362765679874
 31
0.0
  0
LINE
  5
D0CA
  8
0
 10
86.0209698451923686
 20
132.9308362765679874
 30
0.0
 11
86.0394176792157452
 21
132.9247898279915887
 31
0.0
  0
LINE
  5
D0CB
  8
0
 10
86.0394176792157452
 20
132.9247898279915887
 30
0.0
 11
86.0311647382157361
 21
132.9165563194916047
 31
0.0
  0
LINE
  5
D0CC
  8
0
 10
86.0311647382157361
 20
132.9165563194916047
 30
0.0
 11
86.0478862918157432
 21
132.9099950651915947
 31
0.0
  0
LINE
  5
D0CD
  8
0
 10
86.0478862918157432
 20
132.9099950651915947
 30
0.0
 11
86.0373666503111139
 21
132.902086083269694
 31
0.0
  0
LINE
  5
D0CE
  8
0
 10
86.0373666503111139
 20
132.902086083269694
 30
0.0
 11
86.0521404581157441
 21
132.8949898238915921
 31
0.0
  0
LINE
  5
D0CF
  8
0
 10
86.0521404581157441
 20
132.8949898238915921
 30
0.0
 11
86.0394161587169037
 21
132.8874520140923039
 31
0.0
  0
LINE
  5
D0D0
  8
0
 10
86.0394161587169037
 20
132.8874520140923039
 30
0.0
 11
86.0521404581157441
 21
132.879914204191607
 31
0.0
  0
LINE
  5
D0D1
  8
0
 10
86.0521404581157441
 20
132.879914204191607
 30
0.0
 11
86.0394163613157446
 21
132.8738217381992115
 31
0.0
  0
LINE
  5
D0D2
  8
0
 10
86.0394161587157384
 20
132.8615854261915956
 30
0.0
 11
86.0478862918157432
 21
132.8649089628916045
 31
0.0
  0
LINE
  5
D0D3
  8
0
 10
86.0478862918157432
 20
132.8649089628916045
 30
0.0
 11
86.0394161587157384
 21
132.8712770629915951
 31
0.0
  0
LINE
  5
D0D4
  8
0
 10
86.0478862918157432
 20
132.8778772530494905
 30
0.0
 11
86.0478862918157432
 21
132.8649089628916045
 31
0.0
  0
LINE
  5
D0D5
  8
0
 10
86.0521404581157441
 20
132.879914204191607
 30
0.0
 11
86.0521404581157441
 21
133.1724582032915976
 31
0.0
  0
LINE
  5
D0D6
  8
0
 10
86.0521404581157441
 20
133.1724582032915976
 30
0.0
 11
86.0478862918157432
 21
133.1744951543915931
 31
0.0
  0
LINE
  5
D0D7
  8
0
 10
86.0394176792157452
 20
133.190786384591604
 30
0.0
 11
86.0478862918157432
 21
133.1874634444916126
 31
0.0
  0
LINE
  5
D0D8
  8
0
 10
86.0478862918157432
 20
133.1874634444916126
 30
0.0
 11
86.0478862918157432
 21
132.9099950651915947
 31
0.0
  0
LINE
  5
D0D9
  8
0
 10
86.0394176792157452
 20
132.9247898279915887
 30
0.0
 11
86.0394176792157452
 21
133.2526391174000082
 31
0.0
  0
LINE
  5
D0DA
  8
0
 10
86.026813689515734
 20
133.2063325440915946
 30
0.0
 11
86.0394163919472845
 21
133.2022586235111135
 31
0.0
  0
LINE
  5
D0DB
  8
0
 10
86.0101920027157405
 20
133.2211213866916069
 30
0.0
 11
86.026813689515734
 21
133.2167043570916007
 31
0.0
  0
LINE
  5
D0DC
  8
0
 10
86.026813689515734
 20
133.2167043570916007
 30
0.0
 11
86.026813689515734
 21
132.9392359777916113
 31
0.0
  0
LINE
  5
D0DD
  8
0
 10
86.0101920027157405
 20
132.9531986345915868
 30
0.0
 11
86.0101920027157405
 21
133.2306670138916047
 31
0.0
  0
LINE
  5
D0DE
  8
0
 10
86.0101920027157405
 20
133.2306670138916047
 30
0.0
 11
85.9897078110157338
 21
133.2350973334916091
 31
0.0
  0
LINE
  5
D0DF
  8
0
 10
85.9897078110159043
 20
132.9665474328915877
 30
0.0
 11
85.9897078110157338
 21
133.2440158122915932
 31
0.0
  0
LINE
  5
D0E0
  8
0
 10
85.9897078110157338
 20
133.2440158122915932
 30
0.0
 11
85.9669865938157471
 21
133.2479360384915879
 31
0.0
  0
LINE
  5
D0E1
  8
0
 10
85.9669865938157471
 20
133.2479360384915879
 30
0.0
 11
85.9655523698157396
 21
133.2566261179916012
 31
0.0
  0
LINE
  5
D0E2
  8
0
 10
85.9655523698157396
 20
133.2566261179916012
 30
0.0
 11
85.9655523698157396
 21
132.9791577386916117
 31
0.0
  0
LINE
  5
D0E3
  8
0
 10
85.9669865938157471
 20
132.9704677053416901
 30
0.0
 11
85.9669865938157471
 21
133.2479360384915879
 31
0.0
  0
LINE
  5
D0E4
  8
0
 10
85.9655523698157396
 20
133.2566261179916012
 30
0.0
 11
85.9418309809157392
 21
133.2597780242915917
 31
0.0
  0
LINE
  5
D0E5
  8
0
 10
85.9418309809157392
 20
133.2597780242915917
 30
0.0
 11
85.9418309809157392
 21
132.9823096449748903
 31
0.0
  0
LINE
  5
D0E6
  8
0
 10
85.9379512119157454
 20
132.990911812791694
 30
0.0
 11
85.9379512119157454
 21
133.2683801920915982
 31
0.0
  0
LINE
  5
D0E7
  8
0
 10
85.9379512119157454
 20
133.2683801920915982
 30
0.0
 11
85.9418309809157392
 21
133.2597780242915917
 31
0.0
  0
LINE
  5
D0E8
  8
0
 10
85.9379512119157454
 20
133.2683801920915982
 30
0.0
 11
85.9134511315157283
 21
133.2707343498915975
 31
0.0
  0
LINE
  5
D0E9
  8
0
 10
85.9134511315157283
 20
133.2707343498915975
 30
0.0
 11
85.9071620420157558
 21
133.2791682898916008
 31
0.0
  0
LINE
  5
D0EA
  8
0
 10
85.9071620420157558
 20
133.2791682898916008
 30
0.0
 11
85.9071620420157558
 21
133.0016999105916113
 31
0.0
  0
LINE
  5
D0EB
  8
0
 10
85.9134511315157283
 20
132.9934256235372914
 30
0.0
 11
85.9134511315157283
 21
133.2707343498915975
 31
0.0
  0
LINE
  5
D0EC
  8
0
 10
85.8734723301157459
 20
133.0114213065915862
 30
0.0
 11
85.8734723301157459
 21
133.2888896858916041
 31
0.0
  0
LINE
  5
D0ED
  8
0
 10
85.8734723301157459
 20
133.2888896858916041
 30
0.0
 11
85.882112020615736
 21
133.2807027190916074
 31
0.0
  0
LINE
  5
D0EE
  8
0
 10
85.882112020615736
 20
133.2807027190916074
 30
0.0
 11
85.8821122738708169
 21
133.0032343242785942
 31
0.0
  0
LINE
  5
D0EF
  8
0
 10
85.9071620420157558
 20
133.2791682898916008
 30
0.0
 11
85.882112020615736
 21
133.2807027190854967
 31
0.0
  0
LINE
  5
D0F0
  8
0
 10
85.8371966282157359
 20
133.0199852346916032
 30
0.0
 11
85.8371966282157359
 21
133.2974536139915926
 31
0.0
  0
LINE
  5
D0F1
  8
0
 10
85.8371966282157359
 20
133.2974536139915926
 30
0.0
 11
85.8481062532157466
 21
133.2895900598915944
 31
0.0
  0
LINE
  5
D0F2
  8
0
 10
85.8481062532157466
 20
133.2895900598915944
 30
0.0
 11
85.848106252167625
 21
133.0121216813471108
 31
0.0
  0
LINE
  5
D0F3
  8
0
 10
85.7986736326157455
 20
133.0273117357916135
 30
0.0
 11
85.7986736326157455
 21
133.3047801151915905
 31
0.0
  0
LINE
  5
D0F4
  8
0
 10
85.7986736326157455
 20
133.3047801151915905
 30
0.0
 11
85.8117513319157439
 21
133.2973133936916099
 31
0.0
  0
LINE
  5
D0F5
  8
0
 10
85.8117513319157439
 20
133.2973133936916099
 30
0.0
 11
85.8117513319157439
 21
133.0198907617912027
 31
0.0
  0
LINE
  5
D0F6
  8
0
 10
85.7731521463338993
 20
133.0263671471774103
 30
0.0
 11
85.773386692815734
 21
133.3038006096915922
 31
0.0
  0
LINE
  5
D0F7
  8
0
 10
85.773386692815734
 20
133.3038006096915922
 30
0.0
 11
85.7582630221157416
 21
133.310800783791592
 31
0.0
  0
LINE
  5
D0F8
  8
0
 10
85.7582630221157416
 20
133.310800783791592
 30
0.0
 11
85.7582630221157416
 21
133.0333324043915866
 31
0.0
  0
LINE
  5
D0F9
  8
0
 10
85.7333705361248235
 20
133.0315227590922973
 30
0.0
 11
85.7333705361157428
 21
133.3089911384915922
 31
0.0
  0
LINE
  5
D0FA
  8
0
 10
85.7333705361157428
 20
133.3089911384915922
 30
0.0
 11
85.7163420997157459
 21
133.3154594064916125
 31
0.0
  0
LINE
  5
D0FB
  8
0
 10
85.7163420997157459
 20
133.3154594064916125
 30
0.0
 11
85.7163420997157459
 21
133.0379910270916071
 31
0.0
  0
LINE
  5
D0FC
  8
0
 10
85.6920764821226157
 20
133.0353681381924105
 30
0.0
 11
85.6920764821157235
 21
133.3128365175915917
 31
0.0
  0
LINE
  5
D0FD
  8
0
 10
85.6920764821157235
 20
133.3128365175915917
 30
0.0
 11
85.6733022699157374
 21
133.3187124869915863
 31
0.0
  0
LINE
  5
D0FE
  8
0
 10
85.6733022699157374
 20
133.3187124869915863
 30
0.0
 11
85.6733022699157374
 21
133.0412441075916092
 31
0.0
  0
LINE
  5
D0FF
  8
0
 10
85.6498900820157445
 20
133.0378748952959995
 30
0.0
 11
85.6498900820157445
 21
133.3153008436916025
 31
0.0
  0
LINE
  5
D100
  8
0
 10
85.6498900820157445
 20
133.3153008436916025
 30
0.0
 11
85.6295453838157243
 21
133.3205296520916079
 31
0.0
  0
LINE
  5
D101
  8
0
 10
85.6295453838157243
 20
133.3205296520916079
 30
0.0
 11
85.6295453838157243
 21
133.04306127279159
 31
0.0
  0
LINE
  5
D102
  8
0
 10
85.6072052191157553
 20
133.038894986875988
 30
0.0
 11
85.6072052191157553
 21
133.3163611079916109
 31
0.0
  0
LINE
  5
D103
  8
0
 10
85.6072052191157553
 20
133.3163611079916109
 30
0.0
 11
85.5854799878157451
 21
133.3208939355916129
 31
0.0
  0
LINE
  5
D104
  8
0
 10
85.5854799878157451
 20
133.3208939355916129
 30
0.0
 11
85.5854799878157451
 21
133.0434255561916075
 31
0.0
  0
LINE
  5
D105
  8
0
 10
85.1424619541157455
 20
133.1799784081916016
 30
0.0
 11
85.1488307809157448
 21
133.1827358050915961
 31
0.0
  0
LINE
  5
D106
  8
0
 10
85.1488307809157448
 20
133.1948958304915891
 30
0.0
 11
85.1488307809157448
 21
132.9174274510916121
 31
0.0
  0
LINE
  5
D107
  8
0
 10
85.1424619541157455
 20
132.9025100288916121
 30
0.0
 11
85.1424619541157455
 21
133.1799784081916016
 31
0.0
  0
LINE
  5
D108
  8
0
 10
85.1593794004157445
 20
132.9320650006916082
 30
0.0
 11
85.1593794004157445
 21
133.2095333800916137
 31
0.0
  0
LINE
  5
D109
  8
0
 10
85.1593794004157445
 20
133.2095333800916137
 30
0.0
 11
85.174009323215742
 21
133.213824414991592
 31
0.0
  0
LINE
  5
D10A
  8
0
 10
85.174009323215742
 20
132.9462860108916118
 30
0.0
 11
85.174009323215742
 21
133.2237543902915888
 31
0.0
  0
LINE
  5
D10B
  8
0
 10
85.174009323215742
 20
133.2237543902915888
 30
0.0
 11
85.1925839534157348
 21
133.2282154495916018
 31
0.0
  0
LINE
  5
D10C
  8
0
 10
85.1925839534157348
 20
132.9599577039915914
 30
0.0
 11
85.1925839534157348
 21
133.2374260832916093
 31
0.0
  0
LINE
  5
D10D
  8
0
 10
85.1925839534157348
 20
133.2374260832916093
 30
0.0
 11
85.2147248692157433
 21
133.2417171794915873
 31
0.0
  0
LINE
  5
D10E
  8
0
 10
85.2147248692157433
 20
132.9642488024825013
 30
0.0
 11
85.2147248692157433
 21
133.2417171794915873
 31
0.0
  0
LINE
  5
D10F
  8
0
 10
85.2147248692157433
 20
133.2417171794915873
 30
0.0
 11
85.2149298648157441
 21
133.2504208101915992
 31
0.0
  0
LINE
  5
D110
  8
0
 10
85.2149298648157441
 20
133.2504208101915992
 30
0.0
 11
85.2149298648157441
 21
132.9729524308916098
 31
0.0
  0
LINE
  5
D111
  8
0
 10
85.2149298648157441
 20
133.2504208101915992
 30
0.0
 11
85.2381783167157465
 21
133.2539610105916097
 31
0.0
  0
LINE
  5
D112
  8
0
 10
85.2381783167157465
 20
133.2539610105916097
 30
0.0
 11
85.2408384196157556
 21
133.262617242791606
 31
0.0
  0
LINE
  5
D113
  8
0
 10
85.2408384196157556
 20
133.262617242791606
 30
0.0
 11
85.2408384132488948
 21
132.9851488627645892
 31
0.0
  0
LINE
  5
D114
  8
0
 10
85.2381783167157465
 20
132.9764926313073943
 30
0.0
 11
85.2381783167157465
 21
133.2539610105916097
 31
0.0
  0
LINE
  5
D115
  8
0
 10
85.2408384196157556
 20
133.262617242791606
 30
0.0
 11
85.2649773431157456
 21
133.265373493491694
 31
0.0
  0
LINE
  5
D116
  8
0
 10
85.2649773431157456
 20
133.265373493491694
 30
0.0
 11
85.2700677167157437
 21
133.2739015061916064
 31
0.0
  0
LINE
  5
D117
  8
0
 10
85.2700677167157437
 20
133.2739015061916064
 30
0.0
 11
85.2948717331157411
 21
133.2758480728915913
 31
0.0
  0
LINE
  5
D118
  8
0
 10
85.2948717331157411
 20
133.2758480728915913
 30
0.0
 11
85.3023448500157428
 21
133.284168242391587
 31
0.0
  0
LINE
  5
D119
  8
0
 10
85.3023448500157428
 20
133.284168242391587
 30
0.0
 11
85.3275823708157333
 21
133.285286950391594
 31
0.0
  0
LINE
  5
D11A
  8
0
 10
85.3275823708157333
 20
133.285286950391594
 30
0.0
 11
85.3373684565157191
 21
133.293321593391596
 31
0.0
  0
LINE
  5
D11B
  8
0
 10
85.3373684565157191
 20
133.293321593391596
 30
0.0
 11
85.3628038459157352
 21
133.29360199769161
 31
0.0
  0
LINE
  5
D11C
  8
0
 10
85.3628038459157352
 20
133.29360199769161
 30
0.0
 11
85.3748115303157391
 21
133.301276097091602
 31
0.0
  0
LINE
  5
D11D
  8
0
 10
85.3748115303157391
 20
133.301276097091602
 30
0.0
 11
85.4002073048157371
 21
133.3007155795916105
 31
0.0
  0
LINE
  5
D11E
  8
0
 10
85.4002073048157371
 20
133.3007155795916105
 30
0.0
 11
85.4143244755157411
 21
133.3079574842915918
 31
0.0
  0
LINE
  5
D11F
  8
0
 10
85.4143244755157411
 20
133.3079574842915918
 30
0.0
 11
85.4394435217157451
 21
133.3065612784916141
 31
0.0
  0
LINE
  5
D120
  8
0
 10
85.4394435217157451
 20
133.3065612784916141
 30
0.0
 11
85.4555383704157236
 21
133.3133033727916086
 31
0.0
  0
LINE
  5
D121
  8
0
 10
85.4555383704157236
 20
133.3133033727916086
 30
0.0
 11
85.4801461585157369
 21
133.311084514591613
 31
0.0
  0
LINE
  5
D122
  8
0
 10
85.4801461585157369
 20
133.311084514591613
 30
0.0
 11
85.4980684119157246
 21
133.3172638492916064
 31
0.0
  0
LINE
  5
D123
  8
0
 10
85.4980684119157246
 20
133.3172638492916064
 30
0.0
 11
85.5219351857157335
 21
133.3142430555915894
 31
0.0
  0
LINE
  5
D124
  8
0
 10
85.5219351857157335
 20
133.3142430555915894
 30
0.0
 11
85.5415175086157404
 21
133.3198019360916078
 31
0.0
  0
LINE
  5
D125
  8
0
 10
85.5415175086157404
 20
133.3198019360916078
 30
0.0
 11
85.5644204303157352
 21
133.316007411191606
 31
0.0
  0
LINE
  5
D126
  8
0
 10
85.5644204303157352
 20
133.316007411191606
 30
0.0
 11
85.5854799878157451
 21
133.3208939355916129
 31
0.0
  0
LINE
  5
D127
  8
0
 10
85.6072052191157553
 20
133.3163611079916109
 30
0.0
 11
85.6295453838157243
 21
133.3205296520916079
 31
0.0
  0
LINE
  5
D128
  8
0
 10
85.6498900820157445
 20
133.3153008436916025
 30
0.0
 11
85.6733022699157374
 21
133.3187124869915863
 31
0.0
  0
LINE
  5
D129
  8
0
 10
85.6920764821157235
 20
133.3128365175915917
 30
0.0
 11
85.7163420997157459
 21
133.3154594064916125
 31
0.0
  0
LINE
  5
D12A
  8
0
 10
85.7333705361157428
 20
133.3089911384915922
 30
0.0
 11
85.7582630221157416
 21
133.310800783791592
 31
0.0
  0
LINE
  5
D12B
  8
0
 10
85.773386692815734
 20
133.3038006096915922
 30
0.0
 11
85.7986736326157455
 21
133.3047801151915905
 31
0.0
  0
LINE
  5
D12C
  8
0
 10
85.8117513319157439
 20
133.2973133936916099
 30
0.0
 11
85.8371966282157359
 21
133.2974536139915926
 31
0.0
  0
LINE
  5
D12D
  8
0
 10
85.8481062532157466
 20
133.2895900598915944
 30
0.0
 11
85.8734723301157459
 21
133.2888896858916041
 31
0.0
  0
LINE
  5
D12E
  8
0
 10
85.2649773431157456
 20
132.9879051216319965
 30
0.0
 11
85.2649773431157456
 21
133.265373493491694
 31
0.0
  0
LINE
  5
D12F
  8
0
 10
85.2700677167157437
 20
133.2739015061916064
 30
0.0
 11
85.2700677167157437
 21
132.9964331268915885
 31
0.0
  0
LINE
  5
D130
  8
0
 10
85.2948717331157411
 20
132.9983796935212013
 30
0.0
 11
85.2948717331157411
 21
133.2758480728915913
 31
0.0
  0
LINE
  5
D131
  8
0
 10
85.3023448500157428
 20
133.284168242391587
 30
0.0
 11
85.3023448500157428
 21
133.00669986299161
 31
0.0
  0
LINE
  5
D132
  8
0
 10
85.3023448500157428
 20
133.00669986299161
 30
0.0
 11
85.3275823708853238
 21
133.0078185710098069
 31
0.0
  0
LINE
  5
D133
  8
0
 10
85.3275823708853238
 20
133.0078185710098069
 30
0.0
 11
85.3373684565157191
 21
133.0158532140916066
 31
0.0
  0
LINE
  5
D134
  8
0
 10
85.3373684565157191
 20
133.0158532140916066
 30
0.0
 11
85.3628038459159768
 21
133.0161336183917911
 31
0.0
  0
LINE
  5
D135
  8
0
 10
85.3628038459159768
 20
133.0161336183917911
 30
0.0
 11
85.3628038459157352
 21
133.29360199769161
 31
0.0
  0
LINE
  5
D136
  8
0
 10
85.3275823708854091
 20
133.0078185710098921
 30
0.0
 11
85.3275823708157333
 21
133.285286950391594
 31
0.0
  0
LINE
  5
D137
  8
0
 10
85.3373684565157191
 20
133.293321593391596
 30
0.0
 11
85.3373684565157191
 21
133.0158532140916066
 31
0.0
  0
LINE
  5
D138
  8
0
 10
85.3748115303157391
 20
133.0238077177916125
 30
0.0
 11
85.3748115303157391
 21
133.301276097091602
 31
0.0
  0
LINE
  5
D139
  8
0
 10
85.4002073048157371
 20
133.3007155795916105
 30
0.0
 11
85.4002073048427377
 21
133.0232472002963107
 31
0.0
  0
LINE
  5
D13A
  8
0
 10
85.4143244755157411
 20
133.0304891049916023
 30
0.0
 11
85.4143244755157411
 21
133.3079574842915918
 31
0.0
  0
LINE
  5
D13B
  8
0
 10
85.4394435217157451
 20
133.3065612784916141
 30
0.0
 11
85.4394435217157309
 21
133.0288569065751858
 31
0.0
  0
LINE
  5
D13C
  8
0
 10
85.4555383704157236
 20
133.0358349933916031
 30
0.0
 11
85.4555383704157236
 21
133.3133033727916086
 31
0.0
  0
LINE
  5
D13D
  8
0
 10
85.4801461585157369
 20
133.311084514591613
 30
0.0
 11
85.4801461589058107
 21
133.0336161353260991
 31
0.0
  0
LINE
  5
D13E
  8
0
 10
85.4980684119157246
 20
133.0397954699915886
 30
0.0
 11
85.4980684119157246
 21
133.3172638492916064
 31
0.0
  0
LINE
  5
D13F
  8
0
 10
85.5219351857157335
 20
133.3142430555915894
 30
0.0
 11
85.5219351857157335
 21
133.0369117418850067
 31
0.0
  0
LINE
  5
D140
  8
0
 10
85.5415175086157404
 20
133.0423335566916023
 30
0.0
 11
85.5415175086157404
 21
133.3198019360916078
 31
0.0
  0
LINE
  5
D141
  8
0
 10
85.5644204303157352
 20
133.316007411191606
 30
0.0
 11
85.5644204308463543
 21
133.0385390319146097
 31
0.0
  0
LINE
  5
D142
  8
0
 10
85.1593794004157445
 20
133.1986519813916061
 30
0.0
 11
85.1488307809157448
 21
133.1948958304915891
 31
0.0
  0
LINE
  5
D143
  8
0
 10
85.1535893871157441
 20
133.2525307646916133
 30
0.0
 11
85.1535893871157441
 21
133.1965902742963976
 31
0.0
  0
ARC
  5
D144
  8
0
 10
85.5952013757532768
 20
132.0115396535470893
 30
0.0
 40
0.881394287515169
 50
89.9154015483996432
 51
97.9673036909843518
  0
ARC
  5
D145
  8
0
 10
85.5378249017409757
 20
132.3749276224758091
 30
0.0
 40
0.5136017014402481
 50
97.2472782301669838
 51
111.9184859853602063
  0
ARC
  5
D146
  8
0
 10
85.3965726554652775
 20
132.7147251993665122
 30
0.0
 40
0.1456989994640914
 50
110.2666604266951964
 51
136.346262547271408
  0
ARC
  5
D147
  8
0
 10
85.3498924751021377
 20
132.802083964610091
 30
0.0
 40
0.0769146894816574
 50
207.1023731910213996
 51
234.4128772669446903
  0
ARC
  5
D148
  8
0
 10
85.3214407271958919
 20
132.784082981951201
 30
0.0
 40
0.0434941319708051
 50
134.1307911821949119
 51
203.0650402091405908
  0
ARC
  5
D149
  8
0
 10
85.5978617634082042
 20
132.0112565863742873
 30
0.0
 40
0.8816774412710302
 50
82.2507933678447358
 51
90.0883139874098333
  0
ARC
  5
D14A
  8
0
 10
85.654779978105509
 20
132.3754567253768926
 30
0.0
 40
0.5131803620559547
 50
67.6950530613408006
 51
83.0648152080888167
  0
ARC
  5
D14B
  8
0
 10
85.8557248256383758
 20
132.7902094599220959
 30
0.0
 40
0.0600113932978934
 50
302.3977455309183142
 51
353.9301625460166179
  0
ARC
  5
D14C
  8
0
 10
85.777766313000015
 20
132.6813174388217931
 30
0.0
 40
0.1835417571488218
 50
53.1496148892293334
 51
66.9767236847511924
  0
ARC
  5
D14D
  8
0
 10
85.8422512166834082
 20
132.7645772741803114
 30
0.0
 40
0.0782612832856938
 50
28.9903829590460305
 51
54.3707785342445433
  0
ARC
  5
D14E
  8
0
 10
85.874264408901368
 20
132.7834211539145883
 30
0.0
 40
0.0411377527454934
 50
0.6165464609856166
 51
27.64322180595288
  0
LINE
  5
D14F
  8
0
 10
85.3051641902157343
 20
132.8281830810915949
 30
0.0
 11
85.3051641902157343
 21
132.2397534934771954
 31
0.0
  0
LINE
  5
D150
  8
0
 10
85.8878413556157341
 20
132.2397362749968863
 30
0.0
 11
85.8878413556157625
 21
132.8281883399916126
 31
0.0
  0
ARC
  5
D151
  8
0
 10
85.8564411495463844
 20
132.8474465670076086
 30
0.0
 40
0.0549061061077735
 50
304.9221032836010181
 51
324.894455624494185
  0
ARC
  5
D152
  8
0
 10
85.3779943714470448
 20
132.8970084363992044
 30
0.0
 40
0.1193918197680744
 50
223.2575460355083123
 51
232.3872616407315945
  0
ARC
  5
D153
  8
0
 10
97.0029007007698851
 20
132.8325146377073054
 30
0.0
 40
11.7127454187504796
 50
182.9008763398111057
 51
196.5696047665757931
  0
ARC
  5
D154
  8
0
 10
96.9960676500318044
 20
132.8325684763896106
 30
0.0
 40
11.1240344042512191
 50
183.0549062346416918
 51
196.700663977663794
  0
ARC
  5
D155
  8
0
 10
91.644221886378574
 20
130.9868728280789014
 30
0.0
 40
5.4723636360107193
 50
194.2931684441188054
 51
239.6571016411994037
  0
ARC
  5
D156
  8
0
 10
91.6333477640654337
 20
130.9816654310355091
 30
0.0
 40
6.0432190427076513
 50
194.2679268093629048
 51
241.784673305665109
  0
ARC
  5
D157
  8
0
 10
91.6434040267895682
 20
130.9994574135145058
 30
0.0
 40
5.4828157424922397
 50
239.7309128888086036
 51
305.7357046284956823
  0
ARC
  5
D158
  8
0
 10
91.6283546722262656
 20
130.9948350244067967
 30
0.0
 40
5.487873460444149
 50
305.8914296451129076
 51
359.9159096673002978
  0
ARC
  5
D159
  8
0
 10
91.6329720307423088
 20
130.9936142241980974
 30
0.0
 40
6.0658967959848287
 50
296.8558374807840892
 51
359.9354538437056021
  0
ARC
  5
D15A
  8
0
 10
91.646113280471468
 20
130.9785302561959952
 30
0.0
 40
6.0465051650555868
 50
241.6640366560008033
 51
296.8093131996724878
  0
LINE
  5
D15B
  8
0
 10
97.1162222222157396
 20
130.986780732391594
 30
0.0
 11
97.1161878008890938
 21
153.4658516669366861
 31
0.0
  0
LINE
  5
D15C
  8
0
 10
97.6988649775157398
 20
153.4545213001916011
 30
0.0
 11
97.6988649776157558
 21
130.986780732391594
 31
0.0
  0
ARC
  5
D15D
  8
0
 10
82.6437468674157287
 20
134.4880629363916
 30
0.0
 40
1.2992125983999969
 50
214.3030789836874987
 51
325.696921016935903
  0
ARC
  5
D15E
  8
0
 10
88.5492586784157396
 20
134.4880629363916
 30
0.0
 40
1.2992125984
 50
214.3030789832064897
 51
325.6969210161689148
  0
ARC
  5
D15F
  8
0
 10
82.6437468674157287
 20
134.4880629363916
 30
0.0
 40
0.7874015747999966
 50
248.4178657966236869
 51
291.5821342040006243
  0
ARC
  5
D160
  8
0
 10
88.5492586784157396
 20
134.4880629363916
 30
0.0
 40
0.7874015747999868
 50
248.4178657965271952
 51
291.5821342028485219
  0
LINE
  5
D161
  8
0
 10
86.1004399834155834
 20
133.7558651189503962
 30
0.0
 11
89.7357385506157357
 21
133.7558651189305863
 31
0.0
  0
ARC
  5
D162
  8
0
 10
87.1722859605417995
 20
132.7789549821546871
 30
0.0
 40
0.9865814391397151
 50
81.9708595244602236
 51
98.029140474915792
  0
ARC
  5
D163
  8
0
 10
87.1727505320338167
 20
133.875894637324393
 30
0.0
 40
0.1892244985559232
 50
219.3698168666660138
 51
320.6301831327098171
  0
ARC
  5
D164
  8
0
 10
82.6437468674157287
 20
134.4880629363916
 30
0.0
 40
1.2992125984
 50
63.3874505290662427
 51
116.6125494709338
  0
ARC
  5
D165
  8
0
 10
88.5492586784157396
 20
134.4880629363916
 30
0.0
 40
1.299212598400008
 50
63.3874505290662427
 51
116.6125494709338
  0
LINE
  5
D166
  8
0
 10
85.0059513138157428
 20
134.2496591503916079
 30
0.0
 11
85.0056456417157449
 21
135.155172059891612
 31
0.0
  0
ARC
  5
D167
  8
0
 10
85.0849177864289743
 20
135.1546435517209943
 30
0.0
 40
0.0792739064782684
 50
91.1416806005989031
 51
179.6180141324628039
  0
ARC
  5
D168
  8
0
 10
85.0846914496426336
 20
134.249659142118503
 30
0.0
 40
0.0787401358268958
 50
179.9999939800171092
 51
270.0000195543922246
  0
LINE
  5
D169
  8
0
 10
86.1870874505157474
 20
134.2496591503916079
 30
0.0
 11
86.1873931226157453
 21
135.155172059891612
 31
0.0
  0
ARC
  5
D16A
  8
0
 10
86.1081209779024874
 20
135.1546435517209943
 30
0.0
 40
0.0792739064782684
 50
0.3819858675371874
 51
88.8583193994010969
  0
ARC
  5
D16B
  8
0
 10
86.1083473146888423
 20
134.249659142118503
 30
0.0
 40
0.0787401358268958
 50
269.9999804456077754
 51
0.0000060199829145
  0
ARC
  5
D16C
  8
0
 10
97.4106050048402352
 20
152.3877631731286897
 30
0.0
 40
5.6174450294104723
 50
90.0314006422019446
 51
99.7388880105247893
  0
ARC
  5
D16D
  8
0
 10
97.4491586283677123
 20
152.177768884046003
 30
0.0
 40
5.8309352598495172
 50
99.7632149924940848
 51
106.7076126828553981
  0
ARC
  5
D16E
  8
0
 10
95.7429629235113282
 20
157.6601391574590139
 30
0.0
 40
0.0813755153651671
 50
134.553499056678902
 51
174.254579357694297
  0
ARC
  5
D16F
  8
0
 10
95.8676343867016669
 20
157.4404295718358924
 30
0.0
 40
0.3357774234436135
 50
106.399022229538204
 51
116.6510436030890929
  0
ARC
  5
D170
  8
0
 10
95.7762773871526605
 20
157.6252993590883875
 30
0.0
 40
0.1295767049675985
 50
117.2142020977136951
 51
134.2426532006666946
  0
ARC
  5
D171
  8
0
 10
95.6931897515712961
 20
157.6568552435064134
 30
0.0
 40
0.0332218242354519
 50
120.068043040283996
 51
159.8755802227655067
  0
ARC
  5
D172
  8
0
 10
95.7710992049231749
 20
157.5354080020420895
 30
0.0
 40
0.1774827551131753
 50
107.4737851222059959
 51
122.1916728753986945
  0
ARC
  5
D173
  8
0
 10
96.0377473426896557
 20
156.666060598350299
 30
0.0
 40
1.0868005311640769
 50
98.4446517946271769
 51
107.1208287348741948
  0
ARC
  5
D174
  8
0
 10
96.6323550496932313
 20
152.7860364693553095
 30
0.0
 40
5.0121122945904553
 50
93.7238201065196535
 51
98.6545823231366512
  0
ARC
  5
D175
  8
0
 10
97.3559531861622816
 20
142.4922380495031007
 30
0.0
 40
15.3312665155001095
 50
89.8072610134629059
 51
93.9238244701425771
  0
ARC
  5
D176
  8
0
 10
95.6877335485504261
 20
157.0857388722853898
 30
0.0
 40
0.0474040996648011
 50
103.9541300986953019
 51
165.7536217163304002
  0
ARC
  5
D177
  8
0
 10
96.0336469822754424
 20
156.1515273248894005
 30
0.0
 40
1.04332163242988
 50
95.0301648951585634
 51
110.0296723036821049
  0
ARC
  5
D178
  8
0
 10
96.9536703726123079
 20
148.9769678080232893
 30
0.0
 40
8.2759097027845208
 50
92.1269202640978762
 51
97.0203844845797931
  0
ARC
  5
D179
  8
0
 10
97.3919554180457538
 20
139.8700753080210859
 30
0.0
 40
17.3930817910483597
 50
89.9487065391716953
 51
92.4563287424350193
  0
ARC
  5
D17A
  8
0
 10
97.4574331720126708
 20
136.2654477026856057
 30
0.0
 40
20.9314399640809512
 50
90.1366407161507368
 51
91.7323604172364924
  0
ARC
  5
D17B
  8
0
 10
96.9829392810395206
 20
149.6160155267988046
 30
0.0
 40
7.5729595879307281
 50
91.1976079423160684
 51
98.370448317046268
  0
ARC
  5
D17C
  8
0
 10
96.022370611942236
 20
156.2862587834291048
 30
0.0
 40
0.8341942546607576
 50
99.7902583102744671
 51
107.1660858839936026
  0
ARC
  5
D17D
  8
0
 10
95.856444905513996
 20
156.8311270280458132
 30
0.0
 40
0.2646362123280927
 50
107.6596331878532027
 51
116.1758736342031995
  0
ARC
  5
D17E
  8
0
 10
95.7602710200583545
 20
157.0491843293063141
 30
0.0
 40
0.021282396142547
 50
130.9190231503168036
 51
174.0535333272389948
  0
ARC
  5
D17F
  8
0
 10
95.8267539070109535
 20
156.9596399788578935
 30
0.0
 40
0.1335207338620884
 50
111.8507534744094016
 51
120.9733391096814046
  0
ARC
  5
D180
  8
0
 10
95.7897427522334937
 20
157.020039537402198
 30
0.0
 40
0.0626897141466991
 50
120.3795846406154055
 51
133.8269375423606107
  0
ARC
  5
D181
  8
0
 10
95.8015502710122178
 20
157.0565557295817882
 30
0.0
 40
0.0626604923165006
 50
184.7295924166508883
 51
201.4568257928144135
  0
ARC
  5
D182
  8
0
 10
95.7627057560225126
 20
157.0167381932234036
 30
0.0
 40
0.0567540994069568
 50
113.9064550186950981
 51
134.0645440858442043
  0
ARC
  5
D183
  8
0
 10
95.774190322723797
 20
157.0882670424873027
 30
0.0
 40
0.0627927138504006
 50
224.6338121525319877
 51
240.404034128056395
  0
ARC
  5
D184
  8
0
 10
95.7435656937502273
 20
157.0589010521690909
 30
0.0
 40
0.0203775180104369
 50
183.8882528017570905
 51
226.3741464223201945
  0
ARC
  5
D185
  8
0
 10
95.7879516106449245
 20
157.0562770106529058
 30
0.0
 40
0.0501584822849318
 50
206.7933006331882098
 51
244.7986626772996885
  0
ARC
  5
D186
  8
0
 10
96.1085048711444045
 20
157.6968912215315868
 30
0.0
 40
0.7664834391365219
 50
243.507723636738092
 51
254.4643548041802887
  0
LINE
  5
D187
  8
0
 10
95.739102033515735
 20
157.0513891688916033
 30
0.0
 11
95.739706464545705
 21
157.0686232622805107
 31
0.0
  0
ARC
  5
D188
  8
0
 10
95.7104605032933193
 20
157.0972372027846973
 30
0.0
 40
0.0686734150083167
 50
179.8603005109762023
 51
195.3779826251308975
  0
ARC
  5
D189
  8
0
 10
95.7295344199308857
 20
157.1024183096832871
 30
0.0
 40
0.0884384125932429
 50
195.3374792109100042
 51
241.1653090629687028
  0
ARC
  5
D18A
  8
0
 10
95.8177632242241089
 20
157.2404979047304039
 30
0.0
 40
0.2521764829588035
 50
238.7343625957306017
 51
252.2860471791831003
  0
ARC
  5
D18B
  8
0
 10
96.0135685470862228
 20
157.8365365962692124
 30
0.0
 40
0.8795473372444652
 50
251.9493931053933125
 51
260.4691138147586003
  0
ARC
  5
D18C
  8
0
 10
327.2344543131824821
 20
149.1849359608079055
 30
0.0
 40
231.7277941431356112
 50
177.9019833754699107
 51
178.0432247933946996
  0
ARC
  5
D18D
  8
0
 10
96.2222169137240542
 20
157.0042967710224104
 30
0.0
 40
0.0059122820040975
 50
352.8356477983022046
 51
34.6494278571464207
  0
ARC
  5
D18E
  8
0
 10
96.1943314691616536
 20
156.9822839902386988
 30
0.0
 40
0.0414289644571169
 50
37.7687216354946784
 51
62.3612584041682965
  0
ARC
  5
D18F
  8
0
 10
96.1112430049672781
 20
156.8346896828400077
 30
0.0
 40
0.2107882901241653
 50
60.9642634166913098
 51
73.8997895182102837
  0
ARC
  5
D190
  8
0
 10
96.1044435780159318
 20
156.8339836959615923
 30
0.0
 40
0.2134462805886074
 50
72.19849825101862
 51
86.5089751808777834
  0
ARC
  5
D191
  8
0
 10
96.1145780256778579
 20
156.985476027101214
 30
0.0
 40
0.0616243984515349
 50
87.3373651619692453
 51
98.0948835769342367
  0
ARC
  5
D192
  8
0
 10
96.1010637221038166
 20
157.0402077743912059
 30
0.0
 40
0.00444040467579
 50
124.7280410966853026
 51
176.827334904176297
  0
ARC
  5
D193
  8
0
 10
96.108193564119091
 20
157.0284278762410111
 30
0.0
 40
0.0182035397151761
 50
97.2365981554915351
 51
122.0484603671278023
  0
ARC
  5
D194
  8
0
 10
132.6020512514666905
 20
155.7944450218157044
 30
0.0
 40
36.5266794130585382
 50
178.0451307704474004
 51
178.1260465055559905
  0
ARC
  5
D195
  8
0
 10
-709.1538059345671172
 20
305.3053209598792819
 30
0.0
 40
818.9220961472930185
 50
349.5644745413475221
 51
349.5665196009517217
  0
ARC
  5
D196
  8
0
 10
96.115649062873544
 20
156.9879094537506035
 30
0.0
 40
0.0207657328530027
 50
177.2723343104761113
 51
213.8656953076529987
  0
ARC
  5
D197
  8
0
 10
96.2016956570905535
 20
156.9788451451377966
 30
0.0
 40
0.0214754539461004
 50
299.8871981066703256
 51
349.178131089503097
  0
ARC
  5
D198
  8
0
 10
96.1947133201335447
 20
156.9930423044692134
 30
0.0
 40
0.037277737235332
 50
273.6423404624709974
 51
298.3183165110086748
  0
ARC
  5
D199
  8
0
 10
96.1200381240799828
 20
156.9912754094247873
 30
0.0
 40
0.0262881630980634
 50
214.6266175112845076
 51
243.4308763878885884
  0
ARC
  5
D19A
  8
0
 10
96.1826598800088135
 20
157.1243232149597873
 30
0.0
 40
0.1690994439983573
 50
265.8084827783700916
 51
274.8924051937348167
  0
ARC
  5
D19B
  8
0
 10
96.1473438379604204
 20
157.0536520389968018
 30
0.0
 40
0.0943548618822135
 50
245.5430446559371092
 51
260.1572127597374902
  0
ARC
  5
D19C
  8
0
 10
96.1883241850839283
 20
157.2512642179412978
 30
0.0
 40
0.2961371631323513
 50
258.8808819259264737
 51
266.510635153792407
  0
ARC
  5
D19D
  8
0
 10
96.1503203471183809
 20
156.9034348739292
 30
0.0
 40
0.0638759833434979
 50
65.850743477455282
 51
101.7327630152122993
  0
ARC
  5
D19E
  8
0
 10
96.1638338729472508
 20
157.0276624557754133
 30
0.0
 40
0.0671384294068492
 50
246.7499573707100922
 51
280.8335491219430082
  0
ARC
  5
D19F
  8
0
 10
96.0768319295675468
 20
156.9715664681502858
 30
0.0
 40
0.0059122820040975
 50
352.8356477983022046
 51
34.6494278571464207
  0
ARC
  5
D1A0
  8
0
 10
96.0489464850051036
 20
156.9495536873666026
 30
0.0
 40
0.0414289644571169
 50
37.7687216354946784
 51
62.3612584041682965
  0
ARC
  5
D1A1
  8
0
 10
95.9658580208107423
 20
156.8019593799679114
 30
0.0
 40
0.2107882901241653
 50
60.9642634166913098
 51
73.8997895182102837
  0
ARC
  5
D1A2
  8
0
 10
95.9590585938593961
 20
156.8012533930894961
 30
0.0
 40
0.2134462805886074
 50
72.19849825101862
 51
86.5089751808777834
  0
ARC
  5
D1A3
  8
0
 10
95.9691930415213221
 20
156.9527457242290893
 30
0.0
 40
0.0616243984515349
 50
87.3373651619692453
 51
98.0948835769342367
  0
ARC
  5
D1A4
  8
0
 10
95.9556787379472951
 20
157.0074774715191097
 30
0.0
 40
0.00444040467579
 50
124.7280410966853026
 51
176.827334904176297
  0
ARC
  5
D1A5
  8
0
 10
95.9628085799625268
 20
156.9956975733688864
 30
0.0
 40
0.0182035397151761
 50
97.2365981554915351
 51
122.0484603671278023
  0
ARC
  5
D1A6
  8
0
 10
132.4566662673101973
 20
155.7617147189436082
 30
0.0
 40
36.5266794130585382
 50
178.0451307704474004
 51
178.1260465055559905
  0
ARC
  5
D1A7
  8
0
 10
-709.2991909187236388
 20
305.2725906570071857
 30
0.0
 40
818.9220961472930185
 50
349.5644745413475221
 51
349.5665196009517217
  0
ARC
  5
D1A8
  8
0
 10
95.970264078716994
 20
156.9551791508785072
 30
0.0
 40
0.0207657328530027
 50
177.2723343104761113
 51
213.8656953076529987
  0
ARC
  5
D1A9
  8
0
 10
96.0563106729340035
 20
156.9461148422657004
 30
0.0
 40
0.0214754539461004
 50
299.8871981066703256
 51
349.178131089503097
  0
ARC
  5
D1AA
  8
0
 10
96.0493283359769947
 20
156.9603120015970887
 30
0.0
 40
0.037277737235332
 50
273.6423404624709974
 51
298.3183165110086748
  0
ARC
  5
D1AB
  8
0
 10
95.974653139923447
 20
156.9585451065528048
 30
0.0
 40
0.0262881630980634
 50
214.6266175112845076
 51
243.4308763878885884
  0
ARC
  5
D1AC
  8
0
 10
96.0372748958523061
 20
157.091592912087691
 30
0.0
 40
0.1690994439983573
 50
265.8084827783700916
 51
274.8924051937348167
  0
ARC
  5
D1AD
  8
0
 10
96.0019588538038846
 20
157.0209217361247056
 30
0.0
 40
0.0943548618822135
 50
245.5430446559371092
 51
260.1572127597374902
  0
ARC
  5
D1AE
  8
0
 10
96.0429392009274068
 20
157.2185339150692016
 30
0.0
 40
0.2961371631323513
 50
258.8808819259264737
 51
266.510635153792407
  0
ARC
  5
D1AF
  8
0
 10
96.0049353629618594
 20
156.8707045710571037
 30
0.0
 40
0.0638759833434979
 50
65.850743477455282
 51
101.7327630152122993
  0
ARC
  5
D1B0
  8
0
 10
96.018448888790715
 20
156.9949321529032886
 30
0.0
 40
0.0671384294068492
 50
246.7499573707100922
 51
280.8335491219430082
  0
ARC
  5
D1B1
  8
0
 10
96.4533585341671937
 20
157.0323520679351077
 30
0.0
 40
0.0059122820040975
 50
352.8356477983022046
 51
34.6494278571464207
  0
ARC
  5
D1B2
  8
0
 10
96.4254730896047789
 20
157.0103392871513961
 30
0.0
 40
0.0414289644571169
 50
37.7687216354946784
 51
62.3612584041682965
  0
ARC
  5
D1B3
  8
0
 10
96.3423846254104035
 20
156.8627449797525912
 30
0.0
 40
0.2107882901241653
 50
60.9642634166913098
 51
73.8997895182102837
  0
ARC
  5
D1B4
  8
0
 10
96.335585198459043
 20
156.8620389928742043
 30
0.0
 40
0.2134462805886074
 50
72.19849825101862
 51
86.5089751808777834
  0
ARC
  5
D1B5
  8
0
 10
96.3457196461209833
 20
157.0135313240139112
 30
0.0
 40
0.0616243984515349
 50
87.3373651619692453
 51
98.0948835769342367
  0
ARC
  5
D1B6
  8
0
 10
96.3322053425469704
 20
157.0682630713037895
 30
0.0
 40
0.00444040467579
 50
124.7280410966853026
 51
176.827334904176297
  0
ARC
  5
D1B7
  8
0
 10
96.3393351845622021
 20
157.0564831731537083
 30
0.0
 40
0.0182035397151761
 50
97.2365981554915351
 51
122.0484603671278023
  0
ARC
  5
D1B8
  8
0
 10
132.8331928719098016
 20
155.8225003187284017
 30
0.0
 40
36.5266794130585382
 50
178.0451307704474004
 51
178.1260465055559905
  0
ARC
  5
D1B9
  8
0
 10
-708.9226643141239492
 20
305.3333762567918939
 30
0.0
 40
818.9220961472930185
 50
349.5644745413475221
 51
349.5665196009517217
  0
ARC
  5
D1BA
  8
0
 10
96.3467906833166694
 20
157.0159647506633007
 30
0.0
 40
0.0207657328530027
 50
177.2723343104761113
 51
213.8656953076529987
  0
ARC
  5
D1BB
  8
0
 10
96.4328372775336646
 20
157.0069004420504939
 30
0.0
 40
0.0214754539461004
 50
299.8871981066703256
 51
349.178131089503097
  0
ARC
  5
D1BC
  8
0
 10
96.4258549405766843
 20
157.0210976013817969
 30
0.0
 40
0.037277737235332
 50
273.6423404624709974
 51
298.3183165110086748
  0
ARC
  5
D1BD
  8
0
 10
96.3511797445231082
 20
157.019330706337513
 30
0.0
 40
0.0262881630980634
 50
214.6266175112845076
 51
243.4308763878885884
  0
ARC
  5
D1BE
  8
0
 10
96.4138015004519531
 20
157.1523785118725129
 30
0.0
 40
0.1690994439983573
 50
265.8084827783700916
 51
274.8924051937348167
  0
ARC
  5
D1BF
  8
0
 10
96.3784854584035457
 20
157.0817073359094138
 30
0.0
 40
0.0943548618822135
 50
245.5430446559371092
 51
260.1572127597374902
  0
ARC
  5
D1C0
  8
0
 10
96.4194658055270679
 20
157.2793195148539951
 30
0.0
 40
0.2961371631323513
 50
258.8808819259264737
 51
266.510635153792407
  0
ARC
  5
D1C1
  8
0
 10
96.3814619675615347
 20
156.9314901708418972
 30
0.0
 40
0.0638759833434979
 50
65.850743477455282
 51
101.7327630152122993
  0
ARC
  5
D1C2
  8
0
 10
96.394975493390362
 20
157.0557177526881105
 30
0.0
 40
0.0671384294068492
 50
246.7499573707100922
 51
280.8335491219430082
  0
ARC
  5
D1C3
  8
0
 10
96.6218504950775241
 20
156.9460704267324047
 30
0.0
 40
0.0059122820040975
 50
352.8356477983022046
 51
34.6494278571464207
  0
ARC
  5
D1C4
  8
0
 10
96.5939650505150951
 20
156.9240576459486931
 30
0.0
 40
0.0414289644571169
 50
37.7687216354946784
 51
62.3612584041682965
  0
ARC
  5
D1C5
  8
0
 10
96.5108765863207338
 20
156.7764633385498882
 30
0.0
 40
0.2107882901241653
 50
60.9642634166913098
 51
73.8997895182102837
  0
ARC
  5
D1C6
  8
0
 10
96.5040771593693876
 20
156.7757573516715013
 30
0.0
 40
0.2134462805886074
 50
72.19849825101862
 51
86.5089751808777834
  0
ARC
  5
D1C7
  8
0
 10
96.5142116070313278
 20
156.9272496828112082
 30
0.0
 40
0.0616243984515349
 50
87.3373651619692453
 51
98.0948835769342367
  0
ARC
  5
D1C8
  8
0
 10
96.5006973034572866
 20
156.9819814301012002
 30
0.0
 40
0.00444040467579
 50
124.7280410966853026
 51
176.827334904176297
  0
ARC
  5
D1C9
  8
0
 10
96.5078271454725467
 20
156.9702015319510053
 30
0.0
 40
0.0182035397151761
 50
97.2365981554915351
 51
122.0484603671278023
  0
ARC
  5
D1CA
  8
0
 10
133.0016848328201888
 20
155.7362186775256987
 30
0.0
 40
36.5266794130585382
 50
178.0451307704474004
 51
178.1260465055559905
  0
ARC
  5
D1CB
  8
0
 10
-708.7541723532136757
 20
305.2470946155892761
 30
0.0
 40
818.9220961472930185
 50
349.5644745413475221
 51
349.5665196009517217
  0
ARC
  5
D1CC
  8
0
 10
96.515282644227014
 20
156.9296831094605977
 30
0.0
 40
0.0207657328530027
 50
177.2723343104761113
 51
213.8656953076529987
  0
ARC
  5
D1CD
  8
0
 10
96.601329238443995
 20
156.9206188008477909
 30
0.0
 40
0.0214754539461004
 50
299.8871981066703256
 51
349.178131089503097
  0
ARC
  5
D1CE
  8
0
 10
96.5943469014870004
 20
156.934815960179094
 30
0.0
 40
0.037277737235332
 50
273.6423404624709974
 51
298.3183165110086748
  0
ARC
  5
D1CF
  8
0
 10
96.5196717054334243
 20
156.93304906513481
 30
0.0
 40
0.0262881630980634
 50
214.6266175112845076
 51
243.4308763878885884
  0
ARC
  5
D1D0
  8
0
 10
96.5822934613622834
 20
157.06609687066981
 30
0.0
 40
0.1690994439983573
 50
265.8084827783700916
 51
274.8924051937348167
  0
ARC
  5
D1D1
  8
0
 10
96.5469774193138761
 20
156.9954256947067961
 30
0.0
 40
0.0943548618822135
 50
245.5430446559371092
 51
260.1572127597374902
  0
ARC
  5
D1D2
  8
0
 10
96.5879577664373983
 20
157.1930378736512921
 30
0.0
 40
0.2961371631323513
 50
258.8808819259264737
 51
266.510635153792407
  0
ARC
  5
D1D3
  8
0
 10
96.5499539284718509
 20
156.8452085296391942
 30
0.0
 40
0.0638759833434979
 50
65.850743477455282
 51
101.7327630152122993
  0
ARC
  5
D1D4
  8
0
 10
96.5634674543007065
 20
156.9694361114854075
 30
0.0
 40
0.0671384294068492
 50
246.7499573707100922
 51
280.8335491219430082
  0
ARC
  5
D1D5
  8
0
 10
96.4286635131808936
 20
156.9227138896735028
 30
0.0
 40
0.0059122820040975
 50
352.8356477983022046
 51
34.6494278571464207
  0
ARC
  5
D1D6
  8
0
 10
96.4007780686184788
 20
156.9007011088897912
 30
0.0
 40
0.0414289644571169
 50
37.7687216354946784
 51
62.3612584041682965
  0
ARC
  5
D1D7
  8
0
 10
96.3176896044241033
 20
156.7531068014911
 30
0.0
 40
0.2107882901241653
 50
60.9642634166913098
 51
73.8997895182102837
  0
ARC
  5
D1D8
  8
0
 10
96.310890177472757
 20
156.752400814612713
 30
0.0
 40
0.2134462805886074
 50
72.19849825101862
 51
86.5089751808777834
  0
ARC
  5
D1D9
  8
0
 10
96.3210246251346973
 20
156.9038931457523063
 30
0.0
 40
0.0616243984515349
 50
87.3373651619692453
 51
98.0948835769342367
  0
ARC
  5
D1DA
  8
0
 10
96.3075103215606561
 20
156.9586248930422983
 30
0.0
 40
0.00444040467579
 50
124.7280410966853026
 51
176.827334904176297
  0
ARC
  5
D1DB
  8
0
 10
96.314640163575902
 20
156.9468449948921034
 30
0.0
 40
0.0182035397151761
 50
97.2365981554915351
 51
122.0484603671278023
  0
ARC
  5
D1DC
  8
0
 10
132.8084978509234872
 20
155.7128621404667967
 30
0.0
 40
36.5266794130585382
 50
178.0451307704474004
 51
178.1260465055559905
  0
ARC
  5
D1DD
  8
0
 10
-708.9473593351101499
 20
305.2237380785304026
 30
0.0
 40
818.9220961472930185
 50
349.5644745413475221
 51
349.5665196009517217
  0
ARC
  5
D1DE
  8
0
 10
96.322095662330355
 20
156.9063265724016958
 30
0.0
 40
0.0207657328530027
 50
177.2723343104761113
 51
213.8656953076529987
  0
ARC
  5
D1DF
  8
0
 10
96.4081422565473645
 20
156.897262263788889
 30
0.0
 40
0.0214754539461004
 50
299.8871981066703256
 51
349.178131089503097
  0
ARC
  5
D1E0
  8
0
 10
96.4011599195903699
 20
156.9114594231203057
 30
0.0
 40
0.037277737235332
 50
273.6423404624709974
 51
298.3183165110086748
  0
ARC
  5
D1E1
  8
0
 10
96.326484723536808
 20
156.9096925280759933
 30
0.0
 40
0.0262881630980634
 50
214.6266175112845076
 51
243.4308763878885884
  0
ARC
  5
D1E2
  8
0
 10
96.3891064794656529
 20
157.042740333610908
 30
0.0
 40
0.1690994439983573
 50
265.8084827783700916
 51
274.8924051937348167
  0
ARC
  5
D1E3
  8
0
 10
96.3537904374172456
 20
156.9720691576478941
 30
0.0
 40
0.0943548618822135
 50
245.5430446559371092
 51
260.1572127597374902
  0
ARC
  5
D1E4
  8
0
 10
96.3947707845407535
 20
157.1696813365925038
 30
0.0
 40
0.2961371631323513
 50
258.8808819259264737
 51
266.510635153792407
  0
ARC
  5
D1E5
  8
0
 10
96.3567669465752203
 20
156.821851992580406
 30
0.0
 40
0.0638759833434979
 50
65.850743477455282
 51
101.7327630152122993
  0
ARC
  5
D1E6
  8
0
 10
96.3702804724040618
 20
156.9460795744265056
 30
0.0
 40
0.0671384294068492
 50
246.7499573707100922
 51
280.8335491219430082
  0
ARC
  5
D1E7
  8
0
 10
95.9060989161802837
 20
156.9758219390286058
 30
0.0
 40
0.0018731518593856
 50
94.8304590580838465
 51
207.8284718102086117
  0
ARC
  5
D1E8
  8
0
 10
95.8788656398013188
 20
156.7485751621055954
 30
0.0
 40
0.2307075598258364
 50
72.0639465132149013
 51
83.26030908977053
  0
ARC
  5
D1E9
  8
0
 10
96.6389751090904525
 20
156.9119606941906113
 30
0.0
 40
0.7372283531175938
 50
175.0988275385905126
 51
179.1081304222983022
  0
ARC
  5
D1EA
  8
0
 10
-709.3468767216398874
 20
305.2398592627591256
 30
0.0
 40
818.9220961472930185
 50
349.5644745413475221
 51
349.5654150145230119
  0
ARC
  5
D1EB
  8
0
 10
95.9225782758006744
 20
156.922447756630504
 30
0.0
 40
0.0207657328530027
 50
177.2723343104761113
 51
213.8656953076529987
  0
ARC
  5
D1EC
  8
0
 10
96.0086248700176839
 20
156.9133834480176972
 30
0.0
 40
0.0214754539461004
 50
299.8871981066703256
 51
349.178131089503097
  0
ARC
  5
D1ED
  8
0
 10
96.0016425330606751
 20
156.9275806073490003
 30
0.0
 40
0.037277737235332
 50
273.6423404624709974
 51
298.3183165110086748
  0
ARC
  5
D1EE
  8
0
 10
95.926967337007099
 20
156.9258137123048016
 30
0.0
 40
0.0262881630980634
 50
214.6266175112845076
 51
243.4308763878885884
  0
ARC
  5
D1EF
  8
0
 10
95.9895890929359581
 20
157.0588615178396878
 30
0.0
 40
0.1690994439983573
 50
265.8084827783700916
 51
274.8924051937348167
  0
ARC
  5
D1F0
  8
0
 10
95.9542730508875508
 20
156.9881903418765887
 30
0.0
 40
0.0943548618822135
 50
245.5430446559371092
 51
260.1572127597374902
  0
ARC
  5
D1F1
  8
0
 10
95.9952533980110729
 20
157.1858025208211984
 30
0.0
 40
0.2961371631323513
 50
258.8808819259264737
 51
266.510635153792407
  0
ARC
  5
D1F2
  8
0
 10
95.9509347569737798
 20
156.7957237338484902
 30
0.0
 40
0.1039457484718448
 50
72.0544767518526328
 51
93.8826994403092243
  0
ARC
  5
D1F3
  8
0
 10
95.9786551789077862
 20
157.0204697498735129
 30
0.0
 40
0.1259308980793492
 50
253.9773988496770016
 51
271.9597773424777074
  0
ARC
  5
D1F4
  8
0
 10
96.7515534130869952
 20
157.054153654547008
 30
0.0
 40
0.0059122820040975
 50
352.8356477983022046
 51
34.6494278571464207
  0
ARC
  5
D1F5
  8
0
 10
96.7236679685245804
 20
157.0321408737632964
 30
0.0
 40
0.0414289644571169
 50
37.7687216354946784
 51
62.3612584041682965
  0
ARC
  5
D1F6
  8
0
 10
96.6405795043302049
 20
156.8845465663646053
 30
0.0
 40
0.2107882901241653
 50
60.9642634166913098
 51
73.8997895182102837
  0
ARC
  5
D1F7
  8
0
 10
96.6337800773788587
 20
156.8838405794861899
 30
0.0
 40
0.2134462805886074
 50
72.19849825101862
 51
86.5089751808777834
  0
ARC
  5
D1F8
  8
0
 10
96.6439145250407989
 20
157.0353329106258968
 30
0.0
 40
0.0616243984515349
 50
87.3373651619692453
 51
98.0948835769342367
  0
ARC
  5
D1F9
  8
0
 10
96.6304002214667577
 20
157.0900646579158035
 30
0.0
 40
0.00444040467579
 50
124.7280410966853026
 51
176.827334904176297
  0
ARC
  5
D1FA
  8
0
 10
96.6375300634820036
 20
157.0782847597656087
 30
0.0
 40
0.0182035397151761
 50
97.2365981554915351
 51
122.0484603671278023
  0
ARC
  5
D1FB
  8
0
 10
133.1313877508295889
 20
155.8443019053403873
 30
0.0
 40
36.5266794130585382
 50
178.0451307704474004
 51
178.1260465055559905
  0
ARC
  5
D1FC
  8
0
 10
-708.6244694352042188
 20
305.3551778434039079
 30
0.0
 40
818.9220961472930185
 50
349.5644745413475221
 51
349.5665196009517217
  0
ARC
  5
D1FD
  8
0
 10
96.6449855622364851
 20
157.0377663372752863
 30
0.0
 40
0.0207657328530027
 50
177.2723343104761113
 51
213.8656953076529987
  0
ARC
  5
D1FE
  8
0
 10
96.7310321564534803
 20
157.0287020286625079
 30
0.0
 40
0.0214754539461004
 50
299.8871981066703256
 51
349.178131089503097
  0
ARC
  5
D1FF
  8
0
 10
96.7240498194964715
 20
157.042899187993811
 30
0.0
 40
0.037277737235332
 50
273.6423404624709974
 51
298.3183165110086748
  0
ARC
  5
D200
  8
0
 10
96.6493746234428954
 20
157.0411322929494986
 30
0.0
 40
0.0262881630980634
 50
214.6266175112845076
 51
243.4308763878885884
  0
ARC
  5
D201
  8
0
 10
96.7119963793717545
 20
157.1741800984844133
 30
0.0
 40
0.1690994439983573
 50
265.8084827783700916
 51
274.8924051937348167
  0
ARC
  5
D202
  8
0
 10
96.6766803373233472
 20
157.1035089225213994
 30
0.0
 40
0.0943548618822135
 50
245.5430446559371092
 51
260.1572127597374902
  0
ARC
  5
D203
  8
0
 10
96.7176606844468836
 20
157.3011211014660091
 30
0.0
 40
0.2961371631323513
 50
258.8808819259264737
 51
266.510635153792407
  0
ARC
  5
D204
  8
0
 10
96.679656846481322
 20
156.9532917574539113
 30
0.0
 40
0.0638759833434979
 50
65.850743477455282
 51
101.7327630152122993
  0
ARC
  5
D205
  8
0
 10
96.6931703723101634
 20
157.0775193393000109
 30
0.0
 40
0.0671384294068492
 50
246.7499573707100922
 51
280.8335491219430082
  0
ARC
  5
D206
  8
0
 10
96.8709380810869902
 20
156.9641468114469944
 30
0.0
 40
0.0059122820040975
 50
352.8356477983022046
 51
34.6494278571464207
  0
ARC
  5
D207
  8
0
 10
96.8430526365245754
 20
156.9421340306633113
 30
0.0
 40
0.0414289644571169
 50
37.7687216354946784
 51
62.3612584041682965
  0
ARC
  5
D208
  8
0
 10
96.7599641723302142
 20
156.7945397232645917
 30
0.0
 40
0.2107882901241653
 50
60.9642634166913098
 51
73.8997895182102837
  0
ARC
  5
D209
  8
0
 10
96.7531647453788537
 20
156.7938337363862047
 30
0.0
 40
0.2134462805886074
 50
72.19849825101862
 51
86.5089751808777834
  0
ARC
  5
D20A
  8
0
 10
96.763299193040794
 20
156.945326067525798
 30
0.0
 40
0.0616243984515349
 50
87.3373651619692453
 51
98.0948835769342367
  0
ARC
  5
D20B
  8
0
 10
96.7497848894667669
 20
157.0000578148157899
 30
0.0
 40
0.00444040467579
 50
124.7280410966853026
 51
176.827334904176297
  0
ARC
  5
D20C
  8
0
 10
96.7569147314820128
 20
156.9882779166657087
 30
0.0
 40
0.0182035397151761
 50
97.2365981554915351
 51
122.0484603671278023
  0
ARC
  5
D20D
  8
0
 10
133.2507724188295981
 20
155.7542950622402884
 30
0.0
 40
36.5266794130585382
 50
178.0451307704474004
 51
178.1260465055559905
  0
ARC
  5
D20E
  8
0
 10
-708.5050847672041527
 20
305.2651710003038943
 30
0.0
 40
818.9220961472930185
 50
349.5644745413475221
 51
349.5665196009517217
  0
ARC
  5
D20F
  8
0
 10
96.7643702302364659
 20
156.9477594941751875
 30
0.0
 40
0.0207657328530027
 50
177.2723343104761113
 51
213.8656953076529987
  0
ARC
  5
D210
  8
0
 10
96.8504168244534753
 20
156.9386951855624943
 30
0.0
 40
0.0214754539461004
 50
299.8871981066703256
 51
349.178131089503097
  0
ARC
  5
D211
  8
0
 10
96.8434344874964665
 20
156.9528923448937974
 30
0.0
 40
0.037277737235332
 50
273.6423404624709974
 51
298.3183165110086748
  0
ARC
  5
D212
  8
0
 10
96.7687592914429047
 20
156.9511254498495134
 30
0.0
 40
0.0262881630980634
 50
214.6266175112845076
 51
243.4308763878885884
  0
ARC
  5
D213
  8
0
 10
96.8313810473717353
 20
157.0841732553843997
 30
0.0
 40
0.1690994439983573
 50
265.8084827783700916
 51
274.8924051937348167
  0
ARC
  5
D214
  8
0
 10
96.7960650053233707
 20
157.0135020794213858
 30
0.0
 40
0.0943548618822135
 50
245.5430446559371092
 51
260.1572127597374902
  0
ARC
  5
D215
  8
0
 10
96.8370453524468644
 20
157.2111142583659955
 30
0.0
 40
0.2961371631323513
 50
258.8808819259264737
 51
266.510635153792407
  0
ARC
  5
D216
  8
0
 10
96.799041514481317
 20
156.8632849143538976
 30
0.0
 40
0.0638759833434979
 50
65.850743477455282
 51
101.7327630152122993
  0
ARC
  5
D217
  8
0
 10
96.8125550403101585
 20
156.9875124962001109
 30
0.0
 40
0.0671384294068492
 50
246.7499573707100922
 51
280.8335491219430082
  0
ARC
  5
D218
  8
0
 10
96.7887180455480234
 20
156.8710461508362073
 30
0.0
 40
0.0059122820040975
 50
352.8356477983022046
 51
34.6494278571464207
  0
ARC
  5
D219
  8
0
 10
96.7608326009856086
 20
156.8490333700526094
 30
0.0
 40
0.0414289644571169
 50
37.7687216354946784
 51
62.3612584041682965
  0
ARC
  5
D21A
  8
0
 10
96.6777441367912331
 20
156.7014390626538045
 30
0.0
 40
0.2107882901241653
 50
60.9642634166913098
 51
73.8997895182102837
  0
ARC
  5
D21B
  8
0
 10
96.6709447098399011
 20
156.7007330757753891
 30
0.0
 40
0.2134462805886074
 50
72.19849825101862
 51
86.5089751808777834
  0
ARC
  5
D21C
  8
0
 10
96.6810791575018129
 20
156.8522254069150961
 30
0.0
 40
0.0616243984515349
 50
87.3373651619692453
 51
98.0948835769342367
  0
ARC
  5
D21D
  8
0
 10
96.6675648539277859
 20
156.906957154205088
 30
0.0
 40
0.00444040467579
 50
124.7280410966853026
 51
176.827334904176297
  0
ARC
  5
D21E
  8
0
 10
96.6746946959430318
 20
156.8951772560548932
 30
0.0
 40
0.0182035397151761
 50
97.2365981554915351
 51
122.0484603671278023
  0
ARC
  5
D21F
  8
0
 10
133.1685523832906881
 20
155.6611944016295865
 30
0.0
 40
36.5266794130585382
 50
178.0451307704474004
 51
178.1260465055559905
  0
ARC
  5
D220
  8
0
 10
-708.5873048027431196
 20
305.1720703396931071
 30
0.0
 40
818.9220961472930185
 50
349.5644745413475221
 51
349.5665196009517217
  0
ARC
  5
D221
  8
0
 10
96.682150194697499
 20
156.854658833564514
 30
0.0
 40
0.0207657328530027
 50
177.2723343104761113
 51
213.8656953076529987
  0
ARC
  5
D222
  8
0
 10
96.7681967889144943
 20
156.8455945249517072
 30
0.0
 40
0.0214754539461004
 50
299.8871981066703256
 51
349.178131089503097
  0
ARC
  5
D223
  8
0
 10
96.7612144519574997
 20
156.8597916842830955
 30
0.0
 40
0.037277737235332
 50
273.6423404624709974
 51
298.3183165110086748
  0
ARC
  5
D224
  8
0
 10
96.6865392559039378
 20
156.8580247892386978
 30
0.0
 40
0.0262881630980634
 50
214.6266175112845076
 51
243.4308763878885884
  0
ARC
  5
D225
  8
0
 10
96.7491610118327827
 20
156.9910725947736978
 30
0.0
 40
0.1690994439983573
 50
265.8084827783700916
 51
274.8924051937348167
  0
ARC
  5
D226
  8
0
 10
96.7138449697843754
 20
156.9204014188105987
 30
0.0
 40
0.0943548618822135
 50
245.5430446559371092
 51
260.1572127597374902
  0
ARC
  5
D227
  8
0
 10
96.7548253169078833
 20
157.1180135977552084
 30
0.0
 40
0.2961371631323513
 50
258.8808819259264737
 51
266.510635153792407
  0
ARC
  5
D228
  8
0
 10
96.7168214789423644
 20
156.7701842537431105
 30
0.0
 40
0.0638759833434979
 50
65.850743477455282
 51
101.7327630152122993
  0
ARC
  5
D229
  8
0
 10
96.7303350047711916
 20
156.8944118355892954
 30
0.0
 40
0.0671384294068492
 50
246.7499573707100922
 51
280.8335491219430082
  0
ARC
  5
D22A
  8
0
 10
96.2793340688679393
 20
156.8738616992210098
 30
0.0
 40
0.0414289644571169
 50
57.8073897173510716
 51
62.3612584041682965
  0
ARC
  5
D22B
  8
0
 10
96.1962456046735639
 20
156.7262673918222049
 30
0.0
 40
0.2107882901241653
 50
60.9642634166913098
 51
73.8997895182102837
  0
ARC
  5
D22C
  8
0
 10
96.1894461777222034
 20
156.7255614049437895
 30
0.0
 40
0.2134462805886074
 50
72.19849825101862
 51
86.5089751808777834
  0
ARC
  5
D22D
  8
0
 10
96.1995806253841437
 20
156.8770537360834965
 30
0.0
 40
0.0616243984515349
 50
87.3373651619692453
 51
98.0948835769342367
  0
ARC
  5
D22E
  8
0
 10
96.1860663218101308
 20
156.9317854833734884
 30
0.0
 40
0.00444040467579
 50
124.7280410966853026
 51
176.827334904176297
  0
ARC
  5
D22F
  8
0
 10
96.1931961638253625
 20
156.9200055852232936
 30
0.0
 40
0.0182035397151761
 50
97.2365981554915351
 51
122.0484603671278023
  0
ARC
  5
D230
  8
0
 10
132.6870538511730047
 20
155.6860227307979869
 30
0.0
 40
36.5266794130585382
 50
178.0451307704474004
 51
178.1260465055559905
  0
ARC
  5
D231
  8
0
 10
-709.0688033348608315
 20
305.1968986688614791
 30
0.0
 40
818.9220961472930185
 50
349.5644745413475221
 51
349.5660060086062231
  0
ARC
  5
D232
  8
0
 10
96.2006516625798298
 20
156.879487162732886
 30
0.0
 40
0.0207657328530027
 50
177.2723343104761113
 51
213.8656953076529987
  0
ARC
  5
D233
  8
0
 10
96.286698256796825
 20
156.8704228541201076
 30
0.0
 40
0.0214754539461004
 50
299.8871981066703256
 51
349.178131089503097
  0
ARC
  5
D234
  8
0
 10
96.2797159198398447
 20
156.8846200134514106
 30
0.0
 40
0.037277737235332
 50
273.6423404624709974
 51
298.3183165110086748
  0
ARC
  5
D235
  8
0
 10
96.2050407237862686
 20
156.8828531184070982
 30
0.0
 40
0.0262881630980634
 50
214.6266175112845076
 51
243.4308763878885884
  0
ARC
  5
D236
  8
0
 10
96.2676624797151135
 20
157.0159009239420129
 30
0.0
 40
0.1690994439983573
 50
265.8084827783700916
 51
274.8924051937348167
  0
ARC
  5
D237
  8
0
 10
96.2323464376667204
 20
156.9452297479789991
 30
0.0
 40
0.0943548618822135
 50
245.5430446559371092
 51
260.1572127597374902
  0
ARC
  5
D238
  8
0
 10
96.2733267847902283
 20
157.1428419269236088
 30
0.0
 40
0.2961371631323513
 50
258.8808819259264737
 51
266.510635153792407
  0
ARC
  5
D239
  8
0
 10
96.2353229468246951
 20
156.7950125829115109
 30
0.0
 40
0.0638759833434979
 50
65.850743477455282
 51
101.7327630152122993
  0
ARC
  5
D23A
  8
0
 10
96.2488364726535224
 20
156.9192401647576958
 30
0.0
 40
0.0671384294068492
 50
246.7499573707100922
 51
280.8335491219430082
  0
ARC
  5
D23B
  8
0
 10
95.9715916303427719
 20
156.887437040239405
 30
0.0
 40
0.0206743934363724
 50
178.1402078775103064
 51
257.0831404933439899
  0
ARC
  5
D23C
  8
0
 10
96.0728502093032546
 20
157.3596533627292047
 30
0.0
 40
0.5036232750373905
 50
257.8637791898801765
 51
268.1564099073573857
  0
ARC
  5
D23D
  8
0
 10
96.0581301480344507
 20
156.8772638751206898
 30
0.0
 40
0.0210254003637075
 50
265.9578524455289994
 51
347.7482434095729218
  0
LINE
  5
D23E
  8
0
 10
95.9511508925858152
 20
156.8929677749264044
 30
0.0
 11
95.950928127415736
 21
156.8881080027915971
 31
0.0
  0
LINE
  5
D23F
  8
0
 10
96.0786799411092147
 20
156.8728231667041086
 30
0.0
 11
96.0841689234908642
 21
156.9005573191710994
 31
0.0
  0
LINE
  5
D240
  8
0
 10
96.096278222555128
 20
156.8969750217023034
 30
0.0
 11
96.0948801269565536
 21
156.855104479602403
 31
0.0
  0
LINE
  5
D241
  8
0
 10
96.1392166416157465
 20
156.9037758838915977
 30
0.0
 11
96.1392166416157465
 21
156.8498914802923139
 31
0.0
  0
LINE
  5
D242
  8
0
 10
96.2686967533424109
 20
156.8468046429698859
 30
0.0
 11
96.2676591114157532
 21
156.8398263217916053
 31
0.0
  0
ARC
  5
D243
  8
0
 10
95.993266883922999
 20
156.7012377698077898
 30
0.0
 40
0.1634994333591797
 50
76.233652517309153
 51
90.0601041095691954
  0
ARC
  5
D244
  8
0
 10
96.0320927831615734
 20
157.0242936877349962
 30
0.0
 40
0.1642531541762813
 50
256.265529532835501
 51
270.0282270940414833
  0
ARC
  5
D245
  8
0
 10
96.1151322653721394
 20
156.8546945633819121
 30
0.0
 40
0.0202564518563971
 50
178.8532297974456924
 51
260.1065072208677975
  0
ARC
  5
D246
  8
0
 10
96.1603865955579664
 20
156.8501932138684083
 30
0.0
 40
0.0211721041246853
 50
180.8165766448867089
 51
255.2361116458887125
  0
ARC
  5
D247
  8
0
 10
96.2132145322858747
 20
157.0625132652500895
 30
0.0
 40
0.2399637601423433
 50
255.9579486119658895
 51
262.0971389260453748
  0
ARC
  5
D248
  8
0
 10
96.2600050312874629
 20
157.7313458117635037
 30
0.0
 40
0.9087969048327174
 50
260.6049177388425733
 51
263.946040231796303
  0
ARC
  5
D249
  8
0
 10
96.1351032791079092
 20
156.6920585962836867
 30
0.0
 40
0.1401742855436706
 50
83.6070843412953053
 51
89.089367936648344
  0
ARC
  5
D24A
  8
0
 10
96.1851209998131367
 20
157.1112323758686955
 30
0.0
 40
0.2830803351436782
 50
260.2807141035256109
 51
263.8400955418663898
  0
ARC
  5
D24B
  8
0
 10
96.2470341563294056
 20
156.8432947077683934
 30
0.0
 40
0.0209042566772415
 50
284.8781210298695896
 51
350.5864080803551133
  0
ARC
  5
D24C
  8
0
 10
96.2398283063174915
 20
157.3232443440963948
 30
0.0
 40
0.5019674820692152
 50
263.1801807521104024
 51
269.4736123666112917
  0
ARC
  5
D24D
  8
0
 10
96.236772486815596
 20
156.8896283229979076
 30
0.0
 40
0.0683479862802035
 50
268.6956763667640757
 51
283.2187739051963717
  0
ARC
  5
D24E
  8
0
 10
96.1937704967696163
 20
156.7229460650094097
 30
0.0
 40
0.1060561508897978
 50
74.7710173088749883
 51
96.159937384434798
  0
ARC
  5
D24F
  8
0
 10
96.2104519882874882
 20
156.9327294614309949
 30
0.0
 40
0.1080312918207949
 50
254.9447786820041983
 51
275.9385190453245968
  0
LINE
  5
D250
  8
0
 10
96.1798379671337358
 20
156.8249870364143987
 30
0.0
 11
96.1798379671337358
 21
156.8206120280985942
 31
0.0
  0
LINE
  5
D251
  8
0
 10
96.3093180788604144
 20
156.8175251907761947
 30
0.0
 11
96.3082804369337282
 21
156.8105468695979141
 31
0.0
  0
ARC
  5
D252
  8
0
 10
96.2010079210759415
 20
156.8209137616746034
 30
0.0
 40
0.0211721041246853
 50
180.8165766448867089
 51
255.2361116458887125
  0
ARC
  5
D253
  8
0
 10
96.2876554818473949
 20
156.8140152555747022
 30
0.0
 40
0.0209042566772415
 50
284.8781210298695896
 51
350.5864080803551133
  0
ARC
  5
D254
  8
0
 10
96.2804496318354808
 20
157.2939648919027036
 30
0.0
 40
0.5019674820692152
 50
263.1801807521104024
 51
269.4736123666112917
  0
ARC
  5
D255
  8
0
 10
96.2773938123335711
 20
156.8603488708041027
 30
0.0
 40
0.0683479862802035
 50
268.6956763667640757
 51
283.2187739051963717
  0
ARC
  5
D256
  8
0
 10
96.2343918222875914
 20
156.6936666128156901
 30
0.0
 40
0.1060561508897978
 50
74.7710173088749883
 51
96.159937384434798
  0
ARC
  5
D257
  8
0
 10
96.2510733138054633
 20
156.90345000923719
 30
0.0
 40
0.1080312918207949
 50
254.9447786820041983
 51
275.9385190453245968
  0
ARC
  5
D258
  8
0
 10
96.226402707208365
 20
156.8917393646472931
 30
0.0
 40
0.0963508601595808
 50
251.3634771415052001
 51
266.6916103965218099
  0
LINE
  5
D259
  8
0
 10
96.3093180788604144
 20
156.8175251907761947
 30
0.0
 11
96.3132180849157464
 21
156.8400393783915945
 31
0.0
  0
LINE
  5
D25A
  8
0
 10
96.3132180849157464
 20
156.8400393783915945
 30
0.0
 11
96.2870213159499855
 21
156.8480651111665054
 31
0.0
  0
LINE
  5
D25B
  8
0
 10
96.2992603303806902
 20
156.7966280350449892
 30
0.0
 11
96.2992603303806902
 21
156.7933658741930003
 31
0.0
  0
ARC
  5
D25C
  8
0
 10
96.3204302843228959
 20
156.7936676077690947
 30
0.0
 40
0.0211721041246853
 50
180.8165766448867089
 51
255.2361116458887125
  0
ARC
  5
D25D
  8
0
 10
96.3998719950824352
 20
157.2667187379971097
 30
0.0
 40
0.5019674820692152
 50
263.1801807521104024
 51
269.4736123666112917
  0
ARC
  5
D25E
  8
0
 10
96.3968161755805255
 20
156.8331027168985941
 30
0.0
 40
0.0683479862802035
 50
268.6956763667640757
 51
279.9662113548275215
  0
ARC
  5
D25F
  8
0
 10
96.3538141855345458
 20
156.6664204589100962
 30
0.0
 40
0.1060561508897978
 50
74.7710173088749883
 51
96.159937384434798
  0
ARC
  5
D260
  8
0
 10
96.3704956770524319
 20
156.8762038553315961
 30
0.0
 40
0.1080312918207949
 50
254.9447786820041983
 51
275.9385190453245968
  0
ARC
  5
D261
  8
0
 10
96.3458250704553194
 20
156.8644932107416992
 30
0.0
 40
0.0963508601595808
 50
251.3634771415052001
 51
266.6916103965218099
  0
ARC
  5
D262
  8
0
 10
96.4292036360249512
 20
156.8135523349554887
 30
0.0
 40
0.0206016576109858
 50
181.0870379965517998
 51
227.6893219921161915
  0
ARC
  5
D263
  8
0
 10
-18111.5735123375998228
 20
-105.1333292806136939
 30
0.0
 40
18209.8662481167302758
 50
0.8242205530271515
 51
0.8243878427522094
  0
ARC
  5
D264
  8
0
 10
121.1911793236893971
 20
157.1598853512240908
 30
0.0
 40
24.7856676847319193
 50
180.7854695063672068
 51
180.9110577733248988
  0
LINE
  5
D265
  8
0
 10
96.4078406165157418
 20
156.820108327891603
 30
0.0
 11
96.4085022649863532
 21
156.8203499649303012
 31
0.0
  0
LINE
  5
D266
  8
0
 10
96.5375894990157377
 20
156.7591345558915918
 30
0.0
 11
96.5420601527157345
 21
156.7926272142915991
 31
0.0
  0
LINE
  5
D267
  8
0
 10
96.5420483133157603
 20
156.8388228605915913
 30
0.0
 11
96.5375860588562205
 21
156.8054943329323976
 31
0.0
  0
ARC
  5
D268
  8
0
 10
96.5127328475801249
 20
156.8161557806122062
 30
0.0
 40
0.0295746272859048
 50
276.4308413127305926
 51
303.9033030244547149
  0
ARC
  5
D269
  8
0
 10
96.5172444934794669
 20
156.8082797908039936
 30
0.0
 40
0.0205313951809146
 50
305.7136013796139196
 51
352.1977692707512233
  0
ARC
  5
D26A
  8
0
 10
96.4376639196144652
 20
156.8263853911379044
 30
0.0
 40
0.0358660142425799
 50
231.4975960312617076
 51
261.4258206223403818
  0
ARC
  5
D26B
  8
0
 10
96.4677466906783394
 20
156.9623197420241922
 30
0.0
 40
0.1750230852441091
 50
258.3208707713026229
 51
263.2114580162995026
  0
ARC
  5
D26C
  8
0
 10
96.4902472780057963
 20
157.1291749733800032
 30
0.0
 40
0.3433782060223752
 50
262.7743411040008255
 51
274.3086980035478746
  0
ARC
  5
D26D
  8
0
 10
96.5253039387437752
 20
156.7587970635923114
 30
0.0
 40
0.0377524807531111
 50
63.6505948597110631
 51
77.5526441716175015
  0
ARC
  5
D26E
  8
0
 10
96.4098337723469996
 20
156.8661359459954099
 30
0.0
 40
0.0020018476524904
 50
115.8919195587564985
 51
174.5950295559979963
  0
ARC
  5
D26F
  8
0
 10
96.4145549051771269
 20
156.8565538258903871
 30
0.0
 40
0.0126838650398625
 50
96.3743115164563449
 51
116.176284239196093
  0
ARC
  5
D270
  8
0
 10
96.4217948658599795
 20
156.7840124919698042
 30
0.0
 40
0.0855848451833692
 50
84.5804874078156246
 51
95.7995145191211748
  0
ARC
  5
D271
  8
0
 10
96.4136816550095546
 20
156.6264942220552996
 30
0.0
 40
0.2432603247950968
 50
81.9849735878348724
 51
86.1823755815503461
  0
ARC
  5
D272
  8
0
 10
96.3818007620138104
 20
156.4039560146202064
 30
0.0
 40
0.4680702297567732
 50
75.7682226698914292
 51
81.9188314445660239
  0
ARC
  5
D273
  8
0
 10
96.4487670483984658
 20
156.6509321817520117
 30
0.0
 40
0.2122520668033929
 50
65.8723516713514812
 51
76.9002104662686605
  0
ARC
  5
D274
  8
0
 10
96.5393030407354757
 20
156.8388051069701987
 30
0.0
 40
0.0027451796544249
 50
0.3726872067438389
 51
47.4191264892295905
  0
ARC
  5
D275
  8
0
 10
96.5260263607273856
 20
156.824550549524588
 30
0.0
 40
0.0222249261850437
 50
47.0817662031612301
 51
64.6852849795989613
  0
ARC
  5
D276
  8
0
 10
96.4678188860425649
 20
156.7205193412401911
 30
0.0
 40
0.0725902397637113
 50
74.0723553355639268
 51
99.1264964229273744
  0
ARC
  5
D277
  8
0
 10
96.4763256966457448
 20
156.8636810216434867
 30
0.0
 40
0.0742408523376532
 50
254.3552428293481
 51
278.843608929140089
  0
ARC
  5
D278
  8
0
 10
96.4286699878754234
 20
156.7670850975833048
 30
0.0
 40
0.0200670929226091
 50
183.7114993553423119
 51
217.9665227290520022
  0
ARC
  5
D279
  8
0
 10
96.4312082630856224
 20
156.7697485130667019
 30
0.0
 40
0.0237128381670457
 50
219.2670723272842963
 51
259.981823608042987
  0
ARC
  5
D27A
  8
0
 10
96.4976254426264859
 20
157.1683584680710908
 30
0.0
 40
0.4278171296781445
 50
260.5092218180458872
 51
272.3351674479849862
  0
ARC
  5
D27B
  8
0
 10
96.5177577469072219
 20
156.7617867778216123
 30
0.0
 40
0.020008315092973
 50
315.2943291855922894
 51
352.3826819676302193
  0
ARC
  5
D27C
  8
0
 10
96.514759808799198
 20
156.7660492225662949
 30
0.0
 40
0.02515436823327
 50
270.6766860654838069
 51
313.1971721512387035
  0
ARC
  5
D27D
  8
0
 10
96.4659465139195049
 20
156.6431530027562928
 30
0.0
 40
0.1030625083760931
 50
77.791663072060004
 51
95.3677317698279268
  0
ARC
  5
D27E
  8
0
 10
96.4781162322953634
 20
156.8467738900187953
 30
0.0
 40
0.103338302368334
 50
257.8153018960016993
 51
275.3440929458844835
  0
ARC
  5
D27F
  8
0
 10
96.6135389770053905
 20
157.7994326452931944
 30
0.0
 40
1.0548604813785769
 50
265.5637099143751811
 51
268.1761825209266021
  0
ARC
  5
D280
  8
0
 10
96.6002545440385063
 20
156.7653523589816871
 30
0.0
 40
0.0203881859223583
 50
268.4637056249802072
 51
351.6415647493976735
  0
ARC
  5
D281
  8
0
 10
96.5918160653987741
 20
157.0343127166248109
 30
0.0
 40
0.2894488213870702
 50
267.6537934304961937
 51
271.5623720594335282
  0
LINE
  5
D282
  8
0
 10
96.6204270421157361
 20
156.7623885748915882
 30
0.0
 11
96.6225600370641757
 21
156.7748252599741079
 31
0.0
  0
ARC
  5
D283
  8
0
 10
96.540684257008536
 20
156.4885956872757902
 30
0.0
 40
0.2604178571592079
 50
82.4824600359516751
 51
91.1524604691124836
  0
ARC
  5
D284
  8
0
 10
96.5697094648003826
 20
157.0106036931449864
 30
0.0
 40
0.2638767124490085
 50
262.5393890908330832
 51
271.0955314142212274
  0
ARC
  5
D285
  8
0
 10
96.6671905701233669
 20
156.7649702948451136
 30
0.0
 40
0.0206016576109858
 50
181.0870379965517998
 51
227.6893219921161915
  0
ARC
  5
D286
  8
0
 10
-18111.3355254035013786
 20
-105.1819113207240974
 30
0.0
 40
18209.8662481167302758
 50
0.8242205530271515
 51
0.8243878427522094
  0
LINE
  5
D287
  8
0
 10
96.7800352474141334
 20
156.7902408204811877
 30
0.0
 11
96.7755729929546078
 21
156.756912292821994
 31
0.0
  0
ARC
  5
D288
  8
0
 10
96.7507197816784839
 20
156.7675737405018026
 30
0.0
 40
0.0295746272859048
 50
276.4308413127305926
 51
303.9033030244547149
  0
ARC
  5
D289
  8
0
 10
96.7552314275778542
 20
156.75969775069359
 30
0.0
 40
0.0205313951809146
 50
305.7136013796139196
 51
352.1977692707512233
  0
ARC
  5
D28A
  8
0
 10
96.6756508537128667
 20
156.7778033510275009
 30
0.0
 40
0.0358660142425799
 50
231.4975960312611107
 51
261.4258206223403818
  0
ARC
  5
D28B
  8
0
 10
96.7057336247767267
 20
156.9137377019137034
 30
0.0
 40
0.1750230852441091
 50
258.3208707713026229
 51
263.2114580162995026
  0
ARC
  5
D28C
  8
0
 10
96.7282342121041978
 20
157.0805929332695996
 30
0.0
 40
0.3433782060223752
 50
262.7743411040008255
 51
274.3086980035478746
  0
ARC
  5
D28D
  8
0
 10
96.6478207064453869
 20
156.8175539058850063
 30
0.0
 40
0.0020018476524904
 50
115.8919195587564985
 51
174.5950295559979963
  0
ARC
  5
D28E
  8
0
 10
96.6525418392755142
 20
156.8079717857800119
 30
0.0
 40
0.0126838650398625
 50
96.3743115164563449
 51
116.176284239196093
  0
ARC
  5
D28F
  8
0
 10
96.6597817999583668
 20
156.7354304518594006
 30
0.0
 40
0.0855848451833692
 50
84.5804874078156246
 51
95.7995145191211748
  0
ARC
  5
D290
  8
0
 10
96.6516685891079419
 20
156.5779121819448108
 30
0.0
 40
0.2432603247950968
 50
81.9849735878348724
 51
86.1823755815503461
  0
ARC
  5
D291
  8
0
 10
96.6197876961121978
 20
156.3553739745098028
 30
0.0
 40
0.4680702297567732
 50
75.7682226698914292
 51
81.9188314445660239
  0
ARC
  5
D292
  8
0
 10
96.6867539824968532
 20
156.6023501416416082
 30
0.0
 40
0.2122520668033929
 50
65.8723516713514812
 51
76.9002104662686605
  0
ARC
  5
D293
  8
0
 10
96.7772899748338773
 20
156.7902230668599088
 30
0.0
 40
0.0027451796544249
 50
0.3726872067438389
 51
47.4191264892295905
  0
ARC
  5
D294
  8
0
 10
96.7640132948258014
 20
156.7759685094142128
 30
0.0
 40
0.0222249261850437
 50
47.0817662031612301
 51
64.6852849795989613
  0
ARC
  5
D295
  8
0
 10
96.7058058201409665
 20
156.6719373011297876
 30
0.0
 40
0.0725902397637113
 50
74.0723553355639268
 51
99.1264964229273744
  0
ARC
  5
D296
  8
0
 10
96.7143126307441321
 20
156.8150989815331116
 30
0.0
 40
0.0742408523376532
 50
254.3552428293481
 51
278.843608929140089
  0
ARC
  5
D297
  8
0
 10
96.666480996326527
 20
156.7300577314564975
 30
0.0
 40
0.0206016576109858
 50
181.0870379965517998
 51
227.6893219921161915
  0
ARC
  5
D298
  8
0
 10
-18111.3362349772905873
 20
-105.2168238841127987
 30
0.0
 40
18209.8662481167302758
 50
0.8242205530271515
 51
0.8243878427522094
  0
LINE
  5
D299
  8
0
 10
96.7793256736173078
 20
156.7553282570926001
 30
0.0
 11
96.7748634191578105
 21
156.7219997294334064
 31
0.0
  0
ARC
  5
D29A
  8
0
 10
96.7500102078816866
 20
156.7326611771131866
 30
0.0
 40
0.0295746272859048
 50
276.4308413127305926
 51
303.9033030244547149
  0
ARC
  5
D29B
  8
0
 10
96.754521853781057
 20
156.7247851873050024
 30
0.0
 40
0.0205313951809146
 50
305.7136013796139196
 51
352.1977692707512233
  0
ARC
  5
D29C
  8
0
 10
96.674941279916041
 20
156.7428907876389133
 30
0.0
 40
0.0358660142425799
 50
231.4975960312611107
 51
261.4258206223403818
  0
ARC
  5
D29D
  8
0
 10
96.7050240509799153
 20
156.8788251385250874
 30
0.0
 40
0.1750230852441091
 50
258.3208707713026229
 51
263.2114580162995026
  0
ARC
  5
D29E
  8
0
 10
96.7275246383073863
 20
157.0456803698808983
 30
0.0
 40
0.3433782060223752
 50
262.7743411040008255
 51
274.3086980035478746
  0
ARC
  5
D29F
  8
0
 10
96.6471111326485754
 20
156.7826413424963903
 30
0.0
 40
0.0020018476524904
 50
115.8919195587564985
 51
174.5950295559979963
  0
ARC
  5
D2A0
  8
0
 10
96.6518322654786886
 20
156.7730592223913106
 30
0.0
 40
0.0126838650398625
 50
115.827516813064193
 51
116.176284239196093
  0
ARC
  5
D2A1
  8
0
 10
96.7765804010370658
 20
156.7553105034712075
 30
0.0
 40
0.0027451796544249
 50
0.3726872067438389
 51
47.4191264892295905
  0
ARC
  5
D2A2
  8
0
 10
96.7633037210289615
 20
156.7410559460255115
 30
0.0
 40
0.0222249261850437
 50
47.0817662031612301
 51
55.4705776751131907
  0
ARC
  5
D2A3
  8
0
 10
96.7050962463441408
 20
156.6370247377411999
 30
0.0
 40
0.0725902397637113
 50
74.0723553355639268
 51
99.1264964229273744
  0
ARC
  5
D2A4
  8
0
 10
96.7136030569473348
 20
156.7801864181444103
 30
0.0
 40
0.0742408523376532
 50
254.3552428293481
 51
278.843608929140089
  0
ARC
  5
D2A5
  8
0
 10
96.8527385696958731
 20
156.6998184838242025
 30
0.0
 40
0.0206016576109858
 50
181.0870379965517998
 51
227.6893219921161915
  0
ARC
  5
D2A6
  8
0
 10
-18111.1499774039293698
 20
-105.2470631317449943
 30
0.0
 40
18209.8662481167302758
 50
0.8242205530271515
 51
0.8243878427522094
  0
ARC
  5
D2A7
  8
0
 10
96.9362677812510185
 20
156.7024219294808915
 30
0.0
 40
0.0295746272859048
 50
276.4308413127305926
 51
303.9033030244547149
  0
ARC
  5
D2A8
  8
0
 10
96.9407794271503747
 20
156.6945459396727927
 30
0.0
 40
0.0205313951809146
 50
305.7136013796139196
 51
345.3499008121664247
  0
ARC
  5
D2A9
  8
0
 10
96.8611988532853729
 20
156.7126515400067035
 30
0.0
 40
0.0358660142425799
 50
231.4975960312611107
 51
261.4258206223403818
  0
ARC
  5
D2AA
  8
0
 10
96.891281624349233
 20
156.8485858908927923
 30
0.0
 40
0.1750230852441091
 50
258.3208707713026229
 51
263.2114580162995026
  0
ARC
  5
D2AB
  8
0
 10
96.913782211676704
 20
157.0154411222486885
 30
0.0
 40
0.3433782060223752
 50
262.7743411040008255
 51
274.3086980035478746
  0
ARC
  5
D2AC
  8
0
 10
96.8333687060178931
 20
156.7524020948642089
 30
0.0
 40
0.0020018476524904
 50
115.8919195587564985
 51
174.5950295559979963
  0
ARC
  5
D2AD
  8
0
 10
96.8380898388480205
 20
156.7428199747591009
 30
0.0
 40
0.0126838650398625
 50
96.3743115164563449
 51
116.176284239196093
  0
ARC
  5
D2AE
  8
0
 10
96.8453297995308731
 20
156.6702786408384895
 30
0.0
 40
0.0855848451833692
 50
84.5804874078156246
 51
95.7995145191211748
  0
ARC
  5
D2AF
  8
0
 10
96.8372165886804339
 20
156.5127603709238997
 30
0.0
 40
0.2432603247950968
 50
83.5138363903416661
 51
86.1823755815503461
  0
ARC
  5
D2B0
  8
0
 10
96.8913538197134727
 20
156.6067854901089049
 30
0.0
 40
0.0725902397637113
 50
74.0723553355639268
 51
99.1264964229273744
  0
ARC
  5
D2B1
  8
0
 10
96.8998606303166667
 20
156.7499471705122005
 30
0.0
 40
0.0742408523376532
 50
254.3552428293481
 51
278.843608929140089
  0
ARC
  5
D2B2
  8
0
 10
96.8562643870107394
 20
156.7951480473992945
 30
0.0
 40
0.0206016576109858
 50
181.0870379965517998
 51
227.6893219921161915
  0
ARC
  5
D2B3
  8
0
 10
-18111.1464515866100555
 20
-105.1517335681699024
 30
0.0
 40
18209.8662481167302758
 50
0.8242205530271515
 51
0.8243878427522094
  0
LINE
  5
D2B4
  8
0
 10
96.9691090643015343
 20
156.820418573035397
 30
0.0
 11
96.9646468098420087
 21
156.7870900453762033
 31
0.0
  0
ARC
  5
D2B5
  8
0
 10
96.9397935985658847
 20
156.7977514930560119
 30
0.0
 40
0.0295746272859048
 50
276.4308413127305926
 51
303.9033030244547149
  0
ARC
  5
D2B6
  8
0
 10
96.9443052444652551
 20
156.7898755032477993
 30
0.0
 40
0.0205313951809146
 50
305.7136013796139196
 51
352.1977692707512233
  0
ARC
  5
D2B7
  8
0
 10
96.8647246706002534
 20
156.8079811035817102
 30
0.0
 40
0.0358660142425799
 50
231.4975960312611107
 51
261.4258206223403818
  0
ARC
  5
D2B8
  8
0
 10
96.8948074416641134
 20
156.943915454467998
 30
0.0
 40
0.1750230852441091
 50
258.3208707713026229
 51
263.2114580162995026
  0
ARC
  5
D2B9
  8
0
 10
96.9173080289915845
 20
157.1107706858238089
 30
0.0
 40
0.3433782060223752
 50
262.7743411040008255
 51
274.3086980035478746
  0
ARC
  5
D2BA
  8
0
 10
96.8368945233327736
 20
156.8477316584393009
 30
0.0
 40
0.0020018476524904
 50
115.8919195587564985
 51
174.5950295559979963
  0
ARC
  5
D2BB
  8
0
 10
96.8416156561628867
 20
156.8381495383341928
 30
0.0
 40
0.0126838650398625
 50
96.3743115164563449
 51
116.176284239196093
  0
ARC
  5
D2BC
  8
0
 10
96.8488556168457535
 20
156.7656082044136099
 30
0.0
 40
0.0855848451833692
 50
84.5804874078156246
 51
95.7995145191211748
  0
ARC
  5
D2BD
  8
0
 10
96.8407424059953286
 20
156.6080899344989916
 30
0.0
 40
0.2432603247950968
 50
81.9849735878348724
 51
86.1823755815503461
  0
ARC
  5
D2BE
  8
0
 10
96.8088615129995844
 20
156.3855517270640121
 30
0.0
 40
0.4680702297567732
 50
75.7682226698914292
 51
81.9188314445660239
  0
ARC
  5
D2BF
  8
0
 10
96.8758277993842256
 20
156.632527894195789
 30
0.0
 40
0.2122520668033929
 50
65.8723516713514812
 51
76.9002104662686605
  0
ARC
  5
D2C0
  8
0
 10
96.966363791721264
 20
156.8204008194140044
 30
0.0
 40
0.0027451796544249
 50
0.3726872067438389
 51
47.4191264892295905
  0
ARC
  5
D2C1
  8
0
 10
96.9530871117131738
 20
156.8061462619683084
 30
0.0
 40
0.0222249261850437
 50
47.0817662031612301
 51
64.6852849795989613
  0
ARC
  5
D2C2
  8
0
 10
96.8948796370283532
 20
156.7021150536839968
 30
0.0
 40
0.0725902397637113
 50
74.0723553355639268
 51
99.1264964229273744
  0
ARC
  5
D2C3
  8
0
 10
96.903386447631533
 20
156.8452767340872072
 30
0.0
 40
0.0742408523376532
 50
254.3552428293481
 51
278.843608929140089
  0
ARC
  5
D2C4
  8
0
 10
96.8886831705080169
 20
156.7144736825790119
 30
0.0
 40
0.0216849349825208
 50
184.5138154074286092
 51
262.4274400331873949
  0
ARC
  5
D2C5
  8
0
 10
96.9291166796476631
 20
156.9333022137801947
 30
0.0
 40
0.2441923799950021
 50
259.7884512040805021
 51
269.9169646188348111
  0
ARC
  5
D2C6
  8
0
 10
96.9426416844604972
 20
157.2046940050385047
 30
0.0
 40
0.5157706826026742
 50
268.4580389710350232
 51
271.9967327729361841
  0
ARC
  5
D2C7
  8
0
 10
96.9492636716277332
 20
156.9868038089450124
 30
0.0
 40
0.2977836519097545
 50
272.1841137514855973
 51
273.781130121338208
  0
ARC
  5
D2C8
  8
0
 10
96.9613936505069915
 20
156.8204466653500901
 30
0.0
 40
0.1309936137193383
 50
273.2855102996484788
 51
279.5899471358421806
  0
ARC
  5
D2C9
  8
0
 10
96.9834382234079868
 20
156.7124583494122021
 30
0.0
 40
0.020215438433811
 50
325.8000295091030125
 51
354.8946263902582814
  0
ARC
  5
D2CA
  8
0
 10
96.9805100251824967
 20
156.7154884570012996
 30
0.0
 40
0.0243556639968696
 50
276.3803624779654911
 51
323.7758941627417926
  0
ARC
  5
D2CB
  8
0
 10
96.8963526721424842
 20
156.3359099472762921
 30
0.0
 40
0.4249779738878102
 50
75.165642085668722
 51
94.3205130390705762
  0
ARC
  5
D2CC
  8
0
 10
94.9155359347397791
 20
156.6227862102298047
 30
0.0
 40
1.9536028712606599
 50
2.6399168871913359
 51
4.0181567461103391
  0
LINE
  5
D2CD
  8
0
 10
97.0035757604157567
 20
156.7107112980916099
 30
0.0
 11
97.0060967851157443
 21
156.739110237791607
 31
0.0
  0
ARC
  5
D2CE
  8
0
 10
96.9334525371176738
 20
156.5700471866682051
 30
0.0
 40
0.1257226943235257
 50
78.42650474181211
 51
100.0799635656454996
  0
ARC
  5
D2CF
  8
0
 10
96.9368225043539837
 20
156.8234222785708027
 30
0.0
 40
0.1320537689901128
 50
258.9216612922605805
 51
279.524248178680125
  0
ARC
  5
D2D0
  8
0
 10
97.0271460970668045
 20
156.7456840585514897
 30
0.0
 40
0.0216849349825208
 50
184.5138154074286092
 51
262.4274400331873949
  0
ARC
  5
D2D1
  8
0
 10
97.0675796062064506
 20
156.9645125897527009
 30
0.0
 40
0.2441923799950021
 50
259.7884512040805021
 51
269.9169646188348111
  0
ARC
  5
D2D2
  8
0
 10
97.0811046110192848
 20
157.2359043810110109
 30
0.0
 40
0.5157706826026742
 50
268.4580389710350232
 51
271.9967327729361841
  0
ARC
  5
D2D3
  8
0
 10
97.0877265981865207
 20
157.0180141849174902
 30
0.0
 40
0.2977836519097545
 50
272.1841137514855973
 51
273.781130121338208
  0
ARC
  5
D2D4
  8
0
 10
97.0998565770657791
 20
156.8516570413225963
 30
0.0
 40
0.1309936137193383
 50
273.2855102996484788
 51
279.5899471358421806
  0
ARC
  5
D2D5
  8
0
 10
97.1219011499667744
 20
156.7436687253847083
 30
0.0
 40
0.020215438433811
 50
325.8000295091030125
 51
354.8946263902582814
  0
ARC
  5
D2D6
  8
0
 10
97.1189729517412843
 20
156.7466988329738058
 30
0.0
 40
0.0243556639968696
 50
276.3803624779654911
 51
323.7758941627417926
  0
ARC
  5
D2D7
  8
0
 10
97.0528153725435203
 20
156.5499495811791917
 30
0.0
 40
0.2460775440515198
 50
68.0149188065668255
 51
101.7272034490496964
  0
ARC
  5
D2D8
  8
0
 10
95.0539988612985809
 20
156.6539965862023109
 30
0.0
 40
1.9536028712606599
 50
2.6399168871913359
 51
4.0181567461103391
  0
LINE
  5
D2D9
  8
0
 10
97.14203868697453
 20
156.7419216740640877
 30
0.0
 11
97.1449382313157344
 21
156.7781327018915931
 31
0.0
  0
ARC
  5
D2DA
  8
0
 10
97.0719154636764756
 20
156.6012575626407113
 30
0.0
 40
0.1257226943235257
 50
78.42650474181211
 51
100.0799635656454996
  0
ARC
  5
D2DB
  8
0
 10
97.0752854309127855
 20
156.8546326545433089
 30
0.0
 40
0.1320537689901128
 50
258.9216612922605805
 51
279.524248178680125
  0
ARC
  5
D2DC
  8
0
 10
97.0261793523060447
 20
156.6832860305150916
 30
0.0
 40
0.0216849349825208
 50
184.5138154074286092
 51
262.4274400331873949
  0
ARC
  5
D2DD
  8
0
 10
97.0666128614457051
 20
156.9021145617163029
 30
0.0
 40
0.2441923799950021
 50
259.7884512040805021
 51
269.9169646188348111
  0
ARC
  5
D2DE
  8
0
 10
97.080137866258525
 20
157.1735063529746128
 30
0.0
 40
0.5157706826026742
 50
268.4580389710350232
 51
271.9967327729361841
  0
ARC
  5
D2DF
  8
0
 10
97.0867598534257752
 20
156.9556161568810921
 30
0.0
 40
0.2977836519097545
 50
272.1841137514855973
 51
273.781130121338208
  0
ARC
  5
D2E0
  8
0
 10
97.0988898323050194
 20
156.7892590132861983
 30
0.0
 40
0.1309936137193383
 50
273.2855102996484788
 51
279.5899471358421806
  0
ARC
  5
D2E1
  8
0
 10
97.120934405206043
 20
156.6812706973483103
 30
0.0
 40
0.020215438433811
 50
325.8000295091030125
 51
354.8946263902582814
  0
ARC
  5
D2E2
  8
0
 10
97.1180062069805388
 20
156.6843008049374077
 30
0.0
 40
0.0243556639968696
 50
276.3803624779654911
 51
323.7758941627417926
  0
ARC
  5
D2E3
  8
0
 10
97.0333538352422238
 20
156.2441465450903024
 30
0.0
 40
0.4853706349223387
 50
93.3284486094199224
 51
93.3285489218277746
  0
ARC
  5
D2E4
  8
0
 10
95.0530321165378353
 20
156.5915985581659129
 30
0.0
 40
1.9536028712606599
 50
2.6399168871913359
 51
3.416759700914322
  0
LINE
  5
D2E5
  8
0
 10
97.1410719422137845
 20
156.6795236460276897
 30
0.0
 11
97.1442339562157429
 21
156.7166825246916062
 31
0.0
  0
ARC
  5
D2E6
  8
0
 10
97.0709487189157301
 20
156.5388595346043132
 30
0.0
 40
0.1257226943235257
 50
78.42650474181211
 51
100.0799635656454996
  0
ARC
  5
D2E7
  8
0
 10
97.0743186861520257
 20
156.7922346265067972
 30
0.0
 40
0.1320537689901128
 50
258.9216612922605805
 51
279.524248178680125
  0
ARC
  5
D2E8
  8
0
 10
97.0028441994838317
 20
156.4637253924286995
 30
0.0
 40
0.2631619845593403
 50
86.9106251869773843
 51
89.5280332055287857
  0
ARC
  5
D2E9
  8
0
 10
96.9730467004104213
 20
155.3292379412650064
 30
0.0
 40
1.3979655033762921
 50
82.9662163118726141
 51
84.5230749132957442
  0
ARC
  5
D2EA
  8
0
 10
97.2187971441427123
 20
156.5219507946746944
 30
0.0
 40
0.1398326005352084
 50
82.8130550199611264
 51
95.6859142530998383
  0
ARC
  5
D2EB
  8
0
 10
97.222253580530591
 20
156.7846279997332033
 30
0.0
 40
0.1247395241183454
 50
262.0231997313107968
 51
276.4613167581757125
  0
ARC
  5
D2EC
  8
0
 10
97.1771620068807351
 20
156.6813064110322102
 30
0.0
 40
0.0208505401650144
 50
184.6792892616417987
 51
265.7674307903433828
  0
ARC
  5
D2ED
  8
0
 10
97.264428805090148
 20
156.6804070784228031
 30
0.0
 40
0.0206951081188115
 50
273.9998929734042008
 51
354.6925741303334121
  0
ARC
  5
D2EE
  8
0
 10
97.2250058012172786
 20
157.1722741265832042
 30
0.0
 40
0.5141384717672397
 50
264.488280152829816
 51
274.5589961880472742
  0
LINE
  5
D2EF
  8
0
 10
97.154104188885313
 20
156.7149192461025962
 30
0.0
 11
97.1563809628157458
 21
156.6796054604915867
 31
0.0
  0
LINE
  5
D2F0
  8
0
 10
97.2850351874447341
 20
156.6784927884089029
 30
0.0
 11
97.2876096543929236
 21
156.7095475995805884
 31
0.0
  0
ARC
  5
D2F1
  8
0
 10
97.3268767986854755
 20
159.8848391094963972
 30
0.0
 40
3.1746247518463999
 50
266.6999799193483796
 51
266.8802503268356077
  0
ARC
  5
D2F2
  8
0
 10
97.4075263949152514
 20
161.3516665694777998
 30
0.0
 40
4.6436675758861714
 50
266.8716020788036758
 51
268.5202457149005113
  0
ARC
  5
D2F3
  8
0
 10
97.3951671865185205
 20
160.6317462301695969
 30
0.0
 40
3.9236731159094389
 50
268.4291849675508956
 51
270.1804767189748873
  0
ARC
  5
D2F4
  8
0
 10
95.5888330902951395
 20
155.4764089261998947
 30
0.0
 40
1.50783163279264
 50
70.8217144194013741
 51
72.9361861733978003
  0
ARC
  5
D2F5
  8
0
 10
97.4075263944818204
 20
161.3516665680232904
 30
0.0
 40
4.6436675743688882
 50
253.4422814418688858
 51
253.5980925401914874
  0
ARC
  5
D2F6
  8
0
 10
97.4075263948688104
 20
161.3516665693296943
 30
0.0
 40
4.6436675757313832
 50
253.5980925401626109
 51
254.1495892746937102
  0
ARC
  5
D2F7
  8
0
 10
96.1427519614306334
 20
156.7643151041507963
 30
0.0
 40
0.139505582584017
 50
74.2977747237239896
 51
91.4521325088907844
  0
ARC
  5
D2F8
  8
0
 10
97.1745696975504956
 20
160.3711250824055128
 30
0.0
 40
3.6358541754000462
 50
256.2926510257341874
 51
257.826755714604019
  0
ARC
  5
D2F9
  8
0
 10
97.3355330675398136
 20
160.9550240187288921
 30
0.0
 40
4.2405585005291524
 50
259.209676786019827
 51
260.3207954871966763
  0
ARC
  5
D2FA
  8
0
 10
96.6949578360266315
 20
157.1683006023729092
 30
0.0
 40
0.4000803498929486
 50
259.574425847810403
 51
262.867744816907873
  0
ARC
  5
D2FB
  8
0
 10
98.2519765675358911
 20
167.8058663191274889
 30
0.0
 40
11.1528311917978993
 50
262.4091842722896786
 51
262.682674089085026
  0
ARC
  5
D2FC
  8
0
 10
96.7478897843233341
 20
157.0678278335238076
 30
0.0
 40
0.3662971544277305
 50
266.2329200522424912
 51
273.0964154018255954
  0
ARC
  5
D2FD
  8
0
 10
96.7674443887842841
 20
156.7228375600903973
 30
0.0
 40
0.0207733952482896
 50
270.6383214493608875
 51
352.1451037334492185
  0
LINE
  5
D2FE
  8
0
 10
96.7879579323671351
 20
156.7201691052009096
 30
0.0
 11
96.7914304508157244
 21
156.7490833948916134
 31
0.0
  0
LINE
  5
D2FF
  8
0
 10
96.78935084560581
 20
156.7317673436243979
 30
0.0
 11
96.8317017740506714
 21
156.7299301709387009
 31
0.0
  0
LINE
  5
D300
  8
0
 10
96.7891038870250355
 20
156.7297110170559904
 30
0.0
 11
96.8317267759399556
 21
156.7281924784342095
 31
0.0
  0
ARC
  5
D301
  8
0
 10
96.7829030171605069
 20
156.2294742898419031
 30
0.0
 40
0.5015957395333347
 50
85.2500937059769086
 51
89.2735834045065388
  0
ARC
  5
D302
  8
0
 10
96.8212920433801827
 20
157.1988055227839993
 30
0.0
 40
0.4694686985689983
 50
266.0791937210486253
 51
270.3840017663534923
  0
ARC
  5
D303
  8
0
 10
96.979449644814494
 20
157.0894473939632121
 30
0.0
 40
0.0112347683927752
 50
151.2459716048902862
 51
181.5956885690096954
  0
ARC
  5
D304
  8
0
 10
96.9892524670540439
 20
157.0823276242336135
 30
0.0
 40
0.0233038317281969
 50
112.244466519102204
 51
147.4909041547809068
  0
ARC
  5
D305
  8
0
 10
97.0161795272324952
 20
157.0200081736012123
 30
0.0
 40
0.0911884943649218
 50
91.7766599739099007
 51
113.0810863905989976
  0
ARC
  5
D306
  8
0
 10
97.0225936909275219
 20
156.9470790721933042
 30
0.0
 40
0.1643338086463484
 50
84.2383529825177675
 51
93.2237369336565109
  0
ARC
  5
D307
  8
0
 10
97.0863886827747677
 20
157.0782674233954026
 30
0.0
 40
0.0161566616620419
 50
359.165579372818911
 51
56.4748131854626934
  0
ARC
  5
D308
  8
0
 10
97.0238062179661256
 20
156.9524368947610071
 30
0.0
 40
0.1588827336039897
 50
74.0175302316551011
 51
84.4794361117512125
  0
ARC
  5
D309
  8
0
 10
97.0482734602387609
 20
157.0299804782056867
 30
0.0
 40
0.0776299771557838
 50
52.7039545713669284
 51
75.6196181583514289
  0
ARC
  5
D30A
  8
0
 10
96.9924290350479623
 20
157.047025597988096
 30
0.0
 40
0.0224029542237933
 50
182.7032778636169041
 51
227.6397457628619065
  0
ARC
  5
D30B
  8
0
 10
97.0760871041709805
 20
157.0443784551441126
 30
0.0
 40
0.0226947204593448
 50
306.1954356403659858
 51
354.7542368644714088
  0
ARC
  5
D30C
  8
0
 10
97.0071562841423543
 20
157.0665625698688075
 30
0.0
 40
0.0468179671372134
 50
230.4329660414169041
 51
261.1422342158671768
  0
ARC
  5
D30D
  8
0
 10
97.0627009449979141
 20
157.0661374482330075
 30
0.0
 40
0.048202946700043
 50
276.0592373510517064
 51
303.761735209673077
  0
ARC
  5
D30E
  8
0
 10
97.0401165467608706
 20
157.2211925263306114
 30
0.0
 40
0.2048662820879234
 50
258.6924040529559079
 51
277.7630205327462818
  0
ARC
  5
D30F
  8
0
 10
97.0327707547479008
 20
156.9846970621971991
 30
0.0
 40
0.0457309482422066
 50
63.1513337399315233
 51
113.9843664351471944
  0
ARC
  5
D310
  8
0
 10
97.0350006517917194
 20
157.0738895962979029
 30
0.0
 40
0.0517798412711083
 50
246.2925589000030016
 51
290.8431412750688878
  0
LINE
  5
D311
  8
0
 10
96.9682183389157615
 20
157.0891345427916121
 30
0.0
 11
96.9700510113157463
 21
157.0459689940915951
 31
0.0
  0
LINE
  5
D312
  8
0
 10
97.1025436311157364
 20
157.0780321359916059
 30
0.0
 11
97.0986867721316429
 21
157.0423035226642128
 31
0.0
  0
ARC
  5
D313
  8
0
 10
97.0383238412610751
 20
156.9977831300909941
 30
0.0
 40
0.0094315171272492
 50
140.2320777723614071
 51
181.3430919564339945
  0
ARC
  5
D314
  8
0
 10
97.051623737501842
 20
156.9845267932743127
 30
0.0
 40
0.0281843960613103
 50
108.7713905392359948
 51
136.8113270150957987
  0
ARC
  5
D315
  8
0
 10
97.0777862402764669
 20
156.9096988443507996
 30
0.0
 40
0.1074533871915512
 50
91.7260032723553991
 51
109.1402784096970038
  0
ARC
  5
D316
  8
0
 10
97.0839258357705575
 20
156.8282320860332959
 30
0.0
 40
0.189103976758017
 50
85.1049486611737223
 51
92.841982056493606
  0
ARC
  5
D317
  8
0
 10
97.1484454416994936
 20
156.9871101506153082
 30
0.0
 40
0.015610731296275
 50
4.1663554261533999
 51
62.7742543883378019
  0
ARC
  5
D318
  8
0
 10
97.0854028900419763
 20
156.8370018511807018
 30
0.0
 40
0.1802416109449388
 50
76.1581018285626641
 51
85.3348854138144333
  0
ARC
  5
D319
  8
0
 10
97.1095132841036701
 20
156.9265664283134925
 30
0.0
 40
0.0875322225229829
 50
58.2397196857112789
 51
77.4558747685203883
  0
ARC
  5
D31A
  8
0
 10
97.0528227466747353
 20
156.9551216625403072
 30
0.0
 40
0.0213801960753922
 50
183.5374478540099119
 51
227.7745233736312969
  0
ARC
  5
D31B
  8
0
 10
97.1384421094260944
 20
156.9535716850944027
 30
0.0
 40
0.0219736413143731
 50
307.372051293866889
 51
353.6695554477345809
  0
ARC
  5
D31C
  8
0
 10
97.075169728286113
 20
157.0005465246532879
 30
0.0
 40
0.071417460752343
 50
239.062847786714002
 51
258.4891989347108847
  0
ARC
  5
D31D
  8
0
 10
97.0966326070809487
 20
157.0925951485845076
 30
0.0
 40
0.1659190611383106
 50
257.5696832735450812
 51
289.41295400942181
  0
LINE
  5
D31E
  8
0
 10
97.0288949153157319
 20
156.9975620625916974
 30
0.0
 11
97.0314832866157388
 21
156.9538024852915896
 31
0.0
  0
LINE
  5
D31F
  8
0
 10
97.1640149186937663
 20
156.9882443100966896
 30
0.0
 11
97.160281766615725
 21
156.9511488176916032
 31
0.0
  0
ARC
  5
D320
  8
0
 10
97.099520359327812
 20
156.920786336544694
 30
0.0
 40
0.0112347683927752
 50
151.2459716048902862
 51
181.5956885690096954
  0
ARC
  5
D321
  8
0
 10
97.1093231815673619
 20
156.9136665668150954
 30
0.0
 40
0.0233038317281969
 50
143.9815912294239126
 51
147.4909041547809068
  0
ARC
  5
D322
  8
0
 10
97.1491690552694536
 20
156.7765420841217008
 30
0.0
 40
0.1595590524822267
 50
86.272305477345256
 51
89.0909488286396254
  0
ARC
  5
D323
  8
0
 10
97.2147022883967935
 20
156.9113341899904981
 30
0.0
 40
0.0106564537312202
 50
348.1373888298227257
 51
65.4389434795996436
  0
ARC
  5
D324
  8
0
 10
97.1467242162950839
 20
156.7209308352935011
 30
0.0
 40
0.2152148078486042
 50
79.2603839807223665
 51
86.5853567784746474
  0
ARC
  5
D325
  8
0
 10
97.1728431874171577
 20
156.8409250367193977
 30
0.0
 40
0.0925141489616466
 50
59.9774588880671473
 51
81.3052146430069911
  0
ARC
  5
D326
  8
0
 10
97.1124997495612803
 20
156.8783645405694926
 30
0.0
 40
0.0224029542237933
 50
182.7032778636169041
 51
227.6397457628619065
  0
ARC
  5
D327
  8
0
 10
97.2002132134242913
 20
156.8737679803114133
 30
0.0
 40
0.0216325241197776
 50
299.8949938018300827
 51
354.2950120146192035
  0
ARC
  5
D328
  8
0
 10
97.1272269986556864
 20
156.8979015124502894
 30
0.0
 40
0.0468179671372134
 50
230.4329660414169041
 51
261.1422342158671768
  0
ARC
  5
D329
  8
0
 10
97.1630809228349932
 20
157.0777723565607005
 30
0.0
 40
0.2301942742003696
 50
259.2180035724422282
 51
276.1964242860981926
  0
LINE
  5
D32A
  8
0
 10
97.0882890534290652
 20
156.920473485373094
 30
0.0
 11
97.0901217258290643
 21
156.8773079366731054
 31
0.0
  0
LINE
  5
D32B
  8
0
 10
97.2251311558366922
 20
156.9091435896056055
 30
0.0
 11
97.2217385899157449
 21
156.8716175694916046
 31
0.0
  0
ARC
  5
D32C
  8
0
 10
97.1853561459273578
 20
156.9053876479929102
 30
0.0
 40
0.056523219227964
 50
272.6073730292059167
 51
296.9749427508489248
  0
ARC
  5
D32D
  8
0
 10
97.0946430957858837
 20
156.8831175149740034
 30
0.0
 40
0.0549171997224804
 50
68.1257477100960926
 51
109.8918519513276948
  0
ARC
  5
D32E
  8
0
 10
97.0966145596211732
 20
156.997065526646594
 30
0.0
 40
0.0656422986156257
 50
251.6580495087463873
 51
286.3595501526780254
  0
ARC
  5
D32F
  8
0
 10
97.1560610800224111
 20
156.8048023784438101
 30
0.0
 40
0.0523196054868349
 50
71.5702570580395872
 51
106.5979687231283037
  0
ARC
  5
D330
  8
0
 10
97.1576847937406853
 20
156.9063695074393081
 30
0.0
 40
0.0540307776477418
 50
252.1419825591266886
 51
286.0262434308792763
  0
ARC
  5
D331
  8
0
 10
97.2076804502705727
 20
156.6824122584833106
 30
0.0
 40
0.189103976758017
 50
85.1049486611737223
 51
85.7581937725838941
  0
ARC
  5
D332
  8
0
 10
97.2722000561994804
 20
156.8412903230652944
 30
0.0
 40
0.015610731296275
 50
4.1663554261533999
 51
62.7742543883378019
  0
ARC
  5
D333
  8
0
 10
97.2091575045419631
 20
156.691182023630688
 30
0.0
 40
0.1802416109449388
 50
76.1581018285626641
 51
85.3348854138144333
  0
ARC
  5
D334
  8
0
 10
97.2332678986036711
 20
156.7807466007635924
 30
0.0
 40
0.0875322225229829
 50
58.2397196857112789
 51
77.4558747685203883
  0
ARC
  5
D335
  8
0
 10
97.1765773611747363
 20
156.8093018349902934
 30
0.0
 40
0.0213801960753922
 50
183.5374478540099119
 51
227.7745233736312969
  0
ARC
  5
D336
  8
0
 10
97.2621967239260954
 20
156.8077518575443889
 30
0.0
 40
0.0219736413143731
 50
307.372051293866889
 51
353.6695554477345809
  0
ARC
  5
D337
  8
0
 10
97.198924342786114
 20
156.8547266971033025
 30
0.0
 40
0.071417460752343
 50
239.062847786714002
 51
258.4891989347108847
  0
ARC
  5
D338
  8
0
 10
97.2203872215809639
 20
156.9467753210344085
 30
0.0
 40
0.1659190611383106
 50
257.5696832735450812
 51
289.41295400942181
  0
LINE
  5
D339
  8
0
 10
97.1528824693471904
 20
156.8478041078369074
 30
0.0
 11
97.1552379011157541
 21
156.8079826577416895
 31
0.0
  0
LINE
  5
D33A
  8
0
 10
97.2877695331937531
 20
156.8424244825467042
 30
0.0
 11
97.2840363811157403
 21
156.8053289901415894
 31
0.0
  0
ARC
  5
D33B
  8
0
 10
97.2183977102858847
 20
156.7372976874239896
 30
0.0
 40
0.0549171997224804
 50
68.1257477100960926
 51
109.8918519513276948
  0
ARC
  5
D33C
  8
0
 10
97.2203691741211742
 20
156.8512456990966086
 30
0.0
 40
0.0656422986156257
 50
251.6580495087463873
 51
286.3595501526780254
  0
ARC
  5
D33D
  8
0
 10
97.3634770465327648
 20
154.6604216062536068
 30
0.0
 40
2.1098724666009319
 50
90.6872194756954855
 51
95.9876153983228733
  0
ARC
  5
D33E
  8
0
 10
97.3530623255117717
 20
157.0940750066131955
 30
0.0
 40
0.0112347683927752
 50
151.2459716048902862
 51
181.5956885690096954
  0
ARC
  5
D33F
  8
0
 10
97.3628651477513216
 20
157.0869552368835969
 30
0.0
 40
0.0233038317281969
 50
112.244466519102204
 51
147.4909041547809068
  0
ARC
  5
D340
  8
0
 10
97.3897922079297729
 20
157.0246357862511957
 30
0.0
 40
0.0911884943649218
 50
91.7766599739099007
 51
113.0810863905989976
  0
ARC
  5
D341
  8
0
 10
97.3962063716248139
 20
156.9517066848432023
 30
0.0
 40
0.1643338086463484
 50
84.2383529825177675
 51
93.2237369336565109
  0
ARC
  5
D342
  8
0
 10
97.4600013634720455
 20
157.082895036045386
 30
0.0
 40
0.0161566616620419
 50
359.165579372818911
 51
56.4748131854626934
  0
ARC
  5
D343
  8
0
 10
97.3974188986634033
 20
156.9570645074109905
 30
0.0
 40
0.1588827336039897
 50
74.0175302316551011
 51
84.4794361117512125
  0
ARC
  5
D344
  8
0
 10
97.4218861409360244
 20
157.0346080908556132
 30
0.0
 40
0.0776299771557838
 50
52.7039545713669284
 51
75.6196181583514289
  0
ARC
  5
D345
  8
0
 10
97.3660417157452258
 20
157.0516532106379941
 30
0.0
 40
0.0224029542237933
 50
182.7032778636169041
 51
227.6397457628619065
  0
ARC
  5
D346
  8
0
 10
97.4496997848682582
 20
157.0490060677940107
 30
0.0
 40
0.0226947204593448
 50
306.1954356403659858
 51
354.7542368644714088
  0
ARC
  5
D347
  8
0
 10
97.3807689648396462
 20
157.0711901825187908
 30
0.0
 40
0.0468179671372134
 50
230.4329660414169041
 51
261.1422342158671768
  0
ARC
  5
D348
  8
0
 10
97.436313625695206
 20
157.0707650608829908
 30
0.0
 40
0.048202946700043
 50
276.0592373510517064
 51
303.761735209673077
  0
ARC
  5
D349
  8
0
 10
97.4137292274581483
 20
157.2258201389805095
 30
0.0
 40
0.2048662820879234
 50
258.6924040529559079
 51
277.7630205327462818
  0
ARC
  5
D34A
  8
0
 10
97.4063834354451927
 20
156.9893246748470972
 30
0.0
 40
0.0457309482422066
 50
63.1513337399315233
 51
113.9843664351471944
  0
ARC
  5
D34B
  8
0
 10
97.4086133324890113
 20
157.078517208947801
 30
0.0
 40
0.0517798412711083
 50
246.2925589000030016
 51
290.8431412750688878
  0
LINE
  5
D34C
  8
0
 10
97.341831019613025
 20
157.0937621554415955
 30
0.0
 11
97.343663692013024
 21
157.0505966067416068
 31
0.0
  0
LINE
  5
D34D
  8
0
 10
97.4761563118130141
 20
157.0826597486415892
 30
0.0
 11
97.4722994528289206
 21
157.0469311353141961
 31
0.0
  0
ARC
  5
D34E
  8
0
 10
97.3530623255117717
 20
157.0009366719131947
 30
0.0
 40
0.0112347683927752
 50
151.2459716048902862
 51
181.5956885690096954
  0
ARC
  5
D34F
  8
0
 10
97.3628651477513216
 20
156.9938169021835961
 30
0.0
 40
0.0233038317281969
 50
112.244466519102204
 51
147.4909041547809068
  0
ARC
  5
D350
  8
0
 10
97.3897922079297729
 20
156.9314974515511949
 30
0.0
 40
0.0911884943649218
 50
91.7766599739099007
 51
113.0810863905989976
  0
ARC
  5
D351
  8
0
 10
97.3962063716248139
 20
156.8585683501432015
 30
0.0
 40
0.1643338086463484
 50
93.0969964829390761
 51
93.2237369336565109
  0
ARC
  5
D352
  8
0
 10
97.4600013634720455
 20
156.9897567013454136
 30
0.0
 40
0.0161566616620419
 50
359.165579372818911
 51
56.4748131854626934
  0
ARC
  5
D353
  8
0
 10
97.3974188986634033
 20
156.8639261727109897
 30
0.0
 40
0.1588827336039897
 50
74.0175302316551011
 51
81.5312873667761693
  0
ARC
  5
D354
  8
0
 10
97.4218861409360244
 20
156.9414697561556977
 30
0.0
 40
0.0776299771557838
 50
52.7039545713669284
 51
75.6196181583514289
  0
ARC
  5
D355
  8
0
 10
97.3660417157452258
 20
156.9585148759379933
 30
0.0
 40
0.0224029542237933
 50
182.7032778636169041
 51
227.6397457628619065
  0
ARC
  5
D356
  8
0
 10
97.4496997848682582
 20
156.95586773309401
 30
0.0
 40
0.0226947204593448
 50
306.1954356403659858
 51
354.7542368644714088
  0
ARC
  5
D357
  8
0
 10
97.3807689648396462
 20
156.9780518478187901
 30
0.0
 40
0.0468179671372134
 50
230.4329660414169041
 51
261.1422342158671768
  0
ARC
  5
D358
  8
0
 10
97.436313625695206
 20
156.9776267261829048
 30
0.0
 40
0.048202946700043
 50
276.0592373510517064
 51
303.761735209673077
  0
ARC
  5
D359
  8
0
 10
97.4137292274581483
 20
157.132681804280594
 30
0.0
 40
0.2048662820879234
 50
258.6924040529559079
 51
277.7630205327462818
  0
ARC
  5
D35A
  8
0
 10
97.4063834354451927
 20
156.8961863401470964
 30
0.0
 40
0.0457309482422066
 50
63.1513337399315233
 51
113.9843664351471944
  0
ARC
  5
D35B
  8
0
 10
97.4086133324890113
 20
156.9853788742478002
 30
0.0
 40
0.0517798412711083
 50
246.2925589000030016
 51
290.8431412750688878
  0
LINE
  5
D35C
  8
0
 10
97.341831019613025
 20
157.0006238207415947
 30
0.0
 11
97.343663692013024
 21
156.9574582720416061
 31
0.0
  0
LINE
  5
D35D
  8
0
 10
97.4761563118130141
 20
156.9895214139415884
 30
0.0
 11
97.4722994528289206
 21
156.9537928006141954
 31
0.0
  0
LINE
  5
D35E
  8
0
 10
97.1413717118232682
 20
156.6830464332574024
 30
0.0
 11
97.1496635158657114
 21
156.6829865164104945
 31
0.0
  0
LINE
  5
D35F
  8
0
 10
97.1496635158657114
 20
156.6829865164104945
 30
0.0
 11
97.1561660065150363
 21
156.6829395292006097
 31
0.0
  0
LINE
  5
D360
  8
0
 10
97.1411163345577364
 20
156.6800453292719055
 30
0.0
 11
97.1563643888717365
 21
156.6798625298027048
 31
0.0
  0
LINE
  5
D361
  8
0
 10
97.1412637264616308
 20
156.6817774271910082
 30
0.0
 11
97.1562320845344942
 21
156.6819146294587881
 31
0.0
  0
LINE
  5
D362
  8
0
 10
97.1563006764778265
 20
156.6808507376298962
 30
0.0
 11
97.1412370877630451
 21
156.6814643785554892
 31
0.0
  0
ARC
  5
D363
  8
0
 10
97.4108846810638624
 20
152.3877670721365121
 30
0.0
 40
5.6174412906404854
 50
80.3522669700803363
 51
90.0342532554202961
  0
ARC
  5
D364
  8
0
 10
97.3726645171290528
 20
152.1777080350647111
 30
0.0
 40
5.8309352598495163
 50
73.383541761024901
 51
80.3279394513861433
  0
ARC
  5
D365
  8
0
 10
99.0701359158577617
 20
157.6627858329241008
 30
0.0
 40
0.0813755153651671
 50
5.8365750861860271
 51
45.5376553872004735
  0
ARC
  5
D366
  8
0
 10
98.9458141562031557
 20
157.4428781799761907
 30
0.0
 40
0.3357774234436135
 50
63.4401108407917818
 51
73.6921322143425641
  0
ARC
  5
D367
  8
0
 10
99.0368769225633514
 20
157.627893077182307
 30
0.0
 40
0.1295767049675985
 50
45.848501243213839
 51
62.8769523461672009
  0
ARC
  5
D368
  8
0
 10
99.1199142493320693
 20
157.6595811094817066
 30
0.0
 40
0.0332218242354519
 50
20.2155742211148208
 51
60.0231114035955997
  0
ARC
  5
D369
  8
0
 10
99.0421981103998803
 20
157.5380100720988139
 30
0.0
 40
0.1774827551131753
 50
57.8994815684817183
 51
72.6173693216747012
  0
ARC
  5
D36A
  8
0
 10
98.7769333935633256
 20
156.6682395462233899
 30
0.0
 40
1.0868005311640769
 50
72.9703257090057349
 51
81.6465026492536623
  0
ARC
  5
D36B
  8
0
 10
98.1884993421244872
 20
152.7872743397421118
 30
0.0
 40
5.0121122945904544
 50
81.4365721207440743
 51
86.3673343373612568
  0
ARC
  5
D36C
  8
0
 10
97.4816238464447054
 20
142.4993831153146004
 30
0.0
 40
15.3242138487055595
 50
86.1668557275655047
 51
90.2770444102891361
  0
ARC
  5
D36D
  8
0
 10
99.1223335441873274
 20
157.0812212857163104
 30
0.0
 40
0.0554305604478173
 50
23.2425580057306895
 51
73.9732887733252937
  0
ARC
  5
D36E
  8
0
 10
98.78185234267103
 20
156.1537134473776121
 30
0.0
 40
1.04332163242988
 50
70.0614821401984216
 51
85.0609895487216363
  0
ARC
  5
D36F
  8
0
 10
97.8732444426929646
 20
148.9776993041419075
 30
0.0
 40
8.2759097027845172
 50
83.0707699593003639
 51
87.9642341797824372
  0
ARC
  5
D370
  8
0
 10
97.4495874335196532
 20
139.8746986695308863
 30
0.0
 40
17.388502330445931
 50
87.6346605921201416
 51
90.1385928652993442
  0
ARC
  5
D371
  8
0
 10
97.3894884579402742
 20
136.2553802758434927
 30
0.0
 40
20.9414556269777705
 50
88.3589848258052939
 51
89.9506786315693603
  0
ARC
  5
D372
  8
0
 10
97.8429588818521552
 20
149.6166996489596102
 30
0.0
 40
7.5729595879307272
 50
81.7207061268337753
 51
88.8935465015640887
  0
ARC
  5
D373
  8
0
 10
98.7929143484601298
 20
156.2884626754868123
 30
0.0
 40
0.8341942546607574
 50
72.9250685598866397
 51
80.3008961336061446
  0
ARC
  5
D374
  8
0
 10
98.9579729897622542
 20
156.8335942091343043
 30
0.0
 40
0.2646362123280926
 50
63.9152808096773768
 51
72.4315212560268264
  0
ARC
  5
D375
  8
0
 10
99.0537998364401204
 20
157.0518042417461118
 30
0.0
 40
0.021282396142547
 50
6.0376211166404996
 51
49.1721312935634103
  0
ARC
  5
D376
  8
0
 10
98.9874594937172247
 20
156.9621542340373139
 30
0.0
 40
0.1335207338620884
 50
59.1178153341987027
 51
68.2404009694702154
  0
ARC
  5
D377
  8
0
 10
99.0243745093094532
 20
157.0226125988359911
 30
0.0
 40
0.0626897141466991
 50
46.2642169015200082
 51
59.7115698032654834
  0
ARC
  5
D378
  8
0
 10
99.0125089102385942
 20
157.0591099596952915
 30
0.0
 40
0.0626604923165006
 50
338.6343286510651751
 51
355.3615620272286719
  0
ARC
  5
D379
  8
0
 10
99.0514167235590861
 20
157.0193542731956882
 30
0.0
 40
0.0567540994069568
 50
46.0266103580360593
 51
66.184699425185201
  0
ARC
  5
D37A
  8
0
 10
99.0398183729626425
 20
157.0908647606277952
 30
0.0
 40
0.0627927138504006
 50
299.6871203158235062
 51
315.4573422913485956
  0
ARC
  5
D37B
  8
0
 10
99.0704896828399342
 20
157.0615475295587942
 30
0.0
 40
0.0203775180104369
 50
313.7170080215605026
 51
356.202901642121617
  0
ARC
  5
D37C
  8
0
 10
99.0261079968224038
 20
157.0588528758331108
 30
0.0
 40
0.0501584822849318
 50
295.2924917665803264
 51
333.2978538106921746
  0
ARC
  5
D37D
  8
0
 10
98.7045359603431365
 20
157.6989562935330014
 30
0.0
 40
0.7664834391365219
 50
285.6267996397002094
 51
296.5834308071420082
  0
LINE
  5
D37E
  8
0
 10
99.0749652884148446
 20
157.0540427572238116
 30
0.0
 11
99.0743334396636897
 21
157.0712758671857898
 31
0.0
  0
ARC
  5
D37F
  8
0
 10
99.0899460364059337
 20
157.1058435551501873
 30
0.0
 40
0.083364765741386
 50
343.2588454828339195
 51
358.1109766682653799
  0
ARC
  5
D380
  8
0
 10
99.0844517053603937
 20
157.105087054977588
 30
0.0
 40
0.0884384125932429
 50
298.9258453809122784
 51
344.7536752329706928
  0
ARC
  5
D381
  8
0
 10
98.9960033357527465
 20
157.2430261081464948
 30
0.0
 40
0.2521764829588034
 50
287.8051072646974262
 51
301.3567918481497259
  0
ARC
  5
D382
  8
0
 10
98.7992499962131205
 20
157.8387525299648075
 30
0.0
 40
0.879547337244465
 50
279.6220406291212726
 51
288.1417613384862761
  0
ARC
  5
D383
  8
0
 10
198.4833661696507932
 20
161.2650225474442891
 30
0.0
 40
99.3972722558006154
 50
182.0721265042107859
 51
182.3997699454297106
  0
ARC
  5
D384
  8
0
 10
98.5919259410055133
 20
157.0061818099898119
 30
0.0
 40
0.0059122820040975
 50
145.4417265867338926
 51
187.2555066455776966
  0
ARC
  5
D385
  8
0
 10
98.6198463713899827
 20
156.9842134212591986
 30
0.0
 40
0.0414289644571169
 50
117.7298960397117042
 51
142.3224328083854004
  0
ARC
  5
D386
  8
0
 10
98.7031695447834352
 20
156.8367514897842057
 30
0.0
 40
0.2107882901241652
 50
106.1913649256700012
 51
119.1268910271886057
  0
ARC
  5
D387
  8
0
 10
98.7099700863156926
 20
156.8360563213101955
 30
0.0
 40
0.2134462805886073
 50
93.5821792630018763
 51
107.8926561928619066
  0
ARC
  5
D388
  8
0
 10
98.6995946355880704
 20
156.9875323373844083
 30
0.0
 40
0.0616243984515349
 50
81.9962708669458777
 51
92.7537892819110397
  0
ARC
  5
D389
  8
0
 10
98.7130218468865905
 20
157.0422855159154949
 30
0.0
 40
0.00444040467579
 50
3.2638195397032059
 51
55.3631133471949326
  0
ARC
  5
D38A
  8
0
 10
98.70591075505871
 20
157.0304942894904059
 30
0.0
 40
0.0182035397151761
 50
58.0426940767520634
 51
82.8545562883889914
  0
ARC
  5
D38B
  8
0
 10
62.2140624508606521
 20
155.7384532944770967
 30
0.0
 40
36.5266794130585311
 50
1.965107938322912
 51
2.0460236734324919
  0
ARC
  5
D38C
  8
0
 10
903.7309908441176276
 20
306.588326871949107
 30
0.0
 40
818.9220961472927911
 50
190.5246348429288048
 51
190.5266799025322939
  0
ARC
  5
D38D
  8
0
 10
98.6985197283010933
 20
156.9899640569935002
 30
0.0
 40
0.0207657328530027
 50
326.2254591362266183
 51
2.8188201334035421
  0
ARC
  5
D38E
  8
0
 10
98.6124876637925638
 20
156.9807628644960005
 30
0.0
 40
0.0214754539461004
 50
190.9130233543777138
 51
240.2039563372094904
  0
ARC
  5
D38F
  8
0
 10
98.6194474050204661
 20
156.9949711143707134
 30
0.0
 40
0.037277737235332
 50
241.7728379328715107
 51
266.4488139814095007
  0
ARC
  5
D390
  8
0
 10
98.6941253176005659
 20
156.9933230256552008
 30
0.0
 40
0.0262881630980634
 50
296.6602780559920234
 51
325.4645369325957063
  0
ARC
  5
D391
  8
0
 10
98.6312919692480961
 20
157.1262710350727048
 30
0.0
 40
0.1690994439983573
 50
265.1987492501453971
 51
274.2826716655101791
  0
ARC
  5
D392
  8
0
 10
98.6667204005210579
 20
157.0556561344108104
 30
0.0
 40
0.0943548618822135
 50
279.9339416841424963
 51
294.5481097879423942
  0
ARC
  5
D393
  8
0
 10
98.6254257152506426
 20
157.2532028658087029
 30
0.0
 40
0.2961371631323513
 50
273.5805192900872953
 51
281.2102725179541949
  0
ARC
  5
D394
  8
0
 10
98.6639828823029461
 20
156.9054344239901013
 30
0.0
 40
0.0638759833434979
 50
78.3583914286679999
 51
114.240410966424605
  0
ARC
  5
D395
  8
0
 10
98.6502717343878146
 20
157.0296403493501032
 30
0.0
 40
0.0671384294068492
 50
259.2576053219365804
 51
293.3411970731705765
  0
ARC
  5
D396
  8
0
 10
98.7373628132650651
 20
156.9736828479809105
 30
0.0
 40
0.0059122820040975
 50
145.4417265867338926
 51
187.2555066455776966
  0
ARC
  5
D397
  8
0
 10
98.7652832436495345
 20
156.9517144592502973
 30
0.0
 40
0.0414289644571169
 50
117.7298960397117042
 51
142.3224328083854004
  0
ARC
  5
D398
  8
0
 10
98.8486064170430012
 20
156.8042525277753043
 30
0.0
 40
0.2107882901241652
 50
106.1913649256700012
 51
119.1268910271886057
  0
ARC
  5
D399
  8
0
 10
98.8554069585752302
 20
156.8035573593012941
 30
0.0
 40
0.2134462805886073
 50
93.5821792630018763
 51
107.8926561928619066
  0
ARC
  5
D39A
  8
0
 10
98.8450315078476081
 20
156.9550333753755922
 30
0.0
 40
0.0616243984515349
 50
81.9962708669458777
 51
92.7537892819110397
  0
ARC
  5
D39B
  8
0
 10
98.8584587191461139
 20
157.0097865539065936
 30
0.0
 40
0.00444040467579
 50
3.2638195397032059
 51
55.3631133471949326
  0
ARC
  5
D39C
  8
0
 10
98.8513476273182619
 20
156.9979953274815045
 30
0.0
 40
0.0182035397151761
 50
58.0426940767520634
 51
82.8545562883889914
  0
ARC
  5
D39D
  8
0
 10
62.3594993231201897
 20
155.7059543324681954
 30
0.0
 40
36.5266794130585311
 50
1.965107938322912
 51
2.0460236734324919
  0
ARC
  5
D39E
  8
0
 10
903.8764277163772931
 20
306.5558279099402057
 30
0.0
 40
818.9220961472927911
 50
190.5246348429288048
 51
190.5266799025322939
  0
ARC
  5
D39F
  8
0
 10
98.8439566005606451
 20
156.9574650949845989
 30
0.0
 40
0.0207657328530027
 50
326.2254591362266183
 51
2.8188201334035421
  0
ARC
  5
D3A0
  8
0
 10
98.7579245360521156
 20
156.9482639024872128
 30
0.0
 40
0.0214754539461004
 50
190.9130233543777138
 51
240.2039563372094904
  0
ARC
  5
D3A1
  8
0
 10
98.7648842772800037
 20
156.9624721523618121
 30
0.0
 40
0.037277737235332
 50
241.7728379328715107
 51
266.4488139814095007
  0
ARC
  5
D3A2
  8
0
 10
98.8395621898601036
 20
156.9608240636462142
 30
0.0
 40
0.0262881630980634
 50
296.6602780559920234
 51
325.4645369325957063
  0
ARC
  5
D3A3
  8
0
 10
98.7767288415076479
 20
157.0937720730638034
 30
0.0
 40
0.1690994439983573
 50
265.1987492501453971
 51
274.2826716655101791
  0
ARC
  5
D3A4
  8
0
 10
98.8121572727805955
 20
157.0231571724019091
 30
0.0
 40
0.0943548618822135
 50
279.9339416841424963
 51
294.5481097879423942
  0
ARC
  5
D3A5
  8
0
 10
98.7708625875101944
 20
157.2207039037998015
 30
0.0
 40
0.2961371631323513
 50
273.5805192900872953
 51
281.2102725179541949
  0
ARC
  5
D3A6
  8
0
 10
98.8094197545624979
 20
156.8729354619812
 30
0.0
 40
0.0638759833434979
 50
78.3583914286679999
 51
114.240410966424605
  0
ARC
  5
D3A7
  8
0
 10
98.7957086066473522
 20
156.9971413873412018
 30
0.0
 40
0.0671384294068492
 50
259.2576053219365804
 51
293.3411970731705765
  0
ARC
  5
D3A8
  8
0
 10
98.3607399786639576
 20
157.0338693379067081
 30
0.0
 40
0.0059122820040975
 50
145.4417265867338926
 51
187.2555066455776966
  0
ARC
  5
D3A9
  8
0
 10
98.3886604090484553
 20
157.0119009491760949
 30
0.0
 40
0.0414289644571169
 50
117.7298960397117042
 51
142.3224328083854004
  0
ARC
  5
D3AA
  8
0
 10
98.4719835824418936
 20
156.8644390177011019
 30
0.0
 40
0.2107882901241652
 50
106.1913649256700012
 51
119.1268910271886057
  0
ARC
  5
D3AB
  8
0
 10
98.478784123974151
 20
156.8637438492270917
 30
0.0
 40
0.2134462805886073
 50
93.5821792630018763
 51
107.8926561928619066
  0
ARC
  5
D3AC
  8
0
 10
98.4684086732465147
 20
157.0152198653013045
 30
0.0
 40
0.0616243984515349
 50
81.9962708669458777
 51
92.7537892819110397
  0
ARC
  5
D3AD
  8
0
 10
98.4818358845450348
 20
157.0699730438323911
 30
0.0
 40
0.00444040467579
 50
3.2638195397032059
 51
55.3631133471949326
  0
ARC
  5
D3AE
  8
0
 10
98.4747247927171685
 20
157.0581818174073021
 30
0.0
 40
0.0182035397151761
 50
58.0426940767520634
 51
82.8545562883889914
  0
ARC
  5
D3AF
  8
0
 10
61.9828764885190893
 20
155.7661408223939077
 30
0.0
 40
36.5266794130585311
 50
1.965107938322912
 51
2.0460236734324919
  0
ARC
  5
D3B0
  8
0
 10
903.4998048817762992
 20
306.6160143998660033
 30
0.0
 40
818.9220961472927911
 50
190.5246348429288048
 51
190.5266799025322939
  0
ARC
  5
D3B1
  8
0
 10
98.467333765959566
 20
157.0176515849103964
 30
0.0
 40
0.0207657328530027
 50
326.2254591362266183
 51
2.8188201334035421
  0
ARC
  5
D3B2
  8
0
 10
98.3813017014510223
 20
157.0084503924128967
 30
0.0
 40
0.0214754539461004
 50
190.9130233543777138
 51
240.2039563372094904
  0
ARC
  5
D3B3
  8
0
 10
98.3882614426789246
 20
157.0226586422876096
 30
0.0
 40
0.037277737235332
 50
241.7728379328715107
 51
266.4488139814095007
  0
ARC
  5
D3B4
  8
0
 10
98.4629393552590102
 20
157.0210105535720118
 30
0.0
 40
0.0262881630980634
 50
296.6602780559920234
 51
325.4645369325957063
  0
ARC
  5
D3B5
  8
0
 10
98.4001060069065545
 20
157.153958562989601
 30
0.0
 40
0.1690994439983573
 50
265.1987492501453971
 51
274.2826716655101791
  0
ARC
  5
D3B6
  8
0
 10
98.4355344381795305
 20
157.0833436623275929
 30
0.0
 40
0.0943548618822135
 50
279.9339416841424963
 51
294.5481097879423942
  0
ARC
  5
D3B7
  8
0
 10
98.3942397529091153
 20
157.2808903937255991
 30
0.0
 40
0.2961371631323513
 50
273.5805192900872953
 51
281.2102725179541949
  0
ARC
  5
D3B8
  8
0
 10
98.4327969199614046
 20
156.9331219519069975
 30
0.0
 40
0.0638759833434979
 50
78.3583914286679999
 51
114.240410966424605
  0
ARC
  5
D3B9
  8
0
 10
98.4190857720462731
 20
157.0573278772669994
 30
0.0
 40
0.0671384294068492
 50
259.2576053219365804
 51
293.3411970731705765
  0
ARC
  5
D3BA
  8
0
 10
98.1923855002918629
 20
156.9473197445391008
 30
0.0
 40
0.0059122820040975
 50
145.4417265867338926
 51
187.2555066455776966
  0
ARC
  5
D3BB
  8
0
 10
98.2203059306763464
 20
156.9253513558084876
 30
0.0
 40
0.0414289644571169
 50
117.7298960397117042
 51
142.3224328083854004
  0
ARC
  5
D3BC
  8
0
 10
98.3036291040697989
 20
156.7778894243334946
 30
0.0
 40
0.2107882901241652
 50
106.1913649256700012
 51
119.1268910271886057
  0
ARC
  5
D3BD
  8
0
 10
98.3104296456020563
 20
156.7771942558595129
 30
0.0
 40
0.2134462805886073
 50
93.5821792630018763
 51
107.8926561928619066
  0
ARC
  5
D3BE
  8
0
 10
98.3000541948744058
 20
156.9286702719336972
 30
0.0
 40
0.0616243984515349
 50
81.9962708669458777
 51
92.7537892819110397
  0
ARC
  5
D3BF
  8
0
 10
98.3134814061729401
 20
156.9834234504648123
 30
0.0
 40
0.00444040467579
 50
3.2638195397032059
 51
55.3631133471949326
  0
ARC
  5
D3C0
  8
0
 10
98.3063703143450738
 20
156.9716322240396948
 30
0.0
 40
0.0182035397151761
 50
58.0426940767520634
 51
82.8545562883889914
  0
ARC
  5
D3C1
  8
0
 10
61.8145220101470017
 20
155.6795912290263004
 30
0.0
 40
36.5266794130585311
 50
1.965107938322912
 51
2.0460236734324919
  0
ARC
  5
D3C2
  8
0
 10
903.3314504034041192
 20
306.5294648064984244
 30
0.0
 40
818.9220961472927911
 50
190.5246348429288048
 51
190.5266799025322939
  0
ARC
  5
D3C3
  8
0
 10
98.2989792875874713
 20
156.9311019915427892
 30
0.0
 40
0.0207657328530027
 50
326.2254591362266183
 51
2.8188201334035421
  0
ARC
  5
D3C4
  8
0
 10
98.2129472230789275
 20
156.9219007990452894
 30
0.0
 40
0.0214754539461004
 50
190.9130233543777138
 51
240.2039563372094904
  0
ARC
  5
D3C5
  8
0
 10
98.2199069643068157
 20
156.9361090489200024
 30
0.0
 40
0.037277737235332
 50
241.7728379328715107
 51
266.4488139814095007
  0
ARC
  5
D3C6
  8
0
 10
98.2945848768869155
 20
156.9344609602044045
 30
0.0
 40
0.0262881630980634
 50
296.6602780559920234
 51
325.4645369325957063
  0
ARC
  5
D3C7
  8
0
 10
98.2317515285344598
 20
157.0674089696219937
 30
0.0
 40
0.1690994439983573
 50
265.1987492501453971
 51
274.2826716655101791
  0
ARC
  5
D3C8
  8
0
 10
98.2671799598074074
 20
156.9967940689600141
 30
0.0
 40
0.0943548618822135
 50
279.9339416841424963
 51
294.5481097879423942
  0
ARC
  5
D3C9
  8
0
 10
98.2258852745370064
 20
157.1943408003579918
 30
0.0
 40
0.2961371631323513
 50
273.5805192900872953
 51
281.2102725179541949
  0
ARC
  5
D3CA
  8
0
 10
98.2644424415893099
 20
156.8465723585393903
 30
0.0
 40
0.0638759833434979
 50
78.3583914286679999
 51
114.240410966424605
  0
ARC
  5
D3CB
  8
0
 10
98.2507312936741641
 20
156.9707782838993921
 30
0.0
 40
0.0671384294068492
 50
259.2576053219365804
 51
293.3411970731705765
  0
ARC
  5
D3CC
  8
0
 10
98.3856093966543597
 20
156.9242705868059033
 30
0.0
 40
0.0059122820040975
 50
145.4417265867338926
 51
187.2555066455776966
  0
ARC
  5
D3CD
  8
0
 10
98.4135298270388432
 20
156.9023021980752901
 30
0.0
 40
0.0414289644571169
 50
117.7298960397117042
 51
142.3224328083854004
  0
ARC
  5
D3CE
  8
0
 10
98.4968530004322957
 20
156.7548402666002971
 30
0.0
 40
0.2107882901241652
 50
106.1913649256700012
 51
119.1268910271886057
  0
ARC
  5
D3CF
  8
0
 10
98.5036535419645531
 20
156.7541450981262869
 30
0.0
 40
0.2134462805886073
 50
93.5821792630018763
 51
107.8926561928619066
  0
ARC
  5
D3D0
  8
0
 10
98.493278091236931
 20
156.9056211142006134
 30
0.0
 40
0.0616243984515349
 50
81.9962708669458777
 51
92.7537892819110397
  0
ARC
  5
D3D1
  8
0
 10
98.5067053025354369
 20
156.9603742927315864
 30
0.0
 40
0.00444040467579
 50
3.2638195397032059
 51
55.3631133471949326
  0
ARC
  5
D3D2
  8
0
 10
98.4995942107075706
 20
156.948583066306611
 30
0.0
 40
0.0182035397151761
 50
58.0426940767520634
 51
82.8545562883889914
  0
ARC
  5
D3D3
  8
0
 10
62.0077459065094985
 20
155.6565420712931882
 30
0.0
 40
36.5266794130585311
 50
1.965107938322912
 51
2.0460236734324919
  0
ARC
  5
D3D4
  8
0
 10
903.5246742997665024
 20
306.5064156487651985
 30
0.0
 40
818.9220961472927911
 50
190.5246348429288048
 51
190.5266799025322939
  0
ARC
  5
D3D5
  8
0
 10
98.4922031839499539
 20
156.9080528338095917
 30
0.0
 40
0.0207657328530027
 50
326.2254591362266183
 51
2.8188201334035421
  0
ARC
  5
D3D6
  8
0
 10
98.4061711194414244
 20
156.8988516413122056
 30
0.0
 40
0.0214754539461004
 50
190.9130233543777138
 51
240.2039563372094904
  0
ARC
  5
D3D7
  8
0
 10
98.4131308606693267
 20
156.9130598911868901
 30
0.0
 40
0.037277737235332
 50
241.7728379328715107
 51
266.4488139814095007
  0
ARC
  5
D3D8
  8
0
 10
98.4878087732494123
 20
156.9114118024712923
 30
0.0
 40
0.0262881630980634
 50
296.6602780559920234
 51
325.4645369325957063
  0
ARC
  5
D3D9
  8
0
 10
98.4249754248969566
 20
157.0443598118887962
 30
0.0
 40
0.1690994439983573
 50
265.1987492501453971
 51
274.2826716655101791
  0
ARC
  5
D3DA
  8
0
 10
98.4604038561699042
 20
156.9737449112269019
 30
0.0
 40
0.0943548618822135
 50
279.9339416841424963
 51
294.5481097879423942
  0
ARC
  5
D3DB
  8
0
 10
98.4191091708995032
 20
157.1712916426247943
 30
0.0
 40
0.2961371631323513
 50
273.5805192900872953
 51
281.2102725179541949
  0
ARC
  5
D3DC
  8
0
 10
98.4576663379518067
 20
156.8235232008063065
 30
0.0
 40
0.0638759833434979
 50
78.3583914286679999
 51
114.240410966424605
  0
ARC
  5
D3DD
  8
0
 10
98.4439551900366752
 20
156.9477291261661946
 30
0.0
 40
0.0671384294068492
 50
259.2576053219365804
 51
293.3411970731705765
  0
ARC
  5
D3DE
  8
0
 10
98.9080888403626233
 20
156.9782099402227118
 30
0.0
 40
0.0018731518593856
 50
332.2626826336720001
 51
85.2606953857965095
  0
ARC
  5
D3DF
  8
0
 10
98.9356836192868627
 20
156.7510067775239122
 30
0.0
 40
0.2307075598258364
 50
96.8308453541100107
 51
108.0272079306653978
  0
ARC
  5
D3E0
  8
0
 10
98.1753151746425345
 20
156.9131828108544937
 30
0.0
 40
0.7372283531175937
 50
0.9830240215811477
 51
4.9923269052897812
  0
ARC
  5
D3E1
  8
0
 10
903.924165532776442
 20
306.5231724225815242
 30
0.0
 40
818.9220961472927911
 50
190.5257394293558093
 51
190.5266799025322939
  0
ARC
  5
D3E2
  8
0
 10
98.891694416959794
 20
156.9248096076258889
 30
0.0
 40
0.0207657328530027
 50
326.2254591362266183
 51
2.8188201334035421
  0
ARC
  5
D3E3
  8
0
 10
98.8056623524512645
 20
156.9156084151285029
 30
0.0
 40
0.0214754539461004
 50
190.9130233543777138
 51
240.2039563372094904
  0
ARC
  5
D3E4
  8
0
 10
98.812622093679181
 20
156.9298166650031021
 30
0.0
 40
0.037277737235332
 50
241.7728379328715107
 51
266.4488139814095007
  0
ARC
  5
D3E5
  8
0
 10
98.8873000062592666
 20
156.9281685762875043
 30
0.0
 40
0.0262881630980634
 50
296.6602780559920234
 51
325.4645369325957063
  0
ARC
  5
D3E6
  8
0
 10
98.824466657906811
 20
157.0611165857050935
 30
0.0
 40
0.1690994439983573
 50
265.1987492501453971
 51
274.2826716655101791
  0
ARC
  5
D3E7
  8
0
 10
98.8598950891797585
 20
156.9905016850431991
 30
0.0
 40
0.0943548618822135
 50
279.9339416841424963
 51
294.5481097879423942
  0
ARC
  5
D3E8
  8
0
 10
98.8186004039093433
 20
157.1880484164410916
 30
0.0
 40
0.2961371631323513
 50
273.5805192900872953
 51
281.2102725179541949
  0
ARC
  5
D3E9
  8
0
 10
98.8635395825606764
 20
156.7980406316320909
 30
0.0
 40
0.1039457484718448
 50
86.2084550035711743
 51
108.0366776920275953
  0
ARC
  5
D3EA
  8
0
 10
98.8354616372697024
 20
157.0227422615760986
 30
0.0
 40
0.1259308980793492
 50
268.1313771014025065
 51
286.1137555942030986
  0
ARC
  5
D3EB
  8
0
 10
98.0625107920112242
 20
157.0551964854244034
 30
0.0
 40
0.0059122820040975
 50
145.4417265867338926
 51
187.2555066455776966
  0
ARC
  5
D3EC
  8
0
 10
98.0904312223956936
 20
157.0332280966937049
 30
0.0
 40
0.0414289644571169
 50
117.7298960397117042
 51
142.3224328083854004
  0
ARC
  5
D3ED
  8
0
 10
98.1737543957891745
 20
156.8857661652187119
 30
0.0
 40
0.2107882901241652
 50
106.1913649256700012
 51
119.1268910271886057
  0
ARC
  5
D3EE
  8
0
 10
98.1805549373214035
 20
156.8850709967447017
 30
0.0
 40
0.2134462805886073
 50
93.5821792630018763
 51
107.8926561928619066
  0
ARC
  5
D3EF
  8
0
 10
98.1701794865937813
 20
157.0365470128189997
 30
0.0
 40
0.0616243984515349
 50
81.9962708669458777
 51
92.7537892819110397
  0
ARC
  5
D3F0
  8
0
 10
98.183606697892273
 20
157.0913001913500011
 30
0.0
 40
0.00444040467579
 50
3.2638195397032059
 51
55.3631133471949326
  0
ARC
  5
D3F1
  8
0
 10
98.1764956060644352
 20
157.0795089649249974
 30
0.0
 40
0.0182035397151761
 50
58.0426940767520634
 51
82.8545562883889914
  0
ARC
  5
D3F2
  8
0
 10
61.6846473018663488
 20
155.7874679699116029
 30
0.0
 40
36.5266794130585311
 50
1.965107938322912
 51
2.0460236734324919
  0
ARC
  5
D3F3
  8
0
 10
903.2015756951235517
 20
306.6373415473836985
 30
0.0
 40
818.9220961472927911
 50
190.5246348429288048
 51
190.5266799025322939
  0
ARC
  5
D3F4
  8
0
 10
98.1691045793068042
 20
157.0389787324280064
 30
0.0
 40
0.0207657328530027
 50
326.2254591362266183
 51
2.8188201334035421
  0
ARC
  5
D3F5
  8
0
 10
98.0830725147982889
 20
157.029777539930592
 30
0.0
 40
0.0214754539461004
 50
190.9130233543777138
 51
240.2039563372094904
  0
ARC
  5
D3F6
  8
0
 10
98.090032256026177
 20
157.0439857898051912
 30
0.0
 40
0.037277737235332
 50
241.7728379328715107
 51
266.4488139814095007
  0
ARC
  5
D3F7
  8
0
 10
98.1647101686062769
 20
157.042337701089707
 30
0.0
 40
0.0262881630980634
 50
296.6602780559920234
 51
325.4645369325957063
  0
ARC
  5
D3F8
  8
0
 10
98.101876820253807
 20
157.175285710507211
 30
0.0
 40
0.1690994439983573
 50
265.1987492501453971
 51
274.2826716655101791
  0
ARC
  5
D3F9
  8
0
 10
98.137305251526783
 20
157.1046708098452882
 30
0.0
 40
0.0943548618822135
 50
279.9339416841424963
 51
294.5481097879423942
  0
ARC
  5
D3FA
  8
0
 10
98.0960105662563535
 20
157.3022175412432091
 30
0.0
 40
0.2961371631323513
 50
273.5805192900872953
 51
281.2102725179541949
  0
ARC
  5
D3FB
  8
0
 10
98.134567733308657
 20
156.9544490994246075
 30
0.0
 40
0.0638759833434979
 50
78.3583914286679999
 51
114.240410966424605
  0
ARC
  5
D3FC
  8
0
 10
98.1208565853935255
 20
157.0786550247846094
 30
0.0
 40
0.0671384294068492
 50
259.2576053219365804
 51
293.3411970731705765
  0
ARC
  5
D3FD
  8
0
 10
97.943269470991055
 20
156.9649998218515066
 30
0.0
 40
0.0059122820040975
 50
145.4417265867338926
 51
187.2555066455776966
  0
ARC
  5
D3FE
  8
0
 10
97.9711899013755243
 20
156.9430314331208933
 30
0.0
 40
0.0414289644571169
 50
117.7298960397117042
 51
142.3224328083854004
  0
ARC
  5
D3FF
  8
0
 10
98.0545130747690052
 20
156.7955695016459003
 30
0.0
 40
0.2107882901241652
 50
106.1913649256700012
 51
119.1268910271886057
  0
ARC
  5
D400
  8
0
 10
98.0613136163012342
 20
156.7948743331718902
 30
0.0
 40
0.2134462805886073
 50
93.5821792630018763
 51
107.8926561928619066
  0
ARC
  5
D401
  8
0
 10
98.0509381655736121
 20
156.9463503492461882
 30
0.0
 40
0.0616243984515349
 50
81.9962708669458777
 51
92.7537892819110397
  0
ARC
  5
D402
  8
0
 10
98.0643653768721038
 20
157.0011035277771896
 30
0.0
 40
0.00444040467579
 50
3.2638195397032059
 51
55.3631133471949326
  0
ARC
  5
D403
  8
0
 10
98.0572542850442659
 20
156.9893123013521858
 30
0.0
 40
0.0182035397151761
 50
58.0426940767520634
 51
82.8545562883889914
  0
ARC
  5
D404
  8
0
 10
61.5654059808461867
 20
155.6972713063387914
 30
0.0
 40
36.5266794130585311
 50
1.965107938322912
 51
2.0460236734324919
  0
ARC
  5
D405
  8
0
 10
903.082334374103084
 20
306.5471448838108017
 30
0.0
 40
818.9220961472927911
 50
190.5246348429288048
 51
190.5266799025322939
  0
ARC
  5
D406
  8
0
 10
98.049863258286635
 20
156.9487820688553086
 30
0.0
 40
0.0207657328530027
 50
326.2254591362266183
 51
2.8188201334035421
  0
ARC
  5
D407
  8
0
 10
97.9638311937781339
 20
156.9395808763578088
 30
0.0
 40
0.0214754539461004
 50
190.9130233543777138
 51
240.2039563372094904
  0
ARC
  5
D408
  8
0
 10
97.9707909350060078
 20
156.9537891262324933
 30
0.0
 40
0.037277737235332
 50
241.7728379328715107
 51
266.4488139814095007
  0
ARC
  5
D409
  8
0
 10
98.0454688475861076
 20
156.9521410375168955
 30
0.0
 40
0.0262881630980634
 50
296.6602780559920234
 51
325.4645369325957063
  0
ARC
  5
D40A
  8
0
 10
97.9826354992336519
 20
157.0850890469343994
 30
0.0
 40
0.1690994439983573
 50
265.1987492501453971
 51
274.2826716655101791
  0
ARC
  5
D40B
  8
0
 10
98.0180639305066137
 20
157.0144741462725051
 30
0.0
 40
0.0943548618822135
 50
279.9339416841424963
 51
294.5481097879423942
  0
ARC
  5
D40C
  8
0
 10
97.9767692452362127
 20
157.2120208776703976
 30
0.0
 40
0.2961371631323513
 50
273.5805192900872953
 51
281.2102725179541949
  0
ARC
  5
D40D
  8
0
 10
98.0153264122885162
 20
156.8642524358519097
 30
0.0
 40
0.0638759833434979
 50
78.3583914286679999
 51
114.240410966424605
  0
ARC
  5
D40E
  8
0
 10
98.0016152643733562
 20
156.9884583612117979
 30
0.0
 40
0.0671384294068492
 50
259.2576053219365804
 51
293.3411970731705765
  0
ARC
  5
D40F
  8
0
 10
98.0256375204603785
 20
156.8720300865780928
 30
0.0
 40
0.0059122820040975
 50
145.4417265867338926
 51
187.2555066455776966
  0
ARC
  5
D410
  8
0
 10
98.0535579508448762
 20
156.850061697847508
 30
0.0
 40
0.0414289644571169
 50
117.7298960397117042
 51
142.3224328083854004
  0
ARC
  5
D411
  8
0
 10
98.1368811242383146
 20
156.7025997663724866
 30
0.0
 40
0.2107882901241652
 50
106.1913649256700012
 51
119.1268910271886057
  0
ARC
  5
D412
  8
0
 10
98.143681665770572
 20
156.7019045978985048
 30
0.0
 40
0.2134462805886073
 50
93.5821792630018763
 51
107.8926561928619066
  0
ARC
  5
D413
  8
0
 10
98.1333062150429356
 20
156.8533806139726892
 30
0.0
 40
0.0616243984515349
 50
81.9962708669458777
 51
92.7537892819110397
  0
ARC
  5
D414
  8
0
 10
98.1467334263414557
 20
156.9081337925038042
 30
0.0
 40
0.00444040467579
 50
3.2638195397032059
 51
55.3631133471949326
  0
ARC
  5
D415
  8
0
 10
98.1396223345135894
 20
156.8963425660788005
 30
0.0
 40
0.0182035397151761
 50
58.0426940767520634
 51
82.8545562883889914
  0
ARC
  5
D416
  8
0
 10
61.6477740303155173
 20
155.6043015710654061
 30
0.0
 40
36.5266794130585311
 50
1.965107938322912
 51
2.0460236734324919
  0
ARC
  5
D417
  8
0
 10
903.1647024235725212
 20
306.4541751485373879
 30
0.0
 40
818.9220961472927911
 50
190.5246348429288048
 51
190.5266799025322939
  0
ARC
  5
D418
  8
0
 10
98.1322313077559727
 20
156.8558123335818095
 30
0.0
 40
0.0207657328530027
 50
326.2254591362266183
 51
2.8188201334035421
  0
ARC
  5
D419
  8
0
 10
98.0461992432474432
 20
156.8466111410843951
 30
0.0
 40
0.0214754539461004
 50
190.9130233543777138
 51
240.2039563372094904
  0
ARC
  5
D41A
  8
0
 10
98.0531589844753455
 20
156.860819390959108
 30
0.0
 40
0.037277737235332
 50
241.7728379328715107
 51
266.4488139814095007
  0
ARC
  5
D41B
  8
0
 10
98.1278368970554311
 20
156.8591713022435101
 30
0.0
 40
0.0262881630980634
 50
296.6602780559920234
 51
325.4645369325957063
  0
ARC
  5
D41C
  8
0
 10
98.0650035487029754
 20
156.9921193116610141
 30
0.0
 40
0.1690994439983573
 50
265.1987492501453971
 51
274.2826716655101791
  0
ARC
  5
D41D
  8
0
 10
98.100431979975923
 20
156.9215044109990913
 30
0.0
 40
0.0943548618822135
 50
279.9339416841424963
 51
294.5481097879423942
  0
ARC
  5
D41E
  8
0
 10
98.0591372947055362
 20
157.1190511423970122
 30
0.0
 40
0.2961371631323513
 50
273.5805192900872953
 51
281.2102725179541949
  0
ARC
  5
D41F
  8
0
 10
98.0976944617578255
 20
156.7712827005784106
 30
0.0
 40
0.0638759833434979
 50
78.3583914286679999
 51
114.240410966424605
  0
ARC
  5
D420
  8
0
 10
98.0839833138426656
 20
156.8954886259384125
 30
0.0
 40
0.0671384294068492
 50
259.2576053219365804
 51
293.3411970731705765
  0
ARC
  5
D421
  8
0
 10
98.5350163731068136
 20
156.8756560330369041
 30
0.0
 40
0.0414289644571169
 50
117.7298960397117042
 51
122.2837647265290002
  0
ARC
  5
D422
  8
0
 10
98.6183395465002945
 20
156.7281941015619111
 30
0.0
 40
0.2107882901241652
 50
106.1913649256700012
 51
119.1268910271886057
  0
ARC
  5
D423
  8
0
 10
98.6251400880325235
 20
156.7274989330879009
 30
0.0
 40
0.2134462805886073
 50
93.5821792630018763
 51
107.8926561928619066
  0
ARC
  5
D424
  8
0
 10
98.6147646373049014
 20
156.878974949162199
 30
0.0
 40
0.0616243984515349
 50
81.9962708669458777
 51
92.7537892819110397
  0
ARC
  5
D425
  8
0
 10
98.6281918486034215
 20
156.9337281276932003
 30
0.0
 40
0.00444040467579
 50
3.2638195397032059
 51
55.3631133471949326
  0
ARC
  5
D426
  8
0
 10
98.621080756775541
 20
156.9219369012681966
 30
0.0
 40
0.0182035397151761
 50
58.0426940767520634
 51
82.8545562883889914
  0
ARC
  5
D427
  8
0
 10
62.1292324525774831
 20
155.6298959062548022
 30
0.0
 40
36.5266794130585311
 50
1.965107938322912
 51
2.0460236734324919
  0
ARC
  5
D428
  8
0
 10
903.6461608458346291
 20
306.4797694837268978
 30
0.0
 40
818.9220961472927911
 50
190.5251484352749003
 51
190.5266799025322939
  0
ARC
  5
D429
  8
0
 10
98.6136897300179243
 20
156.8814066687712057
 30
0.0
 40
0.0207657328530027
 50
326.2254591362266183
 51
2.8188201334035421
  0
ARC
  5
D42A
  8
0
 10
98.527657665509409
 20
156.8722054762737912
 30
0.0
 40
0.0214754539461004
 50
190.9130233543777138
 51
240.2039563372094904
  0
ARC
  5
D42B
  8
0
 10
98.5346174067372971
 20
156.8864137261485041
 30
0.0
 40
0.037277737235332
 50
241.7728379328715107
 51
266.4488139814095007
  0
ARC
  5
D42C
  8
0
 10
98.6092953193173969
 20
156.8847656374329063
 30
0.0
 40
0.0262881630980634
 50
296.6602780559920234
 51
325.4645369325957063
  0
ARC
  5
D42D
  8
0
 10
98.5464619709649412
 20
157.0177136468504102
 30
0.0
 40
0.1690994439983573
 50
265.1987492501453971
 51
274.2826716655101791
  0
ARC
  5
D42E
  8
0
 10
98.5818904022378888
 20
156.9470987461884874
 30
0.0
 40
0.0943548618822135
 50
279.9339416841424963
 51
294.5481097879423942
  0
ARC
  5
D42F
  8
0
 10
98.5405957169674878
 20
157.1446454775864083
 30
0.0
 40
0.2961371631323513
 50
273.5805192900872953
 51
281.2102725179541949
  0
ARC
  5
D430
  8
0
 10
98.579152884019777
 20
156.7968770357678068
 30
0.0
 40
0.0638759833434979
 50
78.3583914286679999
 51
114.240410966424605
  0
ARC
  5
D431
  8
0
 10
98.5654417361046455
 20
156.9210829611278086
 30
0.0
 40
0.0671384294068492
 50
259.2576053219365804
 51
293.3411970731705765
  0
ARC
  5
D432
  8
0
 10
98.8427368245534552
 20
156.8897209580158005
 30
0.0
 40
0.0206743934363724
 50
283.0080139505362808
 51
1.950946566369316
  0
ARC
  5
D433
  8
0
 10
98.7407271037788803
 20
157.3617755861112926
 30
0.0
 40
0.5036232750373903
 50
271.9347445365229987
 51
282.2273752539996963
  0
ARC
  5
D434
  8
0
 10
98.7562146013219717
 20
156.879410127792795
 30
0.0
 40
0.0210254003637075
 50
192.3429110343068942
 51
274.1333019983508734
  0
LINE
  5
D435
  8
0
 10
98.8631687373496248
 20
156.8952842057827013
 30
0.0
 11
98.8633992338655645
 21
156.8904247942051882
 31
0.0
  0
LINE
  5
D436
  8
0
 10
98.7356718991747044
 20
156.8749367314158008
 30
0.0
 11
98.7301388002422584
 21
156.9026621161173978
 31
0.0
  0
LINE
  5
D437
  8
0
 10
98.7180352157394339
 20
156.8990605579593876
 30
0.0
 11
98.7194999232773966
 21
156.8571922931413951
 31
0.0
  0
LINE
  5
D438
  8
0
 10
98.6750860312253337
 20
156.9057930989002045
 30
0.0
 11
98.6751717583210137
 21
156.8519087634944071
 31
0.0
  0
LINE
  5
D439
  8
0
 10
98.5456967214451538
 20
156.8486159344066095
 30
0.0
 11
98.5467454641803471
 21
156.8416392728904896
 31
0.0
  0
ARC
  5
D43A
  8
0
 10
98.8213578311100491
 20
156.7034874391036965
 30
0.0
 40
0.1634994333591797
 50
90.0310503343111037
 51
103.8575019265709045
  0
ARC
  5
D43B
  8
0
 10
98.7820180169711364
 20
157.0264811783355867
 30
0.0
 40
0.1642531541762813
 50
270.0629273498383895
 51
283.8256249110444855
  0
ARC
  5
D43C
  8
0
 10
98.6992484626459259
 20
156.8567501574113976
 30
0.0
 40
0.0202564518563971
 50
279.9846472230127006
 51
1.2379246464358851
  0
ARC
  5
D43D
  8
0
 10
98.6540013511291249
 20
156.8521768164667947
 30
0.0
 40
0.0211721041246853
 50
284.8550427979907909
 51
359.2745777989927092
  0
ARC
  5
D43E
  8
0
 10
98.600835691839265
 20
157.0644125528307029
 30
0.0
 40
0.2399637601423433
 50
277.9940155178347254
 51
284.1332058319136991
  0
ARC
  5
D43F
  8
0
 10
98.5529811765906345
 20
157.7331698118140082
 30
0.0
 40
0.9087969048327174
 50
276.1451142120836835
 51
279.4862367050379248
  0
ARC
  5
D440
  8
0
 10
98.6795362189822782
 20
156.6940826233631014
 30
0.0
 40
0.1401742855436706
 50
91.0017865072319836
 51
96.4840701025850507
  0
ARC
  5
D441
  8
0
 10
98.6288516793569414
 20
157.113176297043708
 30
0.0
 40
0.2830803351436781
 50
276.2510589020134262
 51
279.8104403403539209
  0
ARC
  5
D442
  8
0
 10
98.5673648751551212
 20
156.8451404676368099
 30
0.0
 40
0.0209042566772415
 50
189.5047463635243901
 51
255.213033414009999
  0
ARC
  5
D443
  8
0
 10
98.5738071428122851
 20
157.3251009606705111
 30
0.0
 40
0.5019674820692149
 50
270.6175420772686948
 51
276.9109736917698115
  0
ARC
  5
D444
  8
0
 10
98.5775528174718119
 20
156.8914903499752995
 30
0.0
 40
0.0683479862802035
 50
256.8723805386844106
 51
271.3954780771159108
  0
ARC
  5
D445
  8
0
 10
98.6208199353184938
 20
156.724876716711691
 30
0.0
 40
0.1060561508897977
 50
83.931217059445558
 51
105.3201371350056945
  0
ARC
  5
D446
  8
0
 10
98.6038047111706959
 20
156.9346333083140053
 30
0.0
 40
0.1080312918207949
 50
264.1526353985557876
 51
285.1463757618759018
  0
LINE
  5
D447
  8
0
 10
98.634590105799532
 20
156.8269397248598978
 30
0.0
 11
98.6345970661949707
 21
156.8225647220808128
 31
0.0
  0
LINE
  5
D448
  8
0
 10
98.5051220293191108
 20
156.8192718929931004
 30
0.0
 11
98.5061707720543041
 21
156.8122952314770089
 31
0.0
  0
ARC
  5
D449
  8
0
 10
98.6134266590030961
 20
156.8228327750532003
 30
0.0
 40
0.0211721041246853
 50
284.8550427979907909
 51
359.2745777989927092
  0
ARC
  5
D44A
  8
0
 10
98.526790183029064
 20
156.8157964262231872
 30
0.0
 40
0.0209042566772415
 50
189.5047463635243901
 51
255.213033414009999
  0
ARC
  5
D44B
  8
0
 10
98.533232450686242
 20
157.295756919257002
 30
0.0
 40
0.5019674820692149
 50
270.6175420772686948
 51
276.9109736917698115
  0
ARC
  5
D44C
  8
0
 10
98.5369781253457546
 20
156.8621463085617904
 30
0.0
 40
0.0683479862802035
 50
256.8723805386844106
 51
271.3954780771159108
  0
ARC
  5
D44D
  8
0
 10
98.5802452431924365
 20
156.6955326752982103
 30
0.0
 40
0.1060561508897977
 50
83.931217059445558
 51
105.3201371350056945
  0
ARC
  5
D44E
  8
0
 10
98.5632300190446244
 20
156.9052892669004962
 30
0.0
 40
0.1080312918207949
 50
264.1526353985557876
 51
285.1463757618759018
  0
ARC
  5
D44F
  8
0
 10
98.5879192254054288
 20
156.893617886697001
 30
0.0
 40
0.0963508601595808
 50
273.3995440473585177
 51
288.727677302375298
  0
LINE
  5
D450
  8
0
 10
98.5051220293191108
 20
156.8192718929931004
 30
0.0
 11
98.5011862093764137
 21
156.8417798474224867
 31
0.0
  0
LINE
  5
D451
  8
0
 10
98.5011862093764137
 20
156.8417798474224867
 30
0.0
 11
98.5273701766933243
 21
156.8498472476458971
 31
0.0
  0
LINE
  5
D452
  8
0
 10
98.5152130112852262
 20
156.7983907650281026
 30
0.0
 11
98.5152182012021029
 21
156.795128608304509
 31
0.0
  0
ARC
  5
D453
  8
0
 10
98.4940477940102141
 20
156.7953966612768113
 30
0.0
 40
0.0211721041246853
 50
284.8550427979907909
 51
359.2745777989927092
  0
ARC
  5
D454
  8
0
 10
98.4138535856934027
 20
157.268320805480613
 30
0.0
 40
0.5019674820692149
 50
270.6175420772686948
 51
276.9109736917698115
  0
ARC
  5
D455
  8
0
 10
98.4175992603529011
 20
156.8347101947854014
 30
0.0
 40
0.0683479862802035
 50
260.1249430890529197
 51
271.3954780771159108
  0
ARC
  5
D456
  8
0
 10
98.460866378199583
 20
156.6680965615217929
 30
0.0
 40
0.1060561508897977
 50
83.931217059445558
 51
105.3201371350056945
  0
ARC
  5
D457
  8
0
 10
98.4438511540517851
 20
156.8778531531241072
 30
0.0
 40
0.1080312918207949
 50
264.1526353985557876
 51
285.1463757618759018
  0
ARC
  5
D458
  8
0
 10
98.4685403604125753
 20
156.8661817729204984
 30
0.0
 40
0.0963508601595808
 50
273.3995440473585177
 51
288.727677302375298
  0
ARC
  5
D459
  8
0
 10
98.3852429444691836
 20
156.815108310932203
 30
0.0
 40
0.0206016576109858
 50
312.4018324517645055
 51
359.0041164473284994
  0
ARC
  5
D45A
  8
0
 10
18306.781658676751249
 20
-76.1635199764456274
 30
0.0
 40
18209.8662481167302758
 50
179.2667666011269034
 51
179.2669338908532097
  0
ARC
  5
D45B
  8
0
 10
73.6227475977892709
 20
157.1220459598092987
 30
0.0
 40
24.7856676847319193
 50
359.1800966705558267
 51
359.3056849375124102
  0
LINE
  5
D45C
  8
0
 10
98.4065955067214588
 20
156.8216982829497965
 30
0.0
 11
98.4059334746570755
 21
156.8219388670366072
 31
0.0
  0
LINE
  5
D45D
  8
0
 10
98.2769437943128992
 20
156.7605181648440862
 30
0.0
 11
98.2724198613099844
 21
156.794003668295403
 31
0.0
  0
LINE
  5
D45E
  8
0
 10
98.2723582059855261
 20
156.8401992749681995
 30
0.0
 11
98.2768734786356646
 21
156.806877888687211
 31
0.0
  0
ARC
  5
D45F
  8
0
 10
98.3017096966871406
 20
156.8175788629542069
 30
0.0
 40
0.0295746272859048
 50
236.1878514194256127
 51
263.6603131311488255
  0
ARC
  5
D460
  8
0
 10
98.2972105867601869
 20
156.8096957053352867
 30
0.0
 40
0.0205313951809146
 50
187.8933851731289906
 51
234.3775530642660954
  0
ARC
  5
D461
  8
0
 10
98.3767622549064669
 20
156.8279278910320897
 30
0.0
 40
0.0358660142425799
 50
278.665333821539889
 51
308.5935584126187905
  0
ARC
  5
D462
  8
0
 10
98.3464632579056968
 20
156.9638142098669107
 30
0.0
 40
0.1750230852441091
 50
276.8796964275807113
 51
281.7702836725769089
  0
ARC
  5
D463
  8
0
 10
98.3236972416408861
 20
157.1306334328729122
 30
0.0
 40
0.3433782060223751
 50
265.7824564403323961
 51
277.3168133398796726
  0
ARC
  5
D464
  8
0
 10
98.289229875968374
 20
156.7602002186164043
 30
0.0
 40
0.0377524807531111
 50
102.5385102722625987
 51
116.4405595841691934
  0
ARC
  5
D465
  8
0
 10
98.4045291260266737
 20
156.8677226718029942
 30
0.0
 40
0.0020018476524904
 50
5.496124887881229
 51
64.1992348851233743
  0
ARC
  5
D466
  8
0
 10
98.3998232437927101
 20
156.8581330527642024
 30
0.0
 40
0.0126838650398625
 50
63.9148702046837229
 51
83.7168429274231869
  0
ARC
  5
D467
  8
0
 10
98.3926987015087917
 20
156.7855802922728969
 30
0.0
 40
0.0855848451833691
 50
84.2916399247592949
 51
95.5106670360646461
  0
ARC
  5
D468
  8
0
 10
98.4010625049170642
 20
156.6280751293743094
 30
0.0
 40
0.2432603247950968
 50
93.9087788623299531
 51
98.1061808560453557
  0
ARC
  5
D469
  8
0
 10
98.4332974035035448
 20
156.4055879243045979
 30
0.0
 40
0.4680702297567731
 50
98.1723229993142041
 51
104.3229317739887989
  0
ARC
  5
D46A
  8
0
 10
98.3659382764929546
 20
156.6524572392297898
 30
0.0
 40
0.2122520668033929
 50
103.1909439776118944
 51
114.2188027725283064
  0
ARC
  5
D46B
  8
0
 10
98.2751035033365241
 20
156.840185888945598
 30
0.0
 40
0.0027451796544249
 50
132.672027954649991
 51
179.7184672371373892
  0
ARC
  5
D46C
  8
0
 10
98.2884028447520564
 20
156.8259524720008926
 30
0.0
 40
0.0222249261850437
 50
115.4058694642813947
 51
133.0093882407192041
  0
ARC
  5
D46D
  8
0
 10
98.34677575365113
 20
156.7220140002353901
 30
0.0
 40
0.0725902397637113
 50
80.9646580209531095
 51
106.0187991083162018
  0
ARC
  5
D46E
  8
0
 10
98.3380411915253916
 20
156.8651619655962861
 30
0.0
 40
0.0742408523376531
 50
261.2475455147397838
 51
285.7359116145310054
  0
ARC
  5
D46F
  8
0
 10
98.3858505187392183
 20
156.768641981371303
 30
0.0
 40
0.0200670929226091
 50
322.1246317148275011
 51
356.3796550885375041
  0
ARC
  5
D470
  8
0
 10
98.3833080093951224
 20
156.7713013552290988
 30
0.0
 40
0.0237128381670457
 50
280.1093308358375111
 51
320.8240821165956049
  0
ARC
  5
D471
  8
0
 10
98.3162567475922344
 20
157.1698051397247866
 30
0.0
 40
0.4278171296781444
 50
267.7559869958948866
 51
279.581932625833872
  0
ARC
  5
D472
  8
0
 10
98.2967713017853839
 20
156.7632019346345089
 30
0.0
 40
0.020008315092973
 50
187.7084724762493124
 51
224.796825258288095
  0
ARC
  5
D473
  8
0
 10
98.2997624547863325
 20
156.7674691435379941
 30
0.0
 40
0.02515436823327
 50
226.8939822926421925
 51
269.4144683783969754
  0
ARC
  5
D474
  8
0
 10
98.3487712089554975
 20
156.6446507385028042
 30
0.0
 40
0.1030625083760931
 50
84.7234226740515624
 51
102.2994913718196983
  0
ARC
  5
D475
  8
0
 10
98.3362775564499003
 20
156.8482520067258008
 30
0.0
 40
0.103338302368334
 50
264.7470614979953893
 51
282.2758525478784009
  0
ARC
  5
D476
  8
0
 10
98.1993393559151571
 20
157.8006941062888018
 30
0.0
 40
1.0548604813785769
 50
271.9149719229541233
 51
274.5274445295045211
  0
ARC
  5
D477
  8
0
 10
98.2142689364164454
 20
156.7666362634562915
 30
0.0
 40
0.0203881859223583
 50
188.4495896944835067
 51
271.6274488188996088
  0
ARC
  5
D478
  8
0
 10
98.222279503374466
 20
157.0356097058669889
 30
0.0
 40
0.2894488213870701
 50
268.5287823844464015
 51
272.4373610133844181
  0
LINE
  5
D479
  8
0
 10
98.1941011790845693
 20
156.7636403897921014
 30
0.0
 11
98.1919484007598129
 21
156.7760736656587142
 31
0.0
  0
ARC
  5
D47A
  8
0
 10
98.2742794525623964
 20
156.4899747150213045
 30
0.0
 40
0.2604178571592079
 50
88.9386939747673892
 51
97.6086944079288656
  0
ARC
  5
D47B
  8
0
 10
98.2444237957363526
 20
157.0119358827668918
 30
0.0
 40
0.2638767124490084
 50
268.9956230296593844
 51
277.551765353047017
  0
ARC
  5
D47C
  8
0
 10
98.1473336028855101
 20
156.7661477083005082
 30
0.0
 40
0.0206016576109858
 50
312.4018324517645055
 51
359.0041164473284994
  0
ARC
  5
D47D
  8
0
 10
18306.5437493351710145
 20
-76.2124805790773223
 30
0.0
 40
18209.8662481167302758
 50
179.2667666011269034
 51
179.2669338908532097
  0
LINE
  5
D47E
  8
0
 10
98.0344488644018242
 20
156.7912386723365046
 30
0.0
 11
98.0389641370519769
 21
156.7579172860554877
 31
0.0
  0
ARC
  5
D47F
  8
0
 10
98.0638003551034529
 20
156.768618260322512
 30
0.0
 40
0.0295746272859048
 50
236.1878514194256127
 51
263.6603131311488255
  0
ARC
  5
D480
  8
0
 10
98.0593012451765134
 20
156.7607351027035918
 30
0.0
 40
0.0205313951809146
 50
187.8933851731289906
 51
234.3775530642660954
  0
ARC
  5
D481
  8
0
 10
98.1388529133227649
 20
156.7789672884003096
 30
0.0
 40
0.0358660142425799
 50
278.665333821539889
 51
308.5935584126187905
  0
ARC
  5
D482
  8
0
 10
98.1085539163220233
 20
156.9148536072351874
 30
0.0
 40
0.1750230852441091
 50
276.8796964275807113
 51
281.7702836725769089
  0
ARC
  5
D483
  8
0
 10
98.0857879000572126
 20
157.0816728302411889
 30
0.0
 40
0.3433782060223751
 50
265.7824564403323961
 51
277.3168133398796726
  0
ARC
  5
D484
  8
0
 10
98.166619784442986
 20
156.8187620691712141
 30
0.0
 40
0.0020018476524904
 50
5.496124887881229
 51
64.1992348851233743
  0
ARC
  5
D485
  8
0
 10
98.1619139022090224
 20
156.8091724501325075
 30
0.0
 40
0.0126838650398625
 50
63.9148702046837229
 51
83.7168429274231869
  0
ARC
  5
D486
  8
0
 10
98.154789359925104
 20
156.7366196896412021
 30
0.0
 40
0.0855848451833691
 50
84.2916399247592949
 51
95.5106670360646461
  0
ARC
  5
D487
  8
0
 10
98.1631531633333765
 20
156.5791145267425861
 30
0.0
 40
0.2432603247950968
 50
93.9087788623299531
 51
98.1061808560453557
  0
ARC
  5
D488
  8
0
 10
98.1953880619198429
 20
156.356627321672903
 30
0.0
 40
0.4680702297567731
 50
98.1723229993142041
 51
104.3229317739887989
  0
ARC
  5
D489
  8
0
 10
98.1280289349092669
 20
156.6034966365980949
 30
0.0
 40
0.2122520668033929
 50
103.1909439776118944
 51
114.2188027725283064
  0
ARC
  5
D48A
  8
0
 10
98.0371941617528364
 20
156.7912252863139031
 30
0.0
 40
0.0027451796544249
 50
132.672027954649991
 51
179.7184672371373892
  0
ARC
  5
D48B
  8
0
 10
98.0504935031683686
 20
156.7769918693691125
 30
0.0
 40
0.0222249261850437
 50
115.4058694642813947
 51
133.0093882407192041
  0
ARC
  5
D48C
  8
0
 10
98.1088664120674423
 20
156.6730533976036952
 30
0.0
 40
0.0725902397637113
 50
80.9646580209531095
 51
106.0187991083162018
  0
ARC
  5
D48D
  8
0
 10
98.1001318499416755
 20
156.8162013629645912
 30
0.0
 40
0.0742408523376531
 50
261.2475455147397838
 51
285.7359116145310054
  0
ARC
  5
D48E
  8
0
 10
98.1480987197351169
 20
156.7312363179881061
 30
0.0
 40
0.0206016576109858
 50
312.4018324517645055
 51
359.0041164473284994
  0
ARC
  5
D48F
  8
0
 10
18306.5445144520199392
 20
-76.2473919693897528
 30
0.0
 40
18209.8662481167302758
 50
179.2667666011269034
 51
179.2669338908532097
  0
LINE
  5
D490
  8
0
 10
98.0352139812514167
 20
156.7563272820241025
 30
0.0
 11
98.0397292539015695
 21
156.723005895743114
 31
0.0
  0
ARC
  5
D491
  8
0
 10
98.0645654719530597
 20
156.7337068700101099
 30
0.0
 40
0.0295746272859048
 50
236.1878514194256127
 51
263.6603131311488255
  0
ARC
  5
D492
  8
0
 10
98.0600663620261059
 20
156.7258237123911897
 30
0.0
 40
0.0205313951809146
 50
187.8933851731289906
 51
234.3775530642660954
  0
ARC
  5
D493
  8
0
 10
98.1396180301723433
 20
156.7440558980879075
 30
0.0
 40
0.0358660142425799
 50
278.665333821539889
 51
308.5935584126187905
  0
ARC
  5
D494
  8
0
 10
98.1093190331716158
 20
156.8799422169228137
 30
0.0
 40
0.1750230852441091
 50
276.8796964275807113
 51
281.7702836725769089
  0
ARC
  5
D495
  8
0
 10
98.0865530169068052
 20
157.0467614399287868
 30
0.0
 40
0.3433782060223751
 50
265.7824564403323961
 51
277.3168133398796726
  0
ARC
  5
D496
  8
0
 10
98.167384901292607
 20
156.783850678858812
 30
0.0
 40
0.0020018476524904
 50
5.496124887881229
 51
64.1992348851233743
  0
ARC
  5
D497
  8
0
 10
98.1626790190586291
 20
156.7742610598201054
 30
0.0
 40
0.0126838650398625
 50
63.9148702046837229
 51
64.2636376308157224
  0
ARC
  5
D498
  8
0
 10
98.0379592786024148
 20
156.756313896001501
 30
0.0
 40
0.0027451796544249
 50
132.672027954649991
 51
179.7184672371373892
  0
ARC
  5
D499
  8
0
 10
98.0512586200179754
 20
156.7420804790567104
 30
0.0
 40
0.0222249261850437
 50
124.6205767687662984
 51
133.0093882407192041
  0
ARC
  5
D49A
  8
0
 10
98.1096315289170491
 20
156.6381420072912931
 30
0.0
 40
0.0725902397637113
 50
80.9646580209531095
 51
106.0187991083162018
  0
ARC
  5
D49B
  8
0
 10
98.1008969667912964
 20
156.7812899726523028
 30
0.0
 40
0.0742408523376531
 50
261.2475455147397838
 51
285.7359116145310054
  0
ARC
  5
D49C
  8
0
 10
97.9618894910494049
 20
156.7007007831628869
 30
0.0
 40
0.0206016576109858
 50
312.4018324517645055
 51
359.0041164473284994
  0
ARC
  5
D49D
  8
0
 10
18306.3583052233407216
 20
-76.2779275042150005
 30
0.0
 40
18209.8662481167302758
 50
179.2667666011269034
 51
179.2669338908532097
  0
ARC
  5
D49E
  8
0
 10
97.8783562432673335
 20
156.7031713351848055
 30
0.0
 40
0.0295746272859048
 50
236.1878514194256127
 51
263.6603131311488255
  0
ARC
  5
D49F
  8
0
 10
97.8738571333403939
 20
156.6952881775659137
 30
0.0
 40
0.0205313951809146
 50
194.7412536317143008
 51
234.3775530642660954
  0
ARC
  5
D4A0
  8
0
 10
97.9534088014866455
 20
156.7135203632626883
 30
0.0
 40
0.0358660142425799
 50
278.665333821539889
 51
308.5935584126187905
  0
ARC
  5
D4A1
  8
0
 10
97.9231098044859039
 20
156.8494066820975092
 30
0.0
 40
0.1750230852441091
 50
276.8796964275807113
 51
281.7702836725769089
  0
ARC
  5
D4A2
  8
0
 10
97.9003437882210932
 20
157.016225905103596
 30
0.0
 40
0.3433782060223751
 50
265.7824564403323961
 51
277.3168133398796726
  0
ARC
  5
D4A3
  8
0
 10
97.9811756726068666
 20
156.7533151440335928
 30
0.0
 40
0.0020018476524904
 50
5.496124887881229
 51
64.1992348851233743
  0
ARC
  5
D4A4
  8
0
 10
97.9764697903729029
 20
156.7437255249948862
 30
0.0
 40
0.0126838650398625
 50
63.9148702046837229
 51
83.7168429274231869
  0
ARC
  5
D4A5
  8
0
 10
97.9693452480889846
 20
156.6711727645034955
 30
0.0
 40
0.0855848451833691
 50
84.2916399247592949
 51
95.5106670360646461
  0
ARC
  5
D4A6
  8
0
 10
97.9777090514972713
 20
156.513667601604908
 30
0.0
 40
0.2432603247950968
 50
93.9087788623299531
 51
96.5773180535388605
  0
ARC
  5
D4A7
  8
0
 10
97.9234223002313229
 20
156.6076064724659886
 30
0.0
 40
0.0725902397637113
 50
80.9646580209531095
 51
106.0187991083162018
  0
ARC
  5
D4A8
  8
0
 10
97.9146877381055845
 20
156.7507544378269984
 30
0.0
 40
0.0742408523376531
 50
261.2475455147397838
 51
285.7359116145310054
  0
ARC
  5
D4A9
  8
0
 10
97.9582120141515418
 20
156.7960246167137086
 30
0.0
 40
0.0206016576109858
 50
312.4018324517645055
 51
359.0041164473284994
  0
ARC
  5
D4AA
  8
0
 10
18306.3546277464411105
 20
-76.1826036706642071
 30
0.0
 40
18209.8662481167302758
 50
179.2667666011269034
 51
179.2669338908532097
  0
LINE
  5
D4AB
  8
0
 10
97.8453272756678416
 20
156.8211155807495913
 30
0.0
 11
97.8498425483179943
 21
156.7877941944686029
 31
0.0
  0
ARC
  5
D4AC
  8
0
 10
97.8746787663694846
 20
156.7984951687355988
 30
0.0
 40
0.0295746272859048
 50
236.1878514194256127
 51
263.6603131311488255
  0
ARC
  5
D4AD
  8
0
 10
97.8701796564425308
 20
156.790612011116707
 30
0.0
 40
0.0205313951809146
 50
187.8933851731289906
 51
234.3775530642660954
  0
ARC
  5
D4AE
  8
0
 10
97.9497313245887824
 20
156.8088441968135101
 30
0.0
 40
0.0358660142425799
 50
278.665333821539889
 51
308.5935584126187905
  0
ARC
  5
D4AF
  8
0
 10
97.9194323275880407
 20
156.9447305156483026
 30
0.0
 40
0.1750230852441091
 50
276.8796964275807113
 51
281.7702836725769089
  0
ARC
  5
D4B0
  8
0
 10
97.89666631132323
 20
157.1115497386543893
 30
0.0
 40
0.3433782060223751
 50
265.7824564403323961
 51
277.3168133398796726
  0
ARC
  5
D4B1
  8
0
 10
97.9774981957090318
 20
156.8486389775843861
 30
0.0
 40
0.0020018476524904
 50
5.496124887881229
 51
64.1992348851233743
  0
ARC
  5
D4B2
  8
0
 10
97.972792313475054
 20
156.8390493585457079
 30
0.0
 40
0.0126838650398625
 50
63.9148702046837229
 51
83.7168429274231869
  0
ARC
  5
D4B3
  8
0
 10
97.9656677711911357
 20
156.7664965980542888
 30
0.0
 40
0.0855848451833691
 50
84.2916399247592949
 51
95.5106670360646461
  0
ARC
  5
D4B4
  8
0
 10
97.9740315745994081
 20
156.6089914351557013
 30
0.0
 40
0.2432603247950968
 50
93.9087788623299531
 51
98.1061808560453557
  0
ARC
  5
D4B5
  8
0
 10
98.0062664731858888
 20
156.3865042300861035
 30
0.0
 40
0.4680702297567731
 50
98.1723229993142041
 51
104.3229317739887989
  0
ARC
  5
D4B6
  8
0
 10
97.9389073461752844
 20
156.6333735450112101
 30
0.0
 40
0.2122520668033929
 50
103.1909439776118944
 51
114.2188027725283064
  0
ARC
  5
D4B7
  8
0
 10
97.8480725730188539
 20
156.8211021947269899
 30
0.0
 40
0.0027451796544249
 50
132.672027954649991
 51
179.7184672371373892
  0
ARC
  5
D4B8
  8
0
 10
97.8613719144344003
 20
156.8068687777823129
 30
0.0
 40
0.0222249261850437
 50
115.4058694642813947
 51
133.0093882407192041
  0
ARC
  5
D4B9
  8
0
 10
97.919744823333474
 20
156.7029303060168104
 30
0.0
 40
0.0725902397637113
 50
80.9646580209531095
 51
106.0187991083162018
  0
ARC
  5
D4BA
  8
0
 10
97.9110102612077213
 20
156.8460782713777917
 30
0.0
 40
0.0742408523376531
 50
261.2475455147397838
 51
285.7359116145310054
  0
ARC
  5
D4BB
  8
0
 10
97.9259216201191549
 20
156.715298777505609
 30
0.0
 40
0.0216849349825208
 50
277.6637144106925916
 51
355.5773390364515194
  0
ARC
  5
D4BC
  8
0
 10
97.8851400181015663
 20
156.9340627042986966
 30
0.0
 40
0.2441923799950021
 50
270.1741898250454028
 51
280.302703239799996
  0
ARC
  5
D4BD
  8
0
 10
97.871183261127058
 20
157.2054326345642039
 30
0.0
 40
0.515770682602674
 50
268.0944216709436887
 51
271.6331154728455886
  0
ARC
  5
D4BE
  8
0
 10
97.8649079335498868
 20
156.9875321790082126
 30
0.0
 40
0.2977836519097544
 50
266.3100243225417216
 51
267.9070406923943892
  0
ARC
  5
D4BF
  8
0
 10
97.8530426350048117
 20
156.821155947823911
 30
0.0
 40
0.1309936137193383
 50
260.5012073080378059
 51
266.8056441442323035
  0
ARC
  5
D4C0
  8
0
 10
97.8311698934199399
 20
156.7131326968589065
 30
0.0
 40
0.020215438433811
 50
185.1965280536234104
 51
214.2911249347770877
  0
ARC
  5
D4C1
  8
0
 10
97.8340932672066259
 20
156.7161674592140912
 30
0.0
 40
0.0243556639968696
 50
216.3152602811387055
 51
263.7107919659147797
  0
ARC
  5
D4C2
  8
0
 10
97.9188544020843352
 20
156.3367233195438928
 30
0.0
 40
0.4249779738878102
 50
85.7706414048098793
 51
104.9255123582118046
  0
ARC
  5
D4C3
  8
0
 10
99.8992122284450375
 20
156.6267505889389895
 30
0.0
 40
1.953602871260659
 50
176.0729976977690967
 51
177.4512375566889943
  0
LINE
  5
D4C4
  8
0
 10
97.8110351613590012
 20
156.7113536100455065
 30
0.0
 11
97.8084689587125098
 21
156.7397485029947006
 31
0.0
  0
ARC
  5
D4C5
  8
0
 10
97.8813820847071412
 20
156.570801238796605
 30
0.0
 40
0.1257226943235256
 50
80.0111908782345722
 51
101.6646497020683029
  0
ARC
  5
D4C6
  8
0
 10
97.8776090160262413
 20
156.8241706486087139
 30
0.0
 40
0.1320537689901128
 50
260.5669062652003731
 51
281.1694931516195197
  0
ARC
  5
D4C7
  8
0
 10
97.7874092148164635
 20
156.7462888271479926
 30
0.0
 40
0.0216849349825208
 50
277.6637144106925916
 51
355.5773390364515194
  0
ARC
  5
D4C8
  8
0
 10
97.7466276127988749
 20
156.965052753940995
 30
0.0
 40
0.2441923799950021
 50
270.1741898250454028
 51
280.302703239799996
  0
ARC
  5
D4C9
  8
0
 10
97.7326708558243666
 20
157.2364226842065875
 30
0.0
 40
0.515770682602674
 50
268.0944216709436887
 51
271.6331154728455886
  0
ARC
  5
D4CA
  8
0
 10
97.7263955282471954
 20
157.0185222286505962
 30
0.0
 40
0.2977836519097544
 50
266.3100243225417216
 51
267.9070406923943892
  0
ARC
  5
D4CB
  8
0
 10
97.7145302297021345
 20
156.8521459974662093
 30
0.0
 40
0.1309936137193383
 50
260.5012073080378059
 51
266.8056441442323035
  0
ARC
  5
D4CC
  8
0
 10
97.6926574881172627
 20
156.7441227465012048
 30
0.0
 40
0.020215438433811
 50
185.1965280536234104
 51
214.2911249347770877
  0
ARC
  5
D4CD
  8
0
 10
97.6955808619039487
 20
156.7471575088563895
 30
0.0
 40
0.0243556639968696
 50
216.3152602811387055
 51
263.7107919659147797
  0
ARC
  5
D4CE
  8
0
 10
97.7620513745162754
 20
156.5505137590953098
 30
0.0
 40
0.2460775440515198
 50
78.363950994830148
 51
112.0762356373138005
  0
ARC
  5
D4CF
  8
0
 10
99.7606998231423603
 20
156.6577406385812878
 30
0.0
 40
1.953602871260659
 50
176.0729976977690967
 51
177.4512375566889943
  0
LINE
  5
D4D0
  8
0
 10
97.6725227560563241
 20
156.7423436596878048
 30
0.0
 11
97.6695656056489838
 21
156.7785500286742035
 31
0.0
  0
ARC
  5
D4D1
  8
0
 10
97.742869679404464
 20
156.6017912884389034
 30
0.0
 40
0.1257226943235256
 50
80.0111908782345722
 51
101.6646497020683029
  0
ARC
  5
D4D2
  8
0
 10
97.7390966107235357
 20
156.8551606982510123
 30
0.0
 40
0.1320537689901128
 50
260.5669062652003731
 51
281.1694931516195197
  0
ARC
  5
D4D3
  8
0
 10
97.7884752301534093
 20
156.6838924161168052
 30
0.0
 40
0.0216849349825208
 50
277.6637144106925916
 51
355.5773390364515194
  0
ARC
  5
D4D4
  8
0
 10
97.7476936281358348
 20
156.9026563429098076
 30
0.0
 40
0.2441923799950021
 50
270.1741898250454028
 51
280.302703239799996
  0
ARC
  5
D4D5
  8
0
 10
97.7337368711613266
 20
157.1740262731754001
 30
0.0
 40
0.515770682602674
 50
268.0944216709436887
 51
271.6331154728455886
  0
ARC
  5
D4D6
  8
0
 10
97.7274615435841554
 20
156.9561258176194087
 30
0.0
 40
0.2977836519097544
 50
266.3100243225417216
 51
267.9070406923943892
  0
ARC
  5
D4D7
  8
0
 10
97.7155962450390803
 20
156.7897495864351072
 30
0.0
 40
0.1309936137193383
 50
260.5012073080378059
 51
266.8056441442323035
  0
ARC
  5
D4D8
  8
0
 10
97.6937235034541942
 20
156.6817263354701026
 30
0.0
 40
0.020215438433811
 50
185.1965280536234104
 51
214.2911249347770877
  0
ARC
  5
D4D9
  8
0
 10
97.6966468772408945
 20
156.6847610978252874
 30
0.0
 40
0.0243556639968696
 50
216.3152602811387055
 51
263.7107919659147797
  0
ARC
  5
D4DA
  8
0
 10
97.7819994028470632
 20
156.2447420722421043
 30
0.0
 40
0.4853706349223386
 50
86.7626055220518282
 51
86.7627058344600783
  0
ARC
  5
D4DB
  8
0
 10
99.761765838479306
 20
156.5953442275501004
 30
0.0
 40
1.953602871260659
 50
176.6743947429650063
 51
177.4512375566889943
  0
LINE
  5
D4DC
  8
0
 10
97.673588771393284
 20
156.679947248656589
 30
0.0
 11
97.6703676436792847
 21
156.7171010497052919
 31
0.0
  0
ARC
  5
D4DD
  8
0
 10
97.743935694741424
 20
156.5393948774078012
 30
0.0
 40
0.1257226943235256
 50
80.0111908782345722
 51
101.6646497020683029
  0
ARC
  5
D4DE
  8
0
 10
97.7401626260604814
 20
156.7927642872197964
 30
0.0
 40
0.1320537689901128
 50
260.5669062652003731
 51
281.1694931516195197
  0
ARC
  5
D4DF
  8
0
 10
97.8121596622338672
 20
156.464369180829209
 30
0.0
 40
0.2631619845593402
 50
90.563121238351016
 51
93.1805292569026022
  0
ARC
  5
D4E0
  8
0
 10
97.8437620301704385
 20
155.3299305715868002
 30
0.0
 40
1.3979655033762921
 50
95.5680795305838586
 51
97.1249381320079692
  0
ARC
  5
D4E1
  8
0
 10
97.5961143574912739
 20
156.5222509402377113
 30
0.0
 40
0.1398326005352084
 50
84.4052401907804182
 51
97.2780994239196843
  0
ARC
  5
D4E2
  8
0
 10
97.5922400206224268
 20
156.7849223138657919
 30
0.0
 40
0.1247395241183453
 50
263.6298376857045014
 51
278.067954712569076
  0
ARC
  5
D4E3
  8
0
 10
97.6374959161200167
 20
156.6816725941150139
 30
0.0
 40
0.0208505401650144
 50
274.3237236535366037
 51
355.4118651822382731
  0
ARC
  5
D4E4
  8
0
 10
97.5502306591396291
 20
156.6806344260108972
 30
0.0
 40
0.0206951081188115
 50
185.3985803135452954
 51
266.091261470475672
  0
ARC
  5
D4E5
  8
0
 10
97.5888710799444254
 20
157.172563571498813
 30
0.0
 40
0.5141384717672396
 50
265.532158255832428
 51
275.6028742910507958
  0
LINE
  5
D4E6
  8
0
 10
97.6605002287793837
 20
156.7153220703553131
 30
0.0
 11
97.6582796400034141
 21
156.6800047072148914
 31
0.0
  0
LINE
  5
D4E7
  8
0
 10
97.5296273483927223
 20
156.6786873548088863
 30
0.0
 11
97.5270034782215163
 21
156.7097380308451022
 31
0.0
  0
ARC
  5
D4E8
  8
0
 10
97.4826846710524251
 20
159.884963050413802
 30
0.0
 40
3.1746247518463999
 50
273.2109041170442083
 51
273.3911745245316069
  0
ARC
  5
D4E9
  8
0
 10
97.3997015358055762
 20
161.3516603450156026
 30
0.0
 40
4.6436675758861696
 50
271.5709087289794752
 51
273.2195523650760833
  0
ARC
  5
D4EA
  8
0
 10
99.2277397476206175
 20
155.4793035773022041
 30
0.0
 40
1.50783163279264
 50
107.1549682704821009
 51
109.2694400244785982
  0
ARC
  5
D4EB
  8
0
 10
97.3997015362413521
 20
161.3516603435618038
 30
0.0
 40
4.6436675743688873
 50
286.4930619036882717
 51
286.6488730020112143
  0
ARC
  5
D4EC
  8
0
 10
97.3997015358522447
 20
161.3516603448674971
 30
0.0
 40
4.6436675757313823
 50
285.9415651691866174
 51
286.4930619037178872
  0
ARC
  5
D4ED
  8
0
 10
98.6717725902454248
 20
156.7663268711567071
 30
0.0
 40
0.139505582584017
 50
88.6390219349897563
 51
105.7933797201562953
  0
ARC
  5
D4EE
  8
0
 10
97.6342179254395148
 20
160.3714907200474897
 30
0.0
 40
3.6358541754000449
 50
282.2643987292764223
 51
283.7985034181465949
  0
ARC
  5
D4EF
  8
0
 10
97.4723258083551514
 20
160.9551328336272036
 30
0.0
 40
4.2405585005291506
 50
279.7703589566834808
 51
280.8814776578602732
  0
ARC
  5
D4F0
  8
0
 10
98.1189246959877863
 20
157.1694333292134047
 30
0.0
 40
0.4000803498929486
 50
277.2234096269721135
 51
280.516728596069413
  0
ARC
  5
D4F1
  8
0
 10
96.5449841582723423
 20
167.8045084531736961
 30
0.0
 40
11.1528311917978904
 50
277.4084803547950742
 51
277.6819701715901942
  0
ARC
  5
D4F2
  8
0
 10
98.066152661278494
 20
157.0688764757258014
 30
0.0
 40
0.3662971544277305
 50
266.994739042054789
 51
273.8582343916377226
  0
ARC
  5
D4F3
  8
0
 10
98.0471469419438222
 20
156.7238555286054122
 30
0.0
 40
0.0207733952482896
 50
187.9460507104301996
 51
269.4528329945193832
  0
LINE
  5
D4F4
  8
0
 10
98.0266376696855986
 20
156.721154441183586
 30
0.0
 11
98.0231191546014173
 21
156.7500631696975972
 31
0.0
  0
LINE
  5
D4F5
  8
0
 10
98.0252263060560836
 20
156.7327504488812053
 30
0.0
 11
97.9828783540483528
 21
156.7308459005438124
 31
0.0
  0
LINE
  5
D4F6
  8
0
 10
98.0254765358257316
 20
156.7306945178125943
 30
0.0
 11
97.9828561167630454
 21
156.7291081704618136
 31
0.0
  0
ARC
  5
D4F7
  8
0
 10
98.0324732467138205
 20
156.230468288914409
 30
0.0
 40
0.5015957395333346
 50
90.817571039373675
 51
94.8410607379032484
  0
ARC
  5
D4F8
  8
0
 10
97.9925421168814239
 20
157.19973722030619
 30
0.0
 40
0.4694686985689983
 50
269.7071526775271195
 51
274.0119607228315886
  0
ARC
  5
D4F9
  8
0
 10
97.8345586983177924
 20
157.0901276099174879
 30
0.0
 40
0.0112347683927752
 50
358.4954658748700922
 51
28.8451828389904605
  0
ARC
  5
D4FA
  8
0
 10
97.824767215642737
 20
157.0829922534520904
 30
0.0
 40
0.0233038317281969
 50
32.6002502890991721
 51
67.8466879247787631
  0
ARC
  5
D4FB
  8
0
 10
97.797939336329307
 20
157.0206300422298966
 30
0.0
 40
0.0911884943649218
 50
67.0100680532804631
 51
88.3144944699700147
  0
ARC
  5
D4FC
  8
0
 10
97.7916412069046714
 20
156.9476908285392085
 30
0.0
 40
0.1643338086463484
 50
86.8674175102239445
 51
95.8528014613630859
  0
ARC
  5
D4FD
  8
0
 10
97.7276375824072403
 20
157.0787775194239941
 30
0.0
 40
0.0161566616620419
 50
123.6163412584165968
 51
180.9255750710609902
  0
ARC
  5
D4FE
  8
0
 10
97.7904201574022238
 20
156.953046715263099
 30
0.0
 40
0.1588827336039897
 50
95.611718332129044
 51
106.0736242122250985
  0
ARC
  5
D4FF
  8
0
 10
97.7658295785564349
 20
157.0305512745476904
 30
0.0
 40
0.0776299771557838
 50
104.4715362855280034
 51
127.3871998725129941
  0
ARC
  5
D500
  8
0
 10
97.8216468152335352
 20
157.0476852181398044
 30
0.0
 40
0.0224029542237933
 50
312.4514086810178242
 51
357.3878765802638213
  0
ARC
  5
D501
  8
0
 10
97.7379930634415643
 20
157.0449049833007109
 30
0.0
 40
0.0226947204593448
 50
185.3369175794084924
 51
233.8957188035145123
  0
ARC
  5
D502
  8
0
 10
97.8068885025392234
 20
157.0671987350594918
 30
0.0
 40
0.0468179671372134
 50
278.9489202280129803
 51
309.6581884024625992
  0
ARC
  5
D503
  8
0
 10
97.7513445883233061
 20
157.0666852454889124
 30
0.0
 40
0.048202946700043
 50
236.3294192342075064
 51
264.0319170928283938
  0
ARC
  5
D504
  8
0
 10
97.7736822739545346
 20
157.2217760578801915
 30
0.0
 40
0.2048662820879234
 50
262.3281339111342731
 51
281.3987503909241923
  0
ARC
  5
D505
  8
0
 10
97.7814043078295185
 20
156.9852925797918033
 30
0.0
 40
0.0457309482422066
 50
66.1067880087332185
 51
116.9398207039485982
  0
ARC
  5
D506
  8
0
 10
97.7790325132359612
 20
157.0744814533721865
 30
0.0
 40
0.0517798412711083
 50
249.2480131688114966
 51
293.7985955438771271
  0
LINE
  5
D507
  8
0
 10
97.8457904877315769
 20
157.0898326275261923
 30
0.0
 11
97.8440264916433193
 21
157.0466642177744063
 31
0.0
  0
LINE
  5
D508
  8
0
 10
97.7114830288404335
 20
157.0785165306917008
 30
0.0
 11
97.7153967251844051
 21
157.0427940986292867
 31
0.0
  0
ARC
  5
D509
  8
0
 10
97.7758304091363328
 20
156.9983697964721046
 30
0.0
 40
0.0094315171272492
 50
358.7480624874456225
 51
39.859076671518423
  0
ARC
  5
D50A
  8
0
 10
97.7625516198234266
 20
156.9850923170351962
 30
0.0
 40
0.0281843960613103
 50
43.2798274287833706
 51
71.3197639046442617
  0
ARC
  5
D50B
  8
0
 10
97.7365081972728262
 20
156.9102228397204044
 30
0.0
 40
0.1074533871915511
 50
70.9508760341829117
 51
88.365151171525028
  0
ARC
  5
D50C
  8
0
 10
97.7304982186399656
 20
156.8287464167476912
 30
0.0
 40
0.189103976758017
 50
87.2491723873867357
 51
94.9862057827060653
  0
ARC
  5
D50D
  8
0
 10
97.6657259281806347
 20
156.9875216331487024
 30
0.0
 40
0.015610731296275
 50
117.3169000555418933
 51
175.9247990177258032
  0
ARC
  5
D50E
  8
0
 10
97.7290072140282007
 20
156.837513820885107
 30
0.0
 40
0.1802416109449388
 50
94.7562690300663348
 51
103.9330526153178056
  0
ARC
  5
D50F
  8
0
 10
97.7047543582078788
 20
156.9270399263704121
 30
0.0
 40
0.0875322225229829
 50
102.6352796753596976
 51
121.8514347581693045
  0
ARC
  5
D510
  8
0
 10
97.761399394099044
 20
156.955685315957794
 30
0.0
 40
0.0213801960753922
 50
312.3166310702499118
 51
356.5537065898702735
  0
ARC
  5
D511
  8
0
 10
97.6757826056316247
 20
156.9539991248190915
 30
0.0
 40
0.0219736413143731
 50
186.4215989961458035
 51
232.7191031500126996
  0
ARC
  5
D512
  8
0
 10
97.7389801723342941
 20
157.0010745677757029
 30
0.0
 40
0.071417460752343
 50
281.601955509169386
 51
301.0283066571658992
  0
ARC
  5
D513
  8
0
 10
97.7173708764496638
 20
157.0930889289653862
 30
0.0
 40
0.1659190611383105
 50
250.6782004344586028
 51
282.5214711703357011
  0
LINE
  5
D514
  8
0
 10
97.7852596748549558
 20
156.9981637301503099
 30
0.0
 11
97.7827409258895983
 21
156.9544000902752998
 31
0.0
  0
LINE
  5
D515
  8
0
 10
97.6501546665055855
 20
156.988631021021007
 30
0.0
 11
97.6539468307287848
 21
156.9515415147999988
 31
0.0
  0
ARC
  5
D516
  8
0
 10
97.7147564661424042
 20
156.9212757401053011
 30
0.0
 40
0.0112347683927752
 50
358.4954658748700922
 51
28.8451828389904605
  0
ARC
  5
D517
  8
0
 10
97.7049649834673346
 20
156.9141403836399888
 30
0.0
 40
0.0233038317281969
 50
32.6002502890991721
 51
36.1095632144555125
  0
ARC
  5
D518
  8
0
 10
97.6653373176341972
 20
156.7769526819112116
 30
0.0
 40
0.1595590524822267
 50
91.0002056152407448
 51
93.8188489665346026
  0
ARC
  5
D519
  8
0
 10
97.5995897206828431
 20
156.9116403574564913
 30
0.0
 40
0.0106564537312202
 50
114.6522109642814939
 51
191.9537656140581987
  0
ARC
  5
D51A
  8
0
 10
97.6678706279251116
 20
156.7213453930650928
 30
0.0
 40
0.2152148078486042
 50
93.5057976654059644
 51
100.8307704631578048
  0
ARC
  5
D51B
  8
0
 10
97.6415607857428824
 20
156.8412978887984934
 30
0.0
 40
0.0925141489616466
 50
98.7859398008736775
 51
120.1136955558135071
  0
ARC
  5
D51C
  8
0
 10
97.7018445830581328
 20
156.8788333483275892
 30
0.0
 40
0.0224029542237933
 50
312.4514086810178242
 51
357.3878765802638213
  0
ARC
  5
D51D
  8
0
 10
97.6141385430734232
 20
156.8740972466335108
 30
0.0
 40
0.0216325241197776
 50
185.7961424292608115
 51
240.1961606420499038
  0
ARC
  5
D51E
  8
0
 10
97.687086270363821
 20
156.898346865247305
 30
0.0
 40
0.0468179671372134
 50
278.9489202280129803
 51
309.6581884024625992
  0
ARC
  5
D51F
  8
0
 10
97.6509462270289816
 20
157.0781604401180971
 30
0.0
 40
0.2301942742003696
 50
263.8947301577817939
 51
280.873150871437872
  0
LINE
  5
D520
  8
0
 10
97.7259882555561745
 20
156.9209807577140054
 30
0.0
 11
97.7242242594679311
 21
156.8778123479621911
 31
0.0
  0
LINE
  5
D521
  8
0
 10
97.589164351564861
 20
156.9094331680944947
 30
0.0
 11
97.5926166150077421
 21
156.8719125928558924
 31
0.0
  0
ARC
  5
D522
  8
0
 10
97.6289452866314775
 20
156.9057405110685863
 30
0.0
 40
0.056523219227964
 50
243.1162116930312038
 51
267.4837814146740129
  0
ARC
  5
D523
  8
0
 10
97.7196936525164688
 20
156.8836147256621132
 30
0.0
 40
0.0549171997224804
 50
70.1993024925530591
 51
111.9654067337842065
  0
ARC
  5
D524
  8
0
 10
97.7175409062134435
 20
156.9975594566379016
 30
0.0
 40
0.0656422986156257
 50
253.7316042912023022
 51
288.433104935134395
  0
ARC
  5
D525
  8
0
 10
97.6584003410436026
 20
156.8052019756393918
 30
0.0
 40
0.0523196054868349
 50
73.4931857207520949
 51
108.5208973858407973
  0
ARC
  5
D526
  8
0
 10
97.6566150417147156
 20
156.9067663928580032
 30
0.0
 40
0.0540307776477418
 50
254.0649110130019039
 51
287.9491718847538095
  0
ARC
  5
D527
  8
0
 10
97.606975752010996
 20
156.6827298870167908
 30
0.0
 40
0.189103976758017
 50
94.3329606712960782
 51
94.9862057827060653
  0
ARC
  5
D528
  8
0
 10
97.5422034615516509
 20
156.8415051034178873
 30
0.0
 40
0.015610731296275
 50
117.3169000555418933
 51
175.9247990177258032
  0
ARC
  5
D529
  8
0
 10
97.6054847473992169
 20
156.6914972911542066
 30
0.0
 40
0.1802416109449388
 50
94.7562690300663348
 51
103.9330526153178056
  0
ARC
  5
D52A
  8
0
 10
97.5812318915788808
 20
156.7810233966395117
 30
0.0
 40
0.0875322225229829
 50
102.6352796753596976
 51
121.8514347581693045
  0
ARC
  5
D52B
  8
0
 10
97.637876927470046
 20
156.8096687862268936
 30
0.0
 40
0.0213801960753922
 50
312.3166310702499118
 51
356.5537065898702735
  0
ARC
  5
D52C
  8
0
 10
97.5522601390026267
 20
156.8079825950881911
 30
0.0
 40
0.0219736413143731
 50
186.4215989961458035
 51
232.7191031500126996
  0
ARC
  5
D52D
  8
0
 10
97.6154577057052961
 20
156.8550580380448878
 30
0.0
 40
0.071417460752343
 50
281.601955509169386
 51
301.0283066571658992
  0
ARC
  5
D52E
  8
0
 10
97.5938484098206658
 20
156.9470723992345995
 30
0.0
 40
0.1659190611383105
 50
250.6782004344586028
 51
282.5214711703357011
  0
LINE
  5
D52F
  8
0
 10
97.6615105343311143
 20
156.8482087076048117
 30
0.0
 11
97.6592184592606003
 21
156.8083835605445131
 31
0.0
  0
LINE
  5
D530
  8
0
 10
97.5266321998765733
 20
156.8426144912901066
 30
0.0
 11
97.5304243640997868
 21
156.8055249850690984
 31
0.0
  0
ARC
  5
D531
  8
0
 10
97.596171185887485
 20
156.7375981959312128
 30
0.0
 40
0.0549171997224804
 50
70.1993024925530591
 51
111.9654067337842065
  0
ARC
  5
D532
  8
0
 10
97.5940184395844454
 20
156.8515429269070864
 30
0.0
 40
0.0656422986156257
 50
253.7316042912023022
 51
288.433104935134395
  0
ARC
  5
D533
  8
0
 10
97.4543962278296902
 20
154.6604939299855062
 30
0.0
 40
2.1098724666006161
 50
84.1035390455573832
 51
89.3895602875239348
  0
LINE
  5
D534
  8
0
 10
97.6732833976041803
 20
156.683469554511305
 30
0.0
 11
97.6649916993798257
 21
156.6833964459401045
 31
0.0
  0
LINE
  5
D535
  8
0
 10
97.6649916993798257
 20
156.6833964459401045
 30
0.0
 11
97.6584892917137921
 21
156.6833391136879072
 31
0.0
  0
LINE
  5
D536
  8
0
 10
97.6735435491363972
 20
156.6804688606148943
 30
0.0
 11
97.6582958049434637
 21
156.6802618025689071
 31
0.0
  0
LINE
  5
D537
  8
0
 10
97.6733934017473757
 20
156.6822007218495969
 30
0.0
 11
97.658424844336551
 21
156.6823141101166925
 31
0.0
  0
LINE
  5
D538
  8
0
 10
97.6583579450729076
 20
156.6812501105083015
 30
0.0
 11
97.673420538455261
 21
156.681887715990996
 31
0.0
  0
ARC
  5
D539
  8
0
 10
125.1876118364723993
 20
154.9083305949561975
 30
0.0
 40
28.3775537745240207
 50
176.4296278413052903
 51
178.4771495630106983
  0
ARC
  5
D53A
  8
0
 10
101.590031542935705
 20
154.2299110893457907
 30
0.0
 40
4.9861559874199664
 50
172.9647808502201087
 51
187.8308002401032866
  0
ARC
  5
D53B
  8
0
 10
96.6804901433801547
 20
154.835790339348307
 30
0.0
 40
0.0393705241592244
 50
89.9983748187947867
 51
172.9644769690169142
  0
LINE
  5
D53C
  8
0
 10
96.680491260115744
 20
154.875160863491601
 30
0.0
 11
96.7974899392114594
 21
154.8751603605915932
 31
0.0
  0
ARC
  5
D53D
  8
0
 10
96.757920273056925
 20
154.8226846285492968
 30
0.0
 40
0.0393678217427072
 50
12.8136383673327199
 51
89.9999999999763958
  0
ARC
  5
D53E
  8
0
 10
96.7109625632804324
 20
154.7756642181990117
 30
0.0
 40
0.0882791973308062
 50
101.8806301204488989
 51
143.6329564215552068
  0
LINE
  5
D53F
  8
0
 10
96.8445342689157371
 20
153.4526298654915877
 30
0.0
 11
97.0531956863157461
 21
153.4526298654915877
 31
0.0
  0
LINE
  5
D540
  8
0
 10
97.0531956863157461
 20
153.4526298654915877
 30
0.0
 11
97.0531956863157461
 21
154.3473411604915952
 31
0.0
  0
LINE
  5
D541
  8
0
 10
96.7579202730569392
 20
154.8620524502919977
 30
0.0
 11
96.6927882273479185
 21
154.8620523550858934
 31
0.0
  0
ARC
  5
D542
  8
0
 10
499.1397197539595254
 20
144.0136570090519115
 30
0.0
 40
402.4888136628579787
 50
178.4598663601724127
 51
178.502306154174903
  0
ARC
  5
D543
  8
0
 10
39.6682873008395589
 20
156.3972364524435079
 30
0.0
 40
57.149475148294627
 50
358.4299741719186159
 51
358.4738468872524777
  0
ARC
  5
D544
  8
0
 10
300.2403953481987173
 20
149.4316808711122064
 30
0.0
 40
203.5157174033556089
 50
178.2455684687172948
 51
178.4673144424536133
  0
ARC
  5
D545
  8
0
 10
98.0919975665104715
 20
154.956131466131211
 30
0.0
 40
1.204049410338619
 50
206.7792673837764141
 51
210.3724541696446977
  0
ARC
  5
D546
  8
0
 10
97.3902079785336241
 20
154.8167151348023083
 30
0.0
 40
0.5778314744509375
 50
234.3215097030200127
 51
271.7174917090038093
  0
ARC
  5
D547
  8
0
 10
97.406024566864005
 20
154.9045687522398964
 30
0.0
 40
0.6487600224563753
 50
254.3556267176215897
 51
270.1326352820847774
  0
ARC
  5
D548
  8
0
 10
97.3394876813733276
 20
154.6977788101251861
 30
0.0
 40
0.4317680388255363
 50
222.4001428347062017
 51
255.4581445405123077
  0
ARC
  5
D549
  8
0
 10
97.4030029834712963
 20
156.4149323648962877
 30
0.0
 40
2.0383961639126831
 50
260.7026707666511243
 51
270.1271453434222849
  0
LINE
  5
D54A
  8
0
 10
97.001187464631883
 20
154.4165420333700069
 30
0.0
 11
97.0736841430157256
 21
154.4033141052915994
 31
0.0
  0
ARC
  5
D54B
  8
0
 10
97.2686482731777176
 20
155.8270073692843027
 30
0.0
 40
1.435600135108601
 50
254.0233343585634884
 51
259.2627199083415235
  0
ARC
  5
D54C
  8
0
 10
96.9144870645709346
 20
154.5991180403592864
 30
0.0
 40
0.1576779907900443
 50
232.2208896731480934
 51
254.9353978572644053
  0
ARC
  5
D54D
  8
0
 10
96.859259410053582
 20
154.5326045039587086
 30
0.0
 40
0.0708585677516579
 50
179.3638262645403074
 51
202.3349329171059878
  0
ARC
  5
D54E
  8
0
 10
96.8688681125245097
 20
154.5389721087788928
 30
0.0
 40
0.0821967101924017
 50
203.8954141966405871
 51
231.6699966212428876
  0
LINE
  5
D54F
  8
0
 10
96.8051703880344405
 20
154.4870211794201964
 30
0.0
 11
96.8051641902157485
 21
153.4919999442915923
 31
0.0
  0
ARC
  5
D550
  8
0
 10
96.8445342690881716
 20
153.4919999443640961
 30
0.0
 40
0.0393700788724374
 50
180.000000105417314
 51
269.9999997490485839
  0
ARC
  5
D551
  8
0
 10
96.8091080743924834
 20
154.476249766645509
 30
0.0
 40
0.0118179001716162
 50
110.6626167022781999
 51
179.9895950112278058
  0
LINE
  5
D552
  8
0
 10
96.7972901745157372
 20
154.4762519127916107
 30
0.0
 11
96.7972902413157357
 21
153.4149206871915965
 31
0.0
  0
ARC
  5
D553
  8
0
 10
96.8137300305890136
 20
153.5670549854604872
 30
0.0
 40
0.0164509058313471
 50
182.1055519107075895
 51
238.5878564032269935
  0
ARC
  5
D554
  8
0
 10
96.6898235633842518
 20
153.4222812402553018
 30
0.0
 40
0.1077184506342079
 50
309.2106747245060774
 51
356.0818457533628134
  0
ARC
  5
D555
  8
0
 10
97.23599779491785
 20
153.392540868316587
 30
0.0
 40
0.3076324157200114
 50
168.7361580983508986
 51
190.0573210535739861
  0
LINE
  5
D556
  8
0
 10
96.7579203317570773
 20
153.3388181062128126
 30
0.0
 11
96.9330926018157442
 21
153.3388179942915883
 31
0.0
  0
ARC
  5
D557
  8
0
 10
97.6718315034256221
 20
153.8181497945901128
 30
0.0
 40
0.8806214507546325
 50
212.9775813231530037
 51
230.8752411445443045
  0
ARC
  5
D558
  8
0
 10
97.4075263954658652
 20
153.6546884228010867
 30
0.0
 40
0.7642807613245056
 50
187.8308002708008075
 51
217.7092580964784077
  0
ARC
  5
D559
  8
0
 10
97.407526394915763
 20
153.6546884224916028
 30
0.0
 40
0.7642807607000288
 50
217.7092581033508054
 51
247.5877159536993872
  0
ARC
  5
D55A
  8
0
 10
98.2354654956327238
 20
155.0178759472943
 30
0.0
 40
1.456788433921274
 50
203.3693209355253941
 51
209.3545149126217098
  0
ARC
  5
D55B
  8
0
 10
96.9179137226251584
 20
154.2760415145353079
 30
0.0
 40
0.0552545974858835
 50
3.4038326086482611
 51
30.0862486535644784
  0
ARC
  5
D55C
  8
0
 10
97.0027556869887633
 20
154.3199620192083898
 30
0.0
 40
0.0503268179454661
 50
233.8542415194696105
 51
271.5342196308336042
  0
ARC
  5
D55D
  8
0
 10
98.1877494086814551
 20
154.7572949543121013
 30
0.0
 40
1.375246319938449
 50
192.6010417656908089
 51
208.9856231033093081
  0
LINE
  5
D55E
  8
0
 10
96.9847659662157469
 20
154.0908641410916005
 30
0.0
 11
97.0531956863157461
 21
154.0908641410916005
 31
0.0
  0
LINE
  5
D55F
  8
0
 10
96.9730708432493316
 20
154.2793221538460102
 30
0.0
 11
96.9730730936436913
 21
154.1138681510336994
 31
0.0
  0
LINE
  5
D560
  8
0
 10
97.0041033023157553
 20
154.2696532427916054
 30
0.0
 11
97.0531956863157461
 21
154.2696532427916054
 31
0.0
  0
ARC
  5
D561
  8
0
 10
97.3900851519809407
 20
153.8731872386495922
 30
0.0
 40
0.4908584591487006
 50
226.659933912505295
 51
272.0362692544812262
  0
ARC
  5
D562
  8
0
 10
97.3880915290252034
 20
154.2943376195759129
 30
0.0
 40
0.5235704444667937
 50
230.2351272415430117
 51
272.1273004708899066
  0
ARC
  5
D563
  8
0
 10
97.3902610312510006
 20
154.2497572634345886
 30
0.0
 40
0.5260662833406398
 50
230.1405945411650862
 51
271.8807708451610097
  0
ARC
  5
D564
  8
0
 10
97.3972699847386565
 20
154.2568117927278024
 30
0.0
 40
0.5442824541402631
 50
230.7902407822722921
 51
271.0797404515595872
  0
ARC
  5
D565
  8
0
 10
93.2250212462957677
 20
154.2299110893457907
 30
0.0
 40
4.9861559874199664
 50
352.1691997598966282
 51
7.0352191497799357
  0
ARC
  5
D566
  8
0
 10
98.1345626458513465
 20
154.835790339348307
 30
0.0
 40
0.0393705241592244
 50
7.035523030983093
 51
90.0016251812052133
  0
LINE
  5
D567
  8
0
 10
98.1345615291157429
 20
154.875160863491601
 30
0.0
 11
98.0175628500200276
 21
154.8751603605915932
 31
0.0
  0
ARC
  5
D568
  8
0
 10
98.0571325161745619
 20
154.8226846285492968
 30
0.0
 40
0.039367821742708
 50
90.0000000000260485
 51
167.1863616326673991
  0
ARC
  5
D569
  8
0
 10
98.1040902259510545
 20
154.7756642181990117
 30
0.0
 40
0.0882791973308062
 50
36.3670435784448216
 51
78.1193698795511153
  0
LINE
  5
D56A
  8
0
 10
97.9705185203157356
 20
153.4526298654915877
 30
0.0
 11
97.7618571029157408
 21
153.4526298654915877
 31
0.0
  0
LINE
  5
D56B
  8
0
 10
97.7618571029157408
 20
153.4526298654915877
 30
0.0
 11
97.7618571029157408
 21
154.3473411604915952
 31
0.0
  0
LINE
  5
D56C
  8
0
 10
98.0571325161745335
 20
154.8620524502919977
 30
0.0
 11
98.1222645618835543
 21
154.8620523550858934
 31
0.0
  0
ARC
  5
D56D
  8
0
 10
-304.32466696472801
 20
144.0136570090519115
 30
0.0
 40
402.4888136628579787
 50
1.4976938458251079
 51
1.54013363982761
  0
ARC
  5
D56E
  8
0
 10
155.1467654883919067
 20
156.3972364524435079
 30
0.0
 40
57.149475148294627
 50
181.5261531127474939
 51
181.5700258280814126
  0
ARC
  5
D56F
  8
0
 10
96.7230552227210438
 20
154.956131466131211
 30
0.0
 40
1.204049410338619
 50
329.6275458303553023
 51
333.2207326162236996
  0
ARC
  5
D570
  8
0
 10
97.4248448106978771
 20
154.8167151348023083
 30
0.0
 40
0.5778314744509375
 50
268.2825082909961907
 51
305.6784902969799873
  0
ARC
  5
D571
  8
0
 10
97.4090282223674819
 20
154.9045687522398964
 30
0.0
 40
0.6487600224563753
 50
269.8673647179152226
 51
285.6443732823784103
  0
ARC
  5
D572
  8
0
 10
97.4755651078581593
 20
154.6977788101251861
 30
0.0
 40
0.4317680388255363
 50
284.5418554594876923
 51
317.5998571652938267
  0
ARC
  5
D573
  8
0
 10
97.4120498057601765
 20
156.4149323648962877
 30
0.0
 40
2.0383961639126662
 50
269.8728546565777151
 51
279.2973292333488757
  0
LINE
  5
D574
  8
0
 10
97.8138653245995755
 20
154.4165420333700069
 30
0.0
 11
97.741368646215733
 21
154.4033141052915994
 31
0.0
  0
ARC
  5
D575
  8
0
 10
97.5464045160537694
 20
155.8270073692843027
 30
0.0
 40
1.435600135108601
 50
280.7372800916584197
 51
285.9766656414365116
  0
ARC
  5
D576
  8
0
 10
97.9005657246605381
 20
154.5991180403592864
 30
0.0
 40
0.1576779907900443
 50
285.0646021427356231
 51
307.7791103268518782
  0
ARC
  5
D577
  8
0
 10
97.955793379177905
 20
154.5326045039587086
 30
0.0
 40
0.0708585677516579
 50
337.6650670828939838
 51
0.636173735459696
  0
ARC
  5
D578
  8
0
 10
97.946184676706963
 20
154.5389721087788928
 30
0.0
 40
0.0821967101924017
 50
308.3300033787569987
 51
336.1045858033593845
  0
LINE
  5
D579
  8
0
 10
98.0098824011970748
 20
154.4870211794201964
 30
0.0
 11
98.0098885990157385
 21
153.4919999442915923
 31
0.0
  0
ARC
  5
D57A
  8
0
 10
97.9705185201433011
 20
153.4919999443640961
 30
0.0
 40
0.0393700788724374
 50
270.0000002509514161
 51
359.999999894582686
  0
ARC
  5
D57B
  8
0
 10
98.0059447148389893
 20
154.476249766645509
 30
0.0
 40
0.0118179001716162
 50
0.0104049887721738
 51
69.3373832977217859
  0
LINE
  5
D57C
  8
0
 10
98.0177626147157355
 20
154.4762519127916107
 30
0.0
 11
98.0177625479157371
 21
153.4149206871915965
 31
0.0
  0
ARC
  5
D57D
  8
0
 10
98.0013227586425018
 20
153.5670549854604872
 30
0.0
 40
0.0164509058313471
 50
301.4121435967729781
 51
357.8944480892923252
  0
ARC
  5
D57E
  8
0
 10
98.1252292258472352
 20
153.4222812402553018
 30
0.0
 40
0.1077184506342079
 50
183.9181542466371866
 51
230.7893252754938089
  0
ARC
  5
D57F
  8
0
 10
97.5790549943136227
 20
153.392540868316587
 30
0.0
 40
0.3076324157200114
 50
349.9426789464259855
 51
11.2638419016490694
  0
LINE
  5
D580
  8
0
 10
98.0571324574743954
 20
153.3388181062128126
 30
0.0
 11
97.8819601874157428
 21
153.3388179942915883
 31
0.0
  0
ARC
  5
D581
  8
0
 10
97.1432212858058506
 20
153.8181497945901128
 30
0.0
 40
0.8806214507546325
 50
309.1247588554556955
 51
327.0224186768468826
  0
ARC
  5
D582
  8
0
 10
97.4075263937656217
 20
153.6546884228010867
 30
0.0
 40
0.7642807613245056
 50
322.2907419035216208
 51
352.1691997291990788
  0
ARC
  5
D583
  8
0
 10
97.4075263943157239
 20
153.6546884224916028
 30
0.0
 40
0.7642807607000288
 50
292.4122840463006128
 51
322.2907418966490809
  0
ARC
  5
D584
  8
0
 10
96.5795872935987632
 20
155.0178759472943
 30
0.0
 40
1.456788433921274
 50
330.6454850873782902
 51
336.6306790644745774
  0
ARC
  5
D585
  8
0
 10
97.8971390666063144
 20
154.2760415145353079
 30
0.0
 40
0.0552545974858835
 50
149.9137513464355038
 51
176.5961673913517131
  0
ARC
  5
D586
  8
0
 10
97.8122971022427237
 20
154.3199620192083898
 30
0.0
 40
0.0503268179454661
 50
268.4657803691662821
 51
306.1457584805303895
  0
ARC
  5
D587
  8
0
 10
96.6273033805500603
 20
154.7572949543121013
 30
0.0
 40
1.375246319938449
 50
331.0143768966906919
 51
347.3989582343091911
  0
LINE
  5
D588
  8
0
 10
97.8302868230157543
 20
154.0908641410916005
 30
0.0
 11
97.7618571029157408
 21
154.0908641410916005
 31
0.0
  0
LINE
  5
D589
  8
0
 10
97.8419819459821554
 20
154.2793221538460102
 30
0.0
 11
97.8419796955877814
 21
154.1138681510336994
 31
0.0
  0
LINE
  5
D58A
  8
0
 10
97.8109494869157459
 20
154.2696532427916054
 30
0.0
 11
97.7618571029157408
 21
154.2696532427916054
 31
0.0
  0
ARC
  5
D58B
  8
0
 10
97.4249676372505746
 20
153.8731872386495922
 30
0.0
 40
0.4908584591487006
 50
267.9637307455187738
 51
313.3400660874946766
  0
ARC
  5
D58C
  8
0
 10
97.4269612602062693
 20
154.2943376195759129
 30
0.0
 40
0.5235704444667937
 50
267.8726995291102071
 51
309.7648727584569883
  0
ARC
  5
D58D
  8
0
 10
97.4247917579804863
 20
154.2497572634345886
 30
0.0
 40
0.5260662833406398
 50
268.1192291548380808
 51
309.8594054588349991
  0
ARC
  5
D58E
  8
0
 10
97.4206732465666647
 20
154.2484481787716959
 30
0.0
 40
0.5359834564829649
 50
268.594481462948977
 51
309.5355373032173247
  0
ARC
  5
D58F
  8
0
 10
69.6274409527590308
 20
154.9083305949561975
 30
0.0
 40
28.3775537745240207
 50
1.522850436989283
 51
3.5703721586946768
  0
ARC
  5
D590
  8
0
 10
-105.425342558967202
 20
149.4316808711122064
 30
0.0
 40
203.5157174033556089
 50
1.5326855575463989
 51
1.7544315312826999
  0
ARC
  5
D591
  8
0
 10
97.4005538589076139
 20
156.4602063842586972
 30
0.0
 40
0.0540196013278859
 50
187.1248371556688994
 51
231.5188191712620096
  0
ARC
  5
D592
  8
0
 10
97.4111419780839327
 20
156.4619810792439125
 30
0.0
 40
0.0575179635138237
 50
309.9990665405578056
 51
349.9902720374569753
  0
LINE
  5
D593
  8
0
 10
97.3669397541157622
 20
156.4179191605774975
 30
0.0
 11
97.4481130945157474
 21
156.4179191605774975
 31
0.0
  0
LINE
  5
D594
  8
0
 10
97.3469513826460258
 20
156.4535062449876932
 30
0.0
 11
97.3294162188157372
 21
156.708624063991607
 31
0.0
  0
LINE
  5
D595
  8
0
 10
97.4678147425989323
 20
156.4519836408038032
 30
0.0
 11
97.4856406737260528
 21
156.7086881274022971
 31
0.0
  0
LINE
  5
D596
  8
0
 10
97.3362825044157347
 20
156.7960108236916028
 30
0.0
 11
97.339265594715755
 21
156.7554324940915933
 31
0.0
  0
LINE
  5
D597
  8
0
 10
97.4757891969090906
 20
156.7554913604564888
 30
0.0
 11
97.4787702854157345
 21
156.7960108236916028
 31
0.0
  0
ARC
  5
D598
  8
0
 10
97.3596482587503829
 20
156.7569590001272104
 30
0.0
 40
0.0204397459334931
 50
184.2830210821975925
 51
221.8184578344688873
  0
ARC
  5
D599
  8
0
 10
97.3626941097912351
 20
156.7602608275294074
 30
0.0
 40
0.0249149766916466
 50
222.8069755220936941
 51
258.2677214298960848
  0
ARC
  5
D59A
  8
0
 10
97.406526797852635
 20
157.1283588910160063
 30
0.0
 40
0.3963655081711592
 50
265.5411736142240784
 51
270.1444947536315908
  0
ARC
  5
D59B
  8
0
 10
97.3836430750454554
 20
156.8493457717920876
 30
0.0
 40
0.1164232105329507
 50
257.0880570821212245
 51
266.0939653251988943
  0
ARC
  5
D59C
  8
0
 10
97.3404617559780689
 20
156.7959193728196965
 30
0.0
 40
0.0041802520119305
 50
119.9870861088194971
 51
178.7464470982637863
  0
ARC
  5
D59D
  8
0
 10
97.407043446817724
 20
156.4714394858258117
 30
0.0
 40
0.3386055415593191
 50
89.9182798964098424
 51
95.1227760899423913
  0
ARC
  5
D59E
  8
0
 10
97.3601689447410337
 20
156.7643208951529061
 30
0.0
 40
0.0414183063817446
 50
99.9790496521614358
 51
121.7526179421932966
  0
ARC
  5
D59F
  8
0
 10
97.3918331810302931
 20
156.6277163201494034
 30
0.0
 40
0.1815987387245389
 50
94.7455791331115762
 51
102.3502140729500951
  0
ARC
  5
D5A0
  8
0
 10
97.4551466467368357
 20
156.7570498014395923
 30
0.0
 40
0.020703814151957
 50
303.5252631016247733
 51
355.5196956899188763
  0
ARC
  5
D5A1
  8
0
 10
97.407626202040646
 20
157.1871766614162027
 30
0.0
 40
0.4551820290668978
 50
269.9874368347119002
 51
271.8735886357840741
  0
ARC
  5
D5A2
  8
0
 10
97.4146267268106953
 20
157.017636877920296
 30
0.0
 40
0.2855077055367131
 50
271.5818443260988033
 51
276.080578332642915
  0
ARC
  5
D5A3
  8
0
 10
97.4430706034292626
 20
156.7821423152007014
 30
0.0
 40
0.0484402714766225
 50
272.1284902579233176
 51
299.0359059987007981
  0
ARC
  5
D5A4
  8
0
 10
97.4078230759951822
 20
156.4641980317393859
 30
0.0
 40
0.3458467784877524
 50
85.6020739668250883
 51
90.0491506471777967
  0
ARC
  5
D5A5
  8
0
 10
97.4751817490350163
 20
156.7960580725876127
 30
0.0
 40
0.0035888474213741
 50
359.2456518162230736
 51
47.3020940557467497
  0
ARC
  5
D5A6
  8
0
 10
97.4653829587820155
 20
156.7850193476222103
 30
0.0
 40
0.0183487234365939
 50
48.1895881311101917
 51
71.8425598249570641
  0
ARC
  5
D5A7
  8
0
 10
97.4257681014861845
 20
156.6549873795391079
 30
0.0
 40
0.1542776143047924
 50
72.9120390271226171
 51
86.8135717664922453
  0
ARC
  5
D5A8
  8
0
 10
97.4075238935412955
 20
156.630189681865005
 30
0.0
 40
0.1097010990551446
 50
77.5618130497229004
 51
102.4355764431457061
  0
ARC
  5
D5A9
  8
0
 10
97.4075288330482465
 20
156.8470156755111873
 30
0.0
 40
0.1122144246944877
 50
257.8446745656685835
 51
282.1527149271993267
  0
LINE
  5
D5AA
  8
0
 10
97.3362805225275451
 20
156.7077461639001115
 30
0.0
 11
97.339263612827537
 21
156.667167834300102
 31
0.0
  0
LINE
  5
D5AB
  8
0
 10
97.4757872150208726
 20
156.6672267006649975
 30
0.0
 11
97.4787683035275307
 21
156.7077461639001115
 31
0.0
  0
ARC
  5
D5AC
  8
0
 10
97.3596462768621791
 20
156.6686943403356906
 30
0.0
 40
0.0204397459334931
 50
184.2830210821975925
 51
221.8184578344688873
  0
ARC
  5
D5AD
  8
0
 10
97.3626921279030171
 20
156.6719961677378876
 30
0.0
 40
0.0249149766916466
 50
222.8069755220936941
 51
258.2677214298960848
  0
ARC
  5
D5AE
  8
0
 10
97.406524815964417
 20
157.0400942312244865
 30
0.0
 40
0.3963655081711592
 50
265.5411736142240784
 51
270.1444947536315908
  0
ARC
  5
D5AF
  8
0
 10
97.3836410931572232
 20
156.7610811120007099
 30
0.0
 40
0.1164232105329507
 50
257.0880570821212245
 51
266.0939653251988943
  0
ARC
  5
D5B0
  8
0
 10
97.3404597740898652
 20
156.7076547130282052
 30
0.0
 40
0.0041802520119305
 50
167.7156035342651137
 51
178.7464470982637863
  0
ARC
  5
D5B1
  8
0
 10
97.4551446648486461
 20
156.668785141648101
 30
0.0
 40
0.020703814151957
 50
303.5252631016247733
 51
355.5196956899188763
  0
ARC
  5
D5B2
  8
0
 10
97.4076242201524138
 20
157.0989120016247966
 30
0.0
 40
0.4551820290668978
 50
269.9874368347119002
 51
271.8735886357840741
  0
ARC
  5
D5B3
  8
0
 10
97.4146247449225058
 20
156.9293722181288047
 30
0.0
 40
0.2855077055367131
 50
271.5818443260988033
 51
276.080578332642915
  0
ARC
  5
D5B4
  8
0
 10
97.4430686215410446
 20
156.6938776554092101
 30
0.0
 40
0.0484402714766225
 50
272.1284902579233176
 51
299.0359059987007981
  0
ARC
  5
D5B5
  8
0
 10
97.4751797671468267
 20
156.707793412796093
 30
0.0
 40
0.0035888474213741
 50
359.2456518162230736
 51
12.3592204233250094
  0
ARC
  5
D5B6
  8
0
 10
97.4075219116530775
 20
156.5419250220735137
 30
0.0
 40
0.1097010990551446
 50
77.5618130497229004
 51
102.4355764431457061
  0
ARC
  5
D5B7
  8
0
 10
97.4075268511600569
 20
156.7587510157198096
 30
0.0
 40
0.1122144246944877
 50
257.8446745656685835
 51
282.1527149271993267
  0
ARC
  5
D5B8
  8
0
 10
97.4209581403878957
 20
160.0722764185505866
 30
0.0
 40
3.3642101632432819
 50
269.7725572263238973
 51
271.806354728132419
  0
ARC
  5
D5B9
  8
0
 10
89.7311009192060425
 20
135.6256749276454912
 30
0.0
 40
0.0244017644971509
 50
4.7023035912830471
 51
79.0441159223929048
  0
LINE
  5
D5BA
  8
0
 62
     1
 10
85.5965027728657333
 20
134.4880629363916
 30
0.0
 11
76.5125277951236029
 21
127.4639641052150978
 31
0.0
  0
ENDBLK
  5
D5BE
  8
0
  0
BLOCK
  8
0
  2
A$C2D5A47B5
 70
     0
 10
0.0
 20
0.0
 30
0.0
  3
A$C2D5A47B5
  1

  0
ARC
  5
11C25
  8
0
 10
163.3909423460177095
 20
5.6420899956797106
 30
0.0
 40
134.2261068463301115
 50
90.413765295661932
 51
92.7685699948666667
  0
ARC
  5
11C26
  8
0
 10
156.9430267569628086
 20
139.0046071375109022
 30
0.0
 40
0.7078073932095852
 50
92.8712281495488554
 51
175.257913758117212
  0
LINE
  5
11C27
  8
0
 10
156.2618885455337931
 20
138.6094428305329131
 30
0.0
 11
170.5135941696611042
 21
138.6094427662004875
 31
0.0
  0
ARC
  5
11C28
  8
0
 10
156.2619021758065117
 20
138.668524598602005
 30
0.0
 40
0.0590817696412908
 50
180.0214213101781127
 51
269.9867817584262752
  0
LINE
  5
11C29
  8
0
 10
156.2028204102944073
 20
138.668502509559886
 30
0.0
 11
156.2376422376136134
 21
139.0631219710543007
 31
0.0
  0
ARC
  5
11C2A
  8
0
 10
251.3459337804166012
 20
140.8862393706041871
 30
0.0
 40
95.0314549540725153
 50
181.372843661086705
 51
183.2687864084084026
  0
ARC
  5
11C2B
  8
0
 10
256.9122601763377816
 20
141.0748473724059977
 30
0.0
 40
100.5995623755124058
 50
183.1952631793975002
 51
186.0668356280503986
  0
ARC
  5
11C2C
  8
0
 10
168.9950474665185141
 20
131.7538424176323133
 30
0.0
 40
12.1896475252280201
 50
186.1751225100859983
 51
200.9316759732951994
  0
ARC
  5
11C2D
  8
0
 10
158.1745393868739029
 20
125.6435157492102945
 30
0.0
 40
1.9586979923188459
 50
145.1562129956668059
 51
170.6244908602166959
  0
ARC
  5
11C2E
  8
0
 10
157.8380337951747094
 20
125.8268389045680067
 30
0.0
 40
1.57833721940145
 50
125.4413229838906005
 51
143.6385023790778916
  0
ARC
  5
11C2F
  8
0
 10
157.9748021738608941
 20
125.555820505448807
 30
0.0
 40
1.8790028166131101
 50
101.2001634585434999
 51
124.046798819568096
  0
ARC
  5
11C30
  8
0
 10
156.2043837680512013
 20
125.3563765133209955
 30
0.0
 40
0.0787448142562533
 50
180.003344316523112
 51
270.0602143899964176
  0
ARC
  5
11C31
  8
0
 10
166.5058619694266895
 20
-310.2103062934554032
 30
0.0
 40
437.8347703340256771
 50
90.408042127443025
 51
90.8974081549902451
  0
ARC
  5
11C32
  8
0
 10
158.6787319015413118
 20
122.3268521947615994
 30
0.0
 40
5.1835904121681713
 50
93.6872484167345334
 51
101.9002693074378953
  0
ARC
  5
11C33
  8
0
 10
160.0529309676599041
 20
106.0997225971582054
 30
0.0
 40
21.4680067002194797
 50
92.4245775435839647
 51
94.5621029803392048
  0
ARC
  5
11C34
  8
0
 10
162.3405913562172032
 20
60.9098009238143376
 30
0.0
 40
66.7152986366175753
 50
92.3126613665836402
 51
92.7456775903912529
  0
LINE
  5
11C35
  8
0
 10
156.2420059085077924
 20
125.9625959587311002
 30
0.0
 11
156.1256389539290979
 21
125.3563719170386008
 31
0.0
  0
LINE
  5
11C36
  8
0
 10
156.2044665240609049
 20
125.2776317425504971
 30
0.0
 11
170.5396403090608999
 21
125.2776317425504971
 31
0.0
  0
ARC
  5
11C37
  8
0
 10
156.6143689765144984
 20
124.9225740511643039
 30
0.0
 40
0.2066035015609759
 50
133.4132145213912111
 51
182.7149050936234005
  0
ARC
  5
11C38
  8
0
 10
156.6153876530636921
 20
124.9180965525096951
 30
0.0
 40
0.2105690908840582
 50
88.0879412377523181
 51
132.7772499826058947
  0
LINE
  5
11C39
  8
0
 10
157.5804689055991048
 20
125.1398332778768037
 30
0.0
 11
169.1946523231227104
 21
125.1398332778768037
 31
0.0
  0
LINE
  5
11C3A
  8
0
 10
159.0951245718609073
 20
125.1595215063506004
 30
0.0
 11
158.5901006058236931
 21
125.1598106332414062
 31
0.0
  0
LINE
  5
11C3B
  8
0
 10
159.2951621721855133
 20
125.198891585150605
 30
0.0
 11
167.419700185460897
 21
125.198891585150605
 31
0.0
  0
ARC
  5
11C3C
  8
0
 10
157.9202512496950987
 20
125.8602605878024008
 30
0.0
 40
0.6224059377417176
 50
249.4051894735970905
 51
261.7453824993129956
  0
ARC
  5
11C3D
  8
0
 10
157.9219577380706028
 20
125.9251286658030011
 30
0.0
 40
0.68688929228
 50
262.3813773970467764
 51
269.5383362932632281
  0
ARC
  5
11C3E
  8
0
 10
158.6669579217208934
 20
125.8370501177519998
 30
0.0
 40
0.6903897734841977
 50
234.1247485513258937
 51
247.9557481247533985
  0
ARC
  5
11C3F
  8
0
 10
158.6021495243265917
 20
125.6823592835691983
 30
0.0
 40
0.5226875437548655
 50
248.1762519801827978
 51
268.6791088832839023
  0
ARC
  5
11C40
  8
0
 10
158.9772278808908084
 20
125.9184699099349984
 30
0.0
 40
0.7881198205549516
 50
299.4550637534655948
 51
305.5978342234528782
  0
ARC
  5
11C41
  8
0
 10
159.0937155678859085
 20
125.6980069066296011
 30
0.0
 40
0.5384872436797671
 50
270.1499201218808253
 51
282.9124887312037231
  0
ARC
  5
11C42
  8
0
 10
159.0915333724163929
 20
125.6996055085544981
 30
0.0
 40
0.540535957263233
 50
283.1000829520024809
 51
292.1304411661612903
  0
ARC
  5
11C43
  8
0
 10
159.0560692734852921
 20
125.7876607287719963
 30
0.0
 40
0.6354640184067445
 50
292.1015489098892886
 51
299.0649881884677939
  0
LINE
  5
11C44
  8
0
 10
157.9165181369608888
 20
125.2382616638505937
 30
0.0
 11
158.3233150448766082
 21
125.2382616638505937
 31
0.0
  0
ARC
  5
11C45
  8
0
 10
159.6052517482609119
 20
125.1792061979505064
 30
0.0
 40
0.0196844004000003
 50
179.9999999999984084
 51
270.0
  0
ARC
  5
11C46
  8
0
 10
161.0864288900351937
 20
125.1792070900730067
 30
0.0
 40
0.0196855837332146
 50
270.0018962949098977
 51
359.9984157250009957
  0
LINE
  5
11C47
  8
0
 10
159.5855669345608874
 20
125.198891585150605
 30
0.0
 11
159.5855673478640142
 21
125.1792065457506027
 31
0.0
  0
LINE
  5
11C48
  8
0
 10
159.6052518667609093
 20
125.1595215063506004
 30
0.0
 11
161.0864295415445895
 21
125.1595215063506004
 31
0.0
  0
LINE
  5
11C49
  8
0
 10
161.106114473760897
 20
125.198891585150605
 30
0.0
 11
161.106114473760897
 21
125.1792065457506027
 31
0.0
  0
LINE
  5
11C4A
  8
0
 10
159.1489148144609089
 20
125.1623563164279034
 30
0.0
 11
159.1489148144609089
 21
125.1398335370506061
 31
0.0
  0
LINE
  5
11C4B
  8
0
 10
159.6446867008608876
 20
125.1595215063506004
 30
0.0
 11
159.644686696733288
 21
125.1398328451320054
 31
0.0
  0
LINE
  5
11C4C
  8
0
 10
160.7521950324608895
 20
125.1398357162506016
 30
0.0
 11
160.8348546902608973
 21
125.1268482877506045
 31
0.0
  0
LINE
  5
11C4D
  8
0
 10
161.0423168837608898
 20
125.1595215063506004
 30
0.0
 11
161.0423168837608898
 21
125.139836466950598
 31
0.0
  0
LINE
  5
11C4E
  8
0
 10
161.0693642988609042
 20
125.1595215063506004
 30
0.0
 11
161.0693642988609042
 21
125.139836466950598
 31
0.0
  0
LINE
  5
11C4F
  8
0
 10
161.4968210876608907
 20
125.198891585150605
 30
0.0
 11
161.4947587367609003
 21
125.1398334320504944
 31
0.0
  0
LINE
  5
11C50
  8
0
 10
161.5258512095608978
 20
125.198891585150605
 30
0.0
 11
161.5240672251609055
 21
125.1398334283504994
 31
0.0
  0
LINE
  5
11C51
  8
0
 10
161.9800180177608979
 20
125.198891585150605
 30
0.0
 11
161.9782340313608984
 21
125.1398333646504994
 31
0.0
  0
LINE
  5
11C52
  8
0
 10
162.0533149571608931
 20
125.198891585150605
 30
0.0
 11
162.0533149447796859
 21
125.1398323401845971
 31
0.0
  0
LINE
  5
11C53
  8
0
 10
162.8380293707608928
 20
125.198891585150605
 30
0.0
 11
162.8380293583796004
 21
125.1398321756762044
 31
0.0
  0
LINE
  5
11C54
  8
0
 10
162.9380108471609105
 20
125.198891585150605
 30
0.0
 11
162.9380139445609075
 21
125.1398331931505936
 31
0.0
  0
ARC
  5
11C55
  8
0
 10
161.7554051722204917
 20
984.8156508480768707
 30
0.0
 40
859.6892954206174409
 50
269.9386479885176868
 51
269.9920315425152921
  0
ARC
  5
11C56
  8
0
 10
161.402835629482297
 20
102.6757371605859959
 30
0.0
 40
22.4518357021478003
 50
88.1989953870530456
 51
89.4053676035916993
  0
ARC
  5
11C57
  8
0
 10
161.9623966167015112
 20
113.8586801014669021
 30
0.0
 40
11.2587492484033191
 50
87.7895775712271558
 51
89.256671165596515
  0
ARC
  5
11C58
  8
0
 10
162.3786454532472874
 20
124.6770500460542053
 30
0.0
 40
0.4323765446305551
 50
82.2073820228669376
 51
87.6145436445017509
  0
ARC
  5
11C59
  8
0
 10
162.490667297075305
 20
125.4251176956873053
 30
0.0
 40
0.3241127216803102
 50
260.5174252644317789
 51
264.2711310769342958
  0
ARC
  5
11C5A
  8
0
 10
162.5023940743693061
 20
125.5884691422901938
 30
0.0
 40
0.4878409180807914
 50
264.815828098107886
 51
271.0301087400359847
  0
ARC
  5
11C5B
  8
0
 10
162.4645320002271944
 20
137.9764748956654046
 30
0.0
 40
12.8758522738867693
 50
270.2075082066270966
 51
270.5423979331056898
  0
ARC
  5
11C5C
  8
0
 10
161.3116549590961029
 20
318.9437046986893733
 30
0.0
 40
193.8466967090193975
 50
270.3767887087589088
 51
270.4590796414237275
  0
ARC
  5
11C5D
  8
0
 10
162.7237890664916051
 20
142.064603374506305
 30
0.0
 40
16.9619593598495904
 50
270.476412442051128
 51
271.1143057370413771
  0
ARC
  5
11C5E
  8
0
 10
163.0013559632147064
 20
128.6582355577087924
 30
0.0
 40
3.5527687071094931
 50
270.8433742482973798
 51
272.930472524404081
  0
ARC
  5
11C5F
  8
0
 10
163.1501541104038893
 20
125.828239051465502
 30
0.0
 40
0.7188764945898902
 50
272.6178367364566952
 51
278.5210367906689157
  0
ARC
  5
11C60
  8
0
 10
163.3684315855250873
 20
124.4480133494183036
 30
0.0
 40
0.6785513885794324
 50
95.646471855302579
 51
99.4800053040780767
  0
ARC
  5
11C61
  8
0
 10
163.3781655000954913
 20
124.3395427261417012
 30
0.0
 40
0.7874540418497701
 50
89.3172531906707832
 51
95.5747479737004113
  0
LINE
  5
11C62
  8
0
 10
163.3875487219696936
 20
125.1269391870153953
 30
0.0
 11
165.9363730726030042
 21
125.1270118200778967
 31
0.0
  0
LINE
  5
11C63
  8
0
 10
165.9363730726043116
 20
125.1270118200778967
 30
0.0
 11
166.0230788835609133
 21
125.1398323981506024
 31
0.0
  0
LINE
  5
11C64
  8
0
 10
167.6092478999435968
 20
125.159744929588399
 30
0.0
 11
168.1312385410608954
 21
125.1600262535505976
 31
0.0
  0
ARC
  5
11C65
  8
0
 10
168.8421472111411958
 20
125.8601347875309955
 30
0.0
 40
0.6224059377417176
 50
278.2546175006871181
 51
290.5948105264029095
  0
ARC
  5
11C66
  8
0
 10
168.8404407227658055
 20
125.9250028655316953
 30
0.0
 40
0.68688929228
 50
270.4616637067367719
 51
277.6186226029532236
  0
ARC
  5
11C67
  8
0
 10
168.0401244795608022
 20
125.8412099927105032
 30
0.0
 40
0.6960756066407616
 50
293.1898855575166181
 51
305.9381613544489937
  0
ARC
  5
11C68
  8
0
 10
168.1080439051135897
 20
125.6882573758407062
 30
0.0
 40
0.5287401154562211
 50
272.5142434122496979
 51
292.951244008804224
  0
ARC
  5
11C69
  8
0
 10
167.7248216562709899
 20
125.8989413501571022
 30
0.0
 40
0.7647406390291915
 50
234.3354940751657978
 51
241.0219966443773103
  0
ARC
  5
11C6A
  8
0
 10
167.6205854142259
 20
125.7183238837714043
 30
0.0
 40
0.5586940014768546
 50
262.7558302693967107
 51
268.8372234015952245
  0
ARC
  5
11C6B
  8
0
 10
167.62192405747831
 20
125.6949777645841948
 30
0.0
 40
0.5357200685420925
 50
247.8222947553117876
 51
262.2989461434665941
  0
ARC
  5
11C6C
  8
0
 10
167.6278156882218866
 20
125.7214204183463977
 30
0.0
 40
0.5624486145511628
 50
240.9055750534367917
 51
248.2833393504444075
  0
LINE
  5
11C6D
  8
0
 10
168.8458803238754058
 20
125.2381358635792026
 30
0.0
 11
168.3879384569758884
 21
125.2382616638505937
 31
0.0
  0
ARC
  5
11C6E
  8
0
 10
167.1926956143609004
 20
125.1792061977506023
 30
0.0
 40
0.0196844003000014
 50
270.0000000000048885
 51
0.0010129305965945
  0
ARC
  5
11C6F
  8
0
 10
165.7115177026610127
 20
125.1792061979506059
 30
0.0
 40
0.0196844004000942
 50
180.0000000001163869
 51
269.8069905944005882
  0
LINE
  5
11C70
  8
0
 10
167.2123804280608965
 20
125.198891585150605
 30
0.0
 11
167.2123800146578958
 21
125.1792065457506027
 31
0.0
  0
LINE
  5
11C71
  8
0
 10
167.1926956143609004
 20
125.1595217974505942
 30
0.0
 11
165.7114513929548991
 21
125.1595219092376965
 31
0.0
  0
LINE
  5
11C72
  8
0
 10
165.6918328889609029
 20
125.198891585150605
 30
0.0
 11
165.6918333022609033
 21
125.1792061979505064
 31
0.0
  0
LINE
  5
11C73
  8
0
 10
167.1369661065203047
 20
125.1595219092376965
 30
0.0
 11
167.1369661106477906
 21
125.1398332480192011
 31
0.0
  0
LINE
  5
11C74
  8
0
 10
165.2848317197203016
 20
125.1988919880377011
 30
0.0
 11
165.286894070620292
 21
125.1398338349377042
 31
0.0
  0
LINE
  5
11C75
  8
0
 10
165.2558015978202945
 20
125.1988919880377011
 30
0.0
 11
165.2575855822202868
 21
125.139833831237695
 31
0.0
  0
LINE
  5
11C76
  8
0
 10
164.8016347896202944
 20
125.1988919880377011
 30
0.0
 11
164.803418776020294
 21
125.1398337675376951
 31
0.0
  0
LINE
  5
11C77
  8
0
 10
164.7283378502202993
 20
125.1988919880377011
 30
0.0
 11
164.7283378626015065
 21
125.1398327430718069
 31
0.0
  0
LINE
  5
11C78
  8
0
 10
163.9436234366202996
 20
125.1988919880377011
 30
0.0
 11
163.9436234490015067
 21
125.1398325785634
 31
0.0
  0
LINE
  5
11C79
  8
0
 10
163.8436419602203102
 20
125.1988919880377011
 30
0.0
 11
163.8436388628203133
 21
125.139833596037704
 31
0.0
  0
LINE
  5
11C7A
  8
0
 10
165.7061753224608935
 20
125.1602606287349033
 30
0.0
 11
165.7061753181781114
 21
125.1398315743950036
 31
0.0
  0
ARC
  5
11C7B
  8
0
 10
156.701030308097387
 20
198.3286914764167079
 30
0.0
 40
73.2001852918072444
 50
269.9384643935061945
 51
270.4176285584160269
  0
ARC
  5
11C7C
  8
0
 10
157.0383920911631037
 20
138.7432130460458097
 30
0.0
 40
13.6141760084765604
 50
270.8256981479681258
 51
272.281954209296714
  0
ARC
  5
11C7D
  8
0
 10
170.1621543694255934
 20
124.9235291258283951
 30
0.0
 40
0.2049464276567142
 50
356.8993244463413248
 51
46.6880272851677702
  0
ARC
  5
11C7E
  8
0
 10
170.1597335756580947
 20
124.9180965525096951
 30
0.0
 40
0.2105690908840582
 50
47.2227500173941124
 51
91.9120587622476961
  0
ARC
  5
11C7F
  8
0
 10
170.0740909206243998
 20
198.3286914764167079
 30
0.0
 40
73.2001852918072444
 50
269.5823714415839731
 51
270.0615356064938055
  0
ARC
  5
11C80
  8
0
 10
169.7367291375587115
 20
138.7432130460458097
 30
0.0
 40
13.6141760084765604
 50
267.718045790703286
 51
269.1743018520318742
  0
ARC
  5
11C81
  8
0
 10
163.3845403691771878
 20
5.6420899956797106
 30
0.0
 40
134.2261068463301115
 50
87.2314300051333475
 51
89.5862347043380822
  0
ARC
  5
11C82
  8
0
 10
169.8324559582322024
 20
139.0046071375109022
 30
0.0
 40
0.7078073932095852
 50
4.7420862418828396
 51
87.1287718504511446
  0
ARC
  5
11C83
  8
0
 10
170.5135515334397951
 20
138.6685944008193871
 30
0.0
 40
0.0591516499849401
 50
270.0412985346160895
 51
359.9110254031763247
  0
LINE
  5
11C84
  8
0
 10
170.5727031121026869
 20
138.6685025442789083
 30
0.0
 11
170.5378404775813976
 21
139.0631219710543007
 31
0.0
  0
ARC
  5
11C85
  8
0
 10
75.429548934778353
 20
140.8862393706041871
 30
0.0
 40
95.0314549540725153
 50
356.7312135915914837
 51
358.6271563389132098
  0
ARC
  5
11C86
  8
0
 10
69.8632225388571868
 20
141.0748473724059977
 30
0.0
 40
100.5995623755124058
 50
353.9331643719496014
 51
356.8047368206023862
  0
ARC
  5
11C87
  8
0
 10
157.7776231071609914
 20
131.7543314075444982
 30
0.0
 40
12.1924959509308106
 50
339.0461315985889996
 51
353.824014436347511
  0
ARC
  5
11C88
  8
0
 10
168.4635063391191068
 20
125.6033612942031965
 30
0.0
 40
2.0701986995657999
 50
9.8190438939052793
 51
33.6015097684723116
  0
ARC
  5
11C89
  8
0
 10
168.9976537497834101
 20
125.9191567160021066
 30
0.0
 40
1.4509040699060309
 50
34.8880455719988376
 51
54.3831618603075668
  0
ARC
  5
11C8A
  8
0
 10
168.7837721633162005
 20
125.5935187576149019
 30
0.0
 40
1.8402488673018229
 50
54.8741156046476277
 51
78.0817412284965542
  0
ARC
  5
11C8B
  8
0
 10
170.5398821897904895
 20
125.3559663338284054
 30
0.0
 40
0.0783347714087362
 50
269.8771275616263097
 51
0.2966414050348182
  0
ARC
  5
11C8C
  8
0
 10
160.2693285981596034
 20
-310.2317845200711872
 30
0.0
 40
437.8562505018085176
 50
89.1025976395516324
 51
89.5919322144715977
  0
ARC
  5
11C8D
  8
0
 10
168.1819664434146944
 20
123.1745387709147934
 30
0.0
 40
4.3322858846020109
 50
76.9009736079623707
 51
86.7164482717015233
  0
ARC
  5
11C8E
  8
0
 10
166.7225517475351069
 20
106.0997225971582054
 30
0.0
 40
21.4680067002194797
 50
85.4378970196607952
 51
87.5754224564160495
  0
ARC
  5
11C8F
  8
0
 10
164.4348913589776942
 20
60.9098009238143376
 30
0.0
 40
66.7152986366175753
 50
87.2543224096087471
 51
87.687338633416374
  0
LINE
  5
11C90
  8
0
 10
170.5033792569900868
 20
125.9564068077282002
 30
0.0
 11
170.6182159113139107
 21
125.356371900050604
 31
0.0
  0
ARC
  5
11C91
  8
0
 10
159.499108743482708
 20
109.6281567074287011
 30
0.0
 40
0.0395028160641446
 50
175.4163587882925128
 51
269.888754706934094
  0
LINE
  5
11C92
  8
0
 10
159.4598237640915954
 20
109.6313818853529938
 30
0.0
 11
160.2257496332609037
 21
118.3857249664505957
 31
0.0
  0
LINE
  5
11C93
  8
0
 10
159.8926645616608937
 20
110.5928258488504952
 30
0.0
 11
161.0217359350608888
 21
116.5671144170506039
 31
0.0
  0
LINE
  5
11C94
  8
0
 10
159.6556807953608939
 20
109.6349514378506029
 30
0.0
 11
159.7679139192186994
 21
110.2751638124378957
 31
0.0
  0
ARC
  5
11C95
  8
0
 10
160.1621500872734885
 20
110.2041600553742029
 30
0.0
 40
0.4005781613133922
 50
137.5997836231883866
 51
169.8240894591316135
  0
ARC
  5
11C96
  8
0
 10
152.6165965348679947
 20
112.1461334548430955
 30
0.0
 40
7.4400222075845939
 50
347.0140630002974262
 51
347.949292593994187
  0
ARC
  5
11C97
  8
0
 10
160.0370689186852928
 20
110.1862100417773007
 30
0.0
 40
0.5268362563540926
 50
143.2979252044497969
 51
173.6534308404206115
  0
ARC
  5
11C98
  8
0
 10
160.1581261563283078
 20
110.1062198225966995
 30
0.0
 40
0.671751138803961
 50
110.8198475128441061
 51
143.9988721599007135
  0
ARC
  5
11C99
  8
0
 10
174.9943604142779066
 20
133.630452869284909
 30
0.0
 40
21.2253054920434003
 50
225.9088363663013013
 51
226.2905216219920135
  0
ARC
  5
11C9A
  8
0
 10
175.2615458622632048
 20
133.9490573980307033
 30
0.0
 40
21.6402522303991489
 50
226.3620627052345071
 51
227.3280589956727908
  0
ARC
  5
11C9B
  8
0
 10
159.6613613482028882
 20
117.0044513737393004
 30
0.0
 40
1.3920936915845541
 50
33.1372973392720027
 51
47.9481466896438633
  0
ARC
  5
11C9C
  8
0
 10
159.6752557480679968
 20
117.011941182828707
 30
0.0
 40
1.376365388111273
 50
8.3040732242477269
 51
33.1923984646883099
  0
ARC
  5
11C9D
  8
0
 10
159.0383241223009065
 20
116.961569850616101
 30
0.0
 40
2.0223391365937249
 50
348.7518877839456195
 51
1.1249297974644821
  0
ARC
  5
11C9E
  8
0
 10
159.6564537520868896
 20
116.9525616883721995
 30
0.0
 40
1.4046646083794869
 50
1.9873304729795269
 51
10.5905902394321796
  0
ARC
  5
11C9F
  8
0
 10
161.0879177444438142
 20
125.2229562099120983
 30
0.0
 40
4.6898107914962566
 50
183.7963354194864962
 51
200.6476628122098873
  0
ARC
  5
11CA0
  8
0
 10
172.0632797650445127
 20
129.3143164344162983
 30
0.0
 40
16.4029361531666389
 50
200.5024350694633029
 51
202.70696502631111
  0
ARC
  5
11CA1
  8
0
 10
168.0898965859882139
 20
127.6709188192932061
 30
0.0
 40
12.1031569436515607
 50
202.7911270552654059
 51
209.854608331405899
  0
ARC
  5
11CA2
  8
0
 10
170.1667412066788074
 20
129.1068100775366077
 30
0.0
 40
14.6207037936590893
 50
210.6833922457161918
 51
227.1621664242802012
  0
ARC
  5
11CA3
  8
0
 10
167.2760897698721863
 20
109.6281567177327929
 30
0.0
 40
0.0395028450121593
 50
270.0556656766150923
 51
4.5836228523194151
  0
LINE
  5
11CA4
  8
0
 10
167.3153747791301953
 20
109.6313818853529938
 30
0.0
 11
166.549448909960887
 21
118.3857249664505957
 31
0.0
  0
LINE
  5
11CA5
  8
0
 10
166.882533981560897
 20
110.5928258488504952
 30
0.0
 11
165.7534626081609019
 21
116.5671144170506039
 31
0.0
  0
LINE
  5
11CA6
  8
0
 10
167.1195177478608969
 20
109.6349514378506029
 30
0.0
 11
167.0072846240030913
 21
110.2751638124378957
 31
0.0
  0
ARC
  5
11CA7
  8
0
 10
166.6130484559483023
 20
110.2041600553742029
 30
0.0
 40
0.4005781613133922
 50
10.1759105408683599
 51
42.4002163768115423
  0
ARC
  5
11CA8
  8
0
 10
174.158602008353796
 20
112.1461334548430955
 30
0.0
 40
7.4400222075845939
 50
192.050707406005813
 51
192.9859369997024885
  0
ARC
  5
11CA9
  8
0
 10
166.7381296245364979
 20
110.1862100417773007
 30
0.0
 40
0.5268362563540926
 50
6.3465691595785261
 51
36.7020747955501676
  0
ARC
  5
11CAA
  8
0
 10
166.6170723868935113
 20
110.1062198225966995
 30
0.0
 40
0.671751138803961
 50
36.001127840099258
 51
69.1801524871559224
  0
ARC
  5
11CAB
  8
0
 10
151.7808381289439126
 20
133.630452869284909
 30
0.0
 40
21.2253054920434003
 50
313.7094783780078728
 51
314.0911636336987272
  0
ARC
  5
11CAC
  8
0
 10
151.513652680958586
 20
133.9490573980307033
 30
0.0
 40
21.6402522303991489
 50
312.6719410043272092
 51
313.6379372947656066
  0
ARC
  5
11CAD
  8
0
 10
167.1138371950189025
 20
117.0044513737393004
 30
0.0
 40
1.3920936915845541
 50
132.0518533103561083
 51
146.8627026607279902
  0
ARC
  5
11CAE
  8
0
 10
167.0999427951537939
 20
117.011941182828707
 30
0.0
 40
1.376365388111273
 50
146.8076015353117043
 51
171.6959267757522127
  0
ARC
  5
11CAF
  8
0
 10
167.7368744209209126
 20
116.961569850616101
 30
0.0
 40
2.0223391365937249
 50
178.875070202535511
 51
191.2481122160544089
  0
ARC
  5
11CB0
  8
0
 10
167.1187447911349011
 20
116.9525616883721995
 30
0.0
 40
1.4046646083794869
 50
169.4094097605677973
 51
178.0126695270205062
  0
ARC
  5
11CB1
  8
0
 10
165.687280798778005
 20
125.2229562099120983
 30
0.0
 40
4.6898107914962566
 50
339.352337187789999
 51
356.2036645805134185
  0
ARC
  5
11CB2
  8
0
 10
154.7119187781771927
 20
129.3143164344162983
 30
0.0
 40
16.4029361531666389
 50
337.2930349736888047
 51
339.4975649305367256
  0
ARC
  5
11CB3
  8
0
 10
158.6853019572336052
 20
127.6709188192932061
 30
0.0
 40
12.1031569436515607
 50
330.1453916685940726
 51
337.2088729447345941
  0
ARC
  5
11CB4
  8
0
 10
156.6084573365430117
 20
129.1068100775366077
 30
0.0
 40
14.6207037936590893
 50
312.8378335757197988
 51
329.3166077542837797
  0
LINE
  5
11CB5
  8
0
 10
159.4990320449958858
 20
109.5886539658233971
 30
0.0
 11
167.2761281488290024
 21
109.5886538913642028
 31
0.0
  0
ARC
  5
11CB6
  8
0
 10
167.0809273856631876
 20
109.6278837811023976
 30
0.0
 40
0.0392343728642797
 50
270.8663414929662281
 51
10.6835834379024508
  0
ARC
  5
11CB7
  8
0
 10
159.6944310520594001
 20
109.6280428209110056
 30
0.0
 40
0.0393919503498688
 50
170.1953303813729121
 51
269.9129258954586135
  0
ARC
  5
11CB8
  8
0
 10
162.5838559602809994
 20
139.7871279123513943
 30
0.0
 40
0.1798189527171678
 50
98.6137188604948847
 51
154.4453133723731071
  0
ARC
  5
11CB9
  8
0
 10
162.6220913394772083
 20
140.4587673257609026
 30
0.0
 40
0.6974407210906729
 50
252.2876998055234026
 51
269.9073743798036844
  0
ARC
  5
11CBA
  8
0
 10
163.1006761996156058
 20
146.2715094666737059
 30
0.0
 40
6.5278321804784536
 50
265.7856924494070086
 51
268.0949894249678209
  0
ARC
  5
11CBB
  8
0
 10
163.3892290435269103
 20
154.6470254287906982
 30
0.0
 40
14.9083146758210496
 50
268.0566741786043963
 51
271.7619634609234822
  0
ARC
  5
11CBC
  8
0
 10
163.7981305061321109
 20
143.8086328273930974
 30
0.0
 40
4.0631746929891177
 50
270.697855244336381
 51
277.031416912056784
  0
ARC
  5
11CBD
  8
0
 10
164.1989067814469934
 20
139.7930652572881058
 30
0.0
 40
0.1707042812872602
 50
24.8108409618854786
 51
71.699890160420864
  0
ARC
  5
11CBE
  8
0
 10
164.2075680803737043
 20
139.7986224644861863
 30
0.0
 40
0.1605166911189398
 50
359.9967678717861759
 51
24.3076196447156896
  0
ARC
  5
11CBF
  8
0
 10
164.251931924178507
 20
140.1240193182086102
 30
0.0
 40
0.3507216739044287
 50
277.1389477162410913
 51
286.8273862140760002
  0
ARC
  5
11CC0
  8
0
 10
164.3610345779534043
 20
139.7998084413366939
 30
0.0
 40
0.00714924961311
 50
302.6610339024425116
 51
350.4511586151954816
  0
ARC
  5
11CC1
  8
0
 10
164.339851517667114
 20
139.8314044513055876
 30
0.0
 40
0.0451878232180971
 50
287.5297202837841724
 51
303.6528720585861265
  0
ARC
  5
11CC2
  8
0
 10
162.4132811538115106
 20
139.7991676599741027
 30
0.0
 40
0.0058526070196242
 50
185.4341372034716073
 51
234.7538264647944004
  0
ARC
  5
11CC3
  8
0
 10
162.5680008909928915
 20
139.7986185972407043
 30
0.0
 40
0.1605460410157772
 50
167.8130306344926908
 51
180.0018513863554119
  0
ARC
  5
11CC4
  8
0
 10
162.5729373451846129
 20
139.797253470699701
 30
0.0
 40
0.1656596863688359
 50
155.9759542067046993
 51
167.7119468196171113
  0
ARC
  5
11CC5
  8
0
 10
163.9138398961374037
 20
136.525264746043689
 30
0.0
 40
3.5757670843326141
 50
95.5783705353294266
 51
101.7791302530392983
  0
ARC
  5
11CC6
  8
0
 10
163.6273725940432087
 20
139.271741036470786
 30
0.0
 40
0.8146528065472542
 50
85.9308573600495293
 51
94.3029153581551043
  0
ARC
  5
11CC7
  8
0
 10
163.5668613592584961
 20
139.1997495843235129
 30
0.0
 40
0.8924685021817543
 50
73.6249141864149408
 51
82.3815705410277133
  0
ARC
  5
11CC8
  8
0
 10
163.3849694861036141
 20
138.5161042500284907
 30
0.0
 40
1.599766419118398
 50
65.4509721212181006
 51
74.2775685464007438
  0
ARC
  5
11CC9
  8
0
 10
160.7945991088137987
 20
149.5558498113649932
 30
0.0
 40
9.8903290399414665
 50
283.0338170996270151
 51
285.5694795901272869
  0
ARC
  5
11CCA
  8
0
 10
163.0226341418305083
 20
139.5887284070491887
 30
0.0
 40
0.4657980233256446
 50
76.2844052657328433
 51
109.167659266330304
  0
ARC
  5
11CCB
  8
0
 10
162.9693256537590003
 20
139.4138990894169865
 30
0.0
 40
0.6483639865620558
 50
61.3584057535184897
 51
75.3709858332949807
  0
ARC
  5
11CCC
  8
0
 10
163.400908371076298
 20
138.4889888482383071
 30
0.0
 40
1.628774552705653
 50
109.0347604187731037
 51
112.8942599433168965
  0
ARC
  5
11CCD
  8
0
 10
162.9475464782420033
 20
137.5301986736936044
 30
0.0
 40
2.4658562386920351
 50
94.1927335932980014
 51
99.1147623110889242
  0
ARC
  5
11CCE
  8
0
 10
163.2939987321227022
 20
138.7354662985036953
 30
0.0
 40
1.360124766369857
 50
112.7847240002337941
 51
115.6893738045764053
  0
ARC
  5
11CCF
  8
0
 10
162.7080450370638118
 20
139.9593724018201044
 30
0.0
 40
0.0099173733645847
 50
201.1135443154772986
 51
259.8209837476844086
  0
ARC
  5
11CD0
  8
0
 10
162.7035897643872886
 20
139.9551097037474108
 30
0.0
 40
0.0048457501868588
 50
118.4884522087382948
 51
171.8102254428891911
  0
ARC
  5
11CD1
  8
0
 10
162.7130751340891948
 20
139.9423733271831907
 30
0.0
 40
0.0206882778006895
 50
114.8055331630529992
 51
124.7650079584591936
  0
ARC
  5
11CD2
  8
0
 10
163.1819377916758071
 20
144.6455073913982119
 30
0.0
 40
4.7294239913936069
 50
265.5211428529497084
 51
267.8427552829871274
  0
ARC
  5
11CD3
  8
0
 10
162.809574355023102
 20
140.4321421191642969
 30
0.0
 40
0.4988741666927155
 50
257.1698320270825775
 51
264.2263583339598085
  0
ARC
  5
11CD4
  8
0
 10
162.9512821229183999
 20
141.6015446473433883
 30
0.0
 40
1.676762599282815
 50
263.4284984176924809
 51
265.2561343358269141
  0
ARC
  5
11CD5
  8
0
 10
162.7753375257144057
 20
139.6484472555364107
 30
0.0
 40
0.3265757761366659
 50
98.7113672931358792
 51
103.5563706601335952
  0
ARC
  5
11CD6
  8
0
 10
162.7147110259716101
 20
139.8954389418580035
 30
0.0
 40
0.0722618807340608
 50
102.7300656507386947
 51
115.524069143839796
  0
ARC
  5
11CD7
  8
0
 10
162.6885306038253987
 20
139.9504186194344868
 30
0.0
 40
0.011367277591852
 50
115.8510857385197994
 51
140.6094403902710894
  0
ARC
  5
11CD8
  8
0
 10
162.6820209413380951
 20
139.955814177893501
 30
0.0
 40
0.0029125825242121
 50
141.3735329129034994
 51
212.6404382036799063
  0
ARC
  5
11CD9
  8
0
 10
162.7151460712844937
 20
140.0196130388602
 30
0.0
 40
0.0756773735756592
 50
247.8373451040102964
 51
257.5208703285965157
  0
ARC
  5
11CDA
  8
0
 10
162.6914862874940866
 20
139.9644097962132037
 30
0.0
 40
0.015665138400758
 50
220.4657161375068881
 51
251.8162885604168082
  0
LINE
  5
11CDB
  8
0
 10
162.6987934033608951
 20
139.9457235597504905
 30
0.0
 11
162.698793424460888
 21
139.9558000040505874
 31
0.0
  0
ARC
  5
11CDC
  8
0
 10
162.783963582157611
 20
140.1948919939358973
 30
0.0
 40
0.2572848970818294
 50
252.4289725718944055
 51
262.7749620412876084
  0
ARC
  5
11CDD
  8
0
 10
163.0098726706260948
 20
141.9533146471412124
 30
0.0
 40
2.0301594075981071
 50
262.6913055936640831
 51
266.7355690951119982
  0
ARC
  5
11CDE
  8
0
 10
163.1988377406796928
 20
144.8436004831505954
 30
0.0
 40
4.926574639931677
 50
266.455596936269103
 51
267.6095028976624803
  0
LINE
  5
11CDF
  8
0
 10
162.9933505992497089
 20
139.9213131370572967
 30
0.0
 11
163.0013710603608956
 21
139.9195385425506117
 31
0.0
  0
LINE
  5
11CE0
  8
0
 10
163.0251265197491932
 20
139.9203240868714886
 30
0.0
 11
163.0251264922609096
 21
139.9186435757505933
 31
0.0
  0
LINE
  5
11CE1
  8
0
 10
163.0251264922609096
 20
139.9186435757505933
 30
0.0
 11
163.003912208260914
 21
139.919435218650591
 31
0.0
  0
ARC
  5
11CE2
  8
0
 10
163.3336416227967902
 20
148.4386383361909907
 30
0.0
 40
8.525578707847508
 50
267.9261847558778982
 51
268.903879720287307
  0
ARC
  5
11CE3
  8
0
 10
163.3850862562202906
 20
150.9851382932770036
 30
0.0
 40
11.0725971372271506
 50
268.8897980180581726
 51
269.9053017414009901
  0
ARC
  5
11CE4
  8
0
 10
163.3968436137201081
 20
150.1704518261095131
 30
0.0
 40
10.2579395849862092
 50
269.8321100838123243
 51
271.8934307275360993
  0
ARC
  5
11CE5
  8
0
 10
163.631221423514404
 20
143.8682021767992012
 30
0.0
 40
3.9514725849661412
 50
271.5161443557310008
 51
275.3035757692725838
  0
ARC
  5
11CE6
  8
0
 10
163.943604755148101
 20
140.5577778359640035
 30
0.0
 40
0.6263663471951491
 50
274.8412245929126811
 51
282.2725109860265889
  0
ARC
  5
11CE7
  8
0
 10
162.4229310842509904
 20
136.4807981356310052
 30
0.0
 40
3.850905735716915
 50
64.6588806187574932
 51
65.012589995668506
  0
ARC
  5
11CE8
  8
0
 10
164.0722464286749869
 20
139.9552355839628888
 30
0.0
 40
0.0045350188872116
 50
7.1493119842158306
 51
58.3197823627271035
  0
ARC
  5
11CE9
  8
0
 10
164.0631780719492099
 20
139.9436888353266966
 30
0.0
 40
0.0191950233854461
 50
53.3795559804065007
 51
65.4803869076910843
  0
ARC
  5
11CEA
  8
0
 10
164.0691722704420101
 20
139.9580170337862057
 30
0.0
 40
0.0078917369246304
 50
282.1745702070656989
 51
343.6841597421142183
  0
ARC
  5
11CEB
  8
0
 10
164.1145571675604913
 20
139.5380914693120076
 30
0.0
 40
0.4392680348104907
 50
71.69684950587299
 51
83.2129094322540368
  0
ARC
  5
11CEC
  8
0
 10
163.7646506625067104
 20
136.3599470274525061
 30
0.0
 40
3.637675947619603
 50
85.2186968548366082
 51
86.1600936002611064
  0
ARC
  5
11CED
  8
0
 10
163.9159308619796889
 20
138.122145058031208
 30
0.0
 40
1.869004567761354
 50
82.2963399758923657
 51
85.3373306435682082
  0
ARC
  5
11CEE
  8
0
 10
164.0069242845954136
 20
140.1254653611136973
 30
0.0
 40
0.1864583271293659
 50
276.0644397052225827
 51
290.0457148469604931
  0
ARC
  5
11CEF
  8
0
 10
163.0538878421176889
 20
140.2735562443940864
 30
0.0
 40
0.3543980202609541
 50
265.3450127922769184
 51
269.0673650503417207
  0
ARC
  5
11CF0
  8
0
 10
163.3431647793381103
 20
148.5384997124430129
 30
0.0
 40
8.6243428819447878
 50
268.0394846917105838
 51
268.846046516502895
  0
ARC
  5
11CF1
  8
0
 10
163.3785395167518004
 20
150.2265487582793924
 30
0.0
 40
10.3127620771811497
 50
268.8384235627145813
 51
269.4032156095994992
  0
ARC
  5
11CF2
  8
0
 10
163.3878783255046017
 20
151.1411011990296061
 30
0.0
 40
11.2273621799494698
 50
269.4041717958838262
 51
270.3194065960690864
  0
ARC
  5
11CF3
  8
0
 10
163.3900709889391862
 20
150.8048256307353086
 30
0.0
 40
10.8910796181727907
 50
270.3177336370104058
 51
270.7370006894121275
  0
ARC
  5
11CF4
  8
0
 10
163.3995471577121066
 20
150.0814836306252005
 30
0.0
 40
10.1676755709817002
 50
270.7360357974966973
 51
271.1458721860358878
  0
ARC
  5
11CF5
  8
0
 10
163.4823840870058973
 20
146.8173657427751095
 30
0.0
 40
6.9025761676855417
 50
271.0002387610799133
 51
272.9012641842581957
  0
ARC
  5
11CF6
  8
0
 10
163.730330526356795
 20
142.2927596802377934
 30
0.0
 40
2.371292830898025
 50
272.4514597689938
 51
277.1778553778834748
  0
ARC
  5
11CF7
  8
0
 10
164.0605318184784096
 20
140.0182213169281908
 30
0.0
 40
0.0742870166012497
 50
282.6072390067715787
 51
294.4985711198568765
  0
ARC
  5
11CF8
  8
0
 10
164.0657255969474022
 20
139.9079011641451871
 30
0.0
 40
0.0589107320512877
 50
63.4748744974102195
 51
75.7584113041385052
  0
ARC
  5
11CF9
  8
0
 10
164.0874561875758957
 20
139.950977771752008
 30
0.0
 40
0.0106657408609734
 50
38.4240584777753824
 51
64.5794512771269922
  0
ARC
  5
11CFA
  8
0
 10
164.0854839560396954
 20
139.9633113386373964
 30
0.0
 40
0.0139737242361315
 50
294.7602254996900228
 51
315.0539139718875958
  0
ARC
  5
11CFB
  8
0
 10
164.0933626738519138
 20
139.9557574274089973
 30
0.0
 40
0.0030688494055566
 50
310.9541099796002186
 51
37.0461880680861384
  0
ARC
  5
11CFC
  8
0
 10
164.010192486071503
 20
139.7006836591438059
 30
0.0
 40
0.2734364238959712
 50
75.1614999975098357
 51
81.7079411033052452
  0
ARC
  5
11CFD
  8
0
 10
163.6309039008530135
 20
139.7160214761005079
 30
0.0
 40
0.3614008447147655
 50
104.6659923338008014
 51
120.178383994897203
  0
ARC
  5
11CFE
  8
0
 10
163.6609674376182966
 20
139.6158790509200003
 30
0.0
 40
0.4659069771247165
 50
78.7552531567240948
 51
105.1246486289164039
  0
LINE
  5
11CFF
  8
0
 62
     1
 10
163.3875992711514016
 20
109.588653928593601
 30
0.0
 11
144.4273847780596043
 21
94.2701709278051112
 31
0.0
  0
ENDBLK
  5
11D03
  8
0
  0
BLOCK
  8
0
  2
A$C0BD23D71
 70
     0
 10
0.0
 20
0.0
 30
0.0
  3
A$C0BD23D71
  1

  0
LINE
  5
14250
  8
0
 10
177.2252625083789042
 20
51.8025218597227308
 30
0.0
 11
177.2348828180113003
 21
50.7459807609692604
 31
0.0
  0
LINE
  5
14251
  8
0
 10
177.2348828180113003
 20
50.7044100484692706
 30
0.0
 11
177.2348828180113003
 21
50.7459807609692604
 31
0.0
  0
LINE
  5
14252
  8
0
 10
177.9559547827113022
 20
19.4314169450692589
 30
0.0
 11
177.9237881599113109
 21
25.8904826632692604
 31
0.0
  0
LINE
  5
14253
  8
0
 10
177.8414141463113083
 20
36.0984875450692613
 30
0.0
 11
177.8414127226687071
 21
36.098483073543072
 31
0.0
  0
LINE
  5
14254
  8
0
 10
177.8401054217956982
 20
36.094376965769257
 30
0.0
 11
177.8106811904112874
 21
36.0019582519692705
 31
0.0
  0
LINE
  5
14255
  8
0
 10
182.3542918805113118
 20
51.7795542492692604
 30
0.0
 11
182.3542918805113118
 21
51.7564604497917387
 31
0.0
  0
LINE
  5
14256
  8
0
 10
184.5542918805113004
 20
51.7795542492692604
 30
0.0
 11
184.5542918805113004
 21
51.7564604505123569
 31
0.0
  0
LINE
  5
14257
  8
0
 10
177.6489540660112993
 20
35.8835321632692725
 30
0.0
 11
177.19795841467689
 21
35.883538169140607
 31
0.0
  0
LINE
  5
14258
  8
0
 10
184.2922918805113
 20
51.8889477458692596
 30
0.0
 11
182.6162918805113122
 21
51.8889477458692596
 31
0.0
  0
ARC
  5
14259
  8
0
 10
177.6486930860619964
 20
36.0535319360127531
 30
0.0
 40
0.169999973048542
 50
270.0879591696722173
 51
342.3395937402688105
  0
ARC
  5
1425A
  8
0
 10
177.4752482592539025
 20
51.8047143433571193
 30
0.0
 40
0.2499953652070132
 50
84.0877164779514743
 51
180.5024959930350974
  0
ARC
  5
1425B
  8
0
 10
177.3639782829139051
 20
50.5157893574455414
 30
0.0
 40
0.1001914104169278
 50
90.0459308570884644
 51
178.9437696630727999
  0
ARC
  5
1425C
  8
0
 10
177.3254946444556026
 20
50.7066191094746017
 30
0.0
 40
0.0906387502235813
 50
181.396559482361198
 51
269.8348737355462958
  0
ARC
  5
1425D
  8
0
 10
182.6762918805112861
 20
51.8773686645692607
 30
0.0
 40
0.03
 50
107.3368666375000942
 51
157.2960664576851002
  0
ARC
  5
1425E
  8
0
 10
182.3642918805113027
 20
51.7795542492692604
 30
0.0
 40
0.01
 50
114.4763366296004961
 51
180.0
  0
ARC
  5
1425F
  8
0
 10
182.6162918805113122
 20
51.8789477458692616
 30
0.0
 40
0.01
 50
90.0
 51
108.5740639155001048
  0
ARC
  5
14260
  8
0
 10
184.2313318140112983
 20
23.8719609151692609
 30
0.0
 40
6.0000000239000002
 50
173.080927169599903
 51
184.8244619864998981
  0
ARC
  5
14261
  8
0
 10
183.4542918805113061
 20
49.3851474275692581
 30
0.0
 40
2.6408333332999998
 50
72.663133362600604
 51
89.4074635060993188
  0
ARC
  5
14262
  8
0
 10
183.4542919097457911
 20
49.3851473035702426
 30
0.0
 40
2.6408334603772081
 50
91.0534398825431168
 51
107.3368664411796942
  0
ARC
  5
14263
  8
0
 10
183.4542918805113061
 20
49.3851474275692581
 30
0.0
 40
2.6408333332999998
 50
108.5740639153007976
 51
114.4763366309998958
  0
ARC
  5
14264
  8
0
 10
183.4542918755691971
 20
49.3851474140274505
 30
0.0
 40
2.6408333477106729
 50
65.5236633931584009
 51
71.4259360766454705
  0
ARC
  5
14265
  8
0
 10
184.2322918805112977
 20
51.8773686645692607
 30
0.0
 40
0.03
 50
22.7039335423149105
 51
72.6631333624999343
  0
ARC
  5
14266
  8
0
 10
183.6465452838112924
 20
51.8773692062692575
 30
0.0
 40
0.0299993617
 50
22.7033221020507696
 51
63.2734985746997225
  0
ARC
  5
14267
  8
0
 10
184.5442918805113095
 20
51.7795542492692604
 30
0.0
 40
0.01
 50
0.0
 51
65.5236633703994755
  0
ARC
  5
14268
  8
0
 10
184.2922918805113
 20
51.8789477458692616
 30
0.0
 40
0.01
 50
71.4259360844999094
 51
90.0
  0
ARC
  5
14269
  8
0
 10
183.455249263892
 20
109.5653121124101972
 30
0.0
 40
57.8193344627092998
 50
264.0891869284959057
 51
269.9990513004677268
  0
LINE
  5
1426A
  8
0
 10
188.8518918074433941
 20
19.3319650128692615
 30
0.0
 11
178.0566919157112977
 21
19.3319650128692615
 31
0.0
  0
ARC
  5
1426B
  8
0
 10
178.0572987101922138
 20
19.4333250860726814
 30
0.0
 40
0.1013618894819242
 50
181.0786587063145134
 51
269.6570015552554196
  0
ARC
  5
1426C
  8
0
 10
-2766.3108293261580002
 20
17.1658464984678716
 30
0.0
 40
2944.2475442937120533
 50
0.1697838086295185
 51
0.2479179224173893
  0
ARC
  5
1426D
  8
0
 10
169.0377931949759898
 20
27.4931701589238884
 30
0.0
 40
9.1935002226802833
 50
15.2123508391526698
 51
26.0743550555786712
  0
ARC
  5
1426E
  8
0
 10
186.173700001070813
 20
35.8370757445348573
 30
0.0
 40
9.8659160810439737
 50
181.5312846968438123
 51
205.8585000919777031
  0
LINE
  5
1426F
  8
0
 10
190.3473001169084
 20
35.8319650147692599
 30
0.0
 11
176.5612836062389022
 21
35.8319650147692599
 31
0.0
  0
ARC
  5
14270
  8
0
 10
176.5755123481173996
 20
35.5680892220974272
 30
0.0
 40
0.2642591361781795
 50
93.0865207031112902
 51
178.8417223815723105
  0
ARC
  5
14271
  8
0
 10
178.4565689891115028
 20
24.6036145774980888
 30
0.0
 40
0.1817565503003228
 50
137.3245070109240089
 51
182.7908676652452868
  0
ARC
  5
14272
  8
0
 10
178.4283249380929135
 20
23.3511803155938189
 30
0.0
 40
0.1764769324051583
 50
174.7457650635238906
 51
221.9005927797076936
  0
ARC
  5
14273
  8
0
 10
178.3007424470432909
 20
24.6975894222376802
 30
0.0
 40
0.0367020227893098
 50
359.219289923431802
 51
52.7837694760587013
  0
ARC
  5
14274
  8
0
 10
173.3062385962475105
 20
24.0694356134654086
 30
0.0
 40
5.0702019146856054
 50
350.974901613382599
 51
7.111038112545442
  0
ARC
  5
14275
  8
0
 10
178.2332584099767985
 20
23.2832216858756311
 30
0.0
 40
0.0809286834175646
 50
321.932498596484777
 51
353.5195319303477959
  0
ARC
  5
14276
  8
0
 10
172.2213580164248015
 20
24.0899140048137994
 30
0.0
 40
6.129530710887213
 50
352.0257443324850897
 51
5.9145936171443809
  0
ARC
  5
14277
  8
0
 10
176.4538846118429092
 20
36.1432904744016525
 30
0.0
 40
0.0609577658548769
 50
177.7544168099269939
 51
269.7696073584182272
  0
ARC
  5
14278
  8
0
 10
182.3758218117245065
 20
-565.8629844634245956
 30
0.0
 40
601.9744493763555511
 50
89.8973514299835443
 51
90.5636809441168396
  0
ARC
  5
14279
  8
0
 10
176.881795203670606
 20
36.0151934687150828
 30
0.0
 40
0.147797270033351
 50
7.2079982032313872
 51
29.314601599480909
  0
ARC
  5
1427A
  8
0
 10
177.2089476880427128
 20
36.0667203684297775
 30
0.0
 40
0.183511531696309
 50
190.3540313959780121
 51
266.5668865516818187
  0
LINE
  5
1427B
  8
0
 10
177.8829469915158938
 20
36.0678792326118511
 30
0.0
 11
177.8795717302635921
 21
35.8319650147692599
 31
0.0
  0
ARC
  5
1427C
  8
0
 10
178.1796367603976137
 20
35.216005160171342
 30
0.0
 40
0.919629430328338
 50
42.0509644023686704
 51
73.6811443768672802
  0
LINE
  5
1427D
  8
0
 10
177.8317395440614916
 20
36.0681005390410476
 30
0.0
 11
178.1645155936112985
 21
36.0666623599692713
 31
0.0
  0
ARC
  5
1427E
  8
0
 10
178.1499699473409066
 20
36.289936072479847
 30
0.0
 40
0.2237470145581447
 50
273.7273895545461073
 51
300.6372344338548146
  0
ARC
  5
1427F
  8
0
 10
180.4428886479473988
 20
35.7181295456145165
 30
0.0
 40
4.0724206482684702
 50
159.533762035444596
 51
173.9736079274568112
  0
ARC
  5
14280
  8
0
 10
176.9116899142391901
 20
37.0287515863560373
 30
0.0
 40
0.3059266075666803
 50
103.1190367624645035
 51
158.2583957309360017
  0
ARC
  5
14281
  8
0
 10
179.482833584291086
 20
23.4032838222813098
 30
0.0
 40
14.1715917336339903
 50
95.2731470200708372
 51
100.7386374460853062
  0
ARC
  5
14282
  8
0
 10
180.3002145640984111
 20
18.8173403899781206
 30
0.0
 40
18.81734039555446
 50
92.9955701925063352
 51
96.4681979479557157
  0
ARC
  5
14283
  8
0
 10
185.0293290047918049
 20
377.4819892863782229
 30
0.0
 40
339.9210244153562144
 50
269.0370801746562961
 51
269.7345168551644861
  0
ARC
  5
14284
  8
0
 10
820966.0090625465381891
 20
37013.8198126954666805
 30
0.0
 40
821620.6241636442719027
 50
182.5785091074745026
 51
182.5794191669990028
  0
LINE
  5
14285
  8
0
 10
177.3252334242112909
 20
50.615980735669261
 30
0.0
 11
189.5833502989430883
 21
50.615980735669261
 31
0.0
  0
LINE
  5
14286
  8
0
 10
189.6833212147755034
 20
51.8025218597227308
 30
0.0
 11
189.6737009051431073
 21
50.7459807609692604
 31
0.0
  0
LINE
  5
14287
  8
0
 10
189.6737009051431073
 20
50.7044100484692706
 30
0.0
 11
189.6737009051431073
 21
50.7459807609692604
 31
0.0
  0
LINE
  5
14288
  8
0
 10
188.9526289404431054
 20
19.4314169450692589
 30
0.0
 11
188.9847955632430967
 21
25.8904826632692604
 31
0.0
  0
LINE
  5
14289
  8
0
 10
189.0671695768430993
 20
36.0984875450692613
 30
0.0
 11
189.0671710004857005
 21
36.098483073543072
 31
0.0
  0
LINE
  5
1428A
  8
0
 10
189.0684783013587094
 20
36.094376965769257
 30
0.0
 11
189.0979025327430918
 21
36.0019582519692705
 31
0.0
  0
LINE
  5
1428B
  8
0
 10
189.2596296571431083
 20
35.8835321632692725
 30
0.0
 11
189.7106253084776029
 21
35.883538169140607
 31
0.0
  0
ARC
  5
1428C
  8
0
 10
189.2598906370924112
 20
36.0535319360127531
 30
0.0
 40
0.169999973048542
 50
197.6604062597311895
 51
269.9120408303277827
  0
ARC
  5
1428D
  8
0
 10
189.4333354639005904
 20
51.8047143433571193
 30
0.0
 40
0.2499953652070132
 50
359.4975040069649026
 51
95.9122835220485541
  0
ARC
  5
1428E
  8
0
 10
189.5446054402405025
 20
50.5157893574455414
 30
0.0
 40
0.1001914104169226
 50
1.056230336927201
 51
89.9540691429131698
  0
ARC
  5
1428F
  8
0
 10
189.5830890786988903
 20
50.7066191094746017
 30
0.0
 40
0.0906387502235813
 50
270.1651262644538178
 51
358.6034405176387168
  0
ARC
  5
14290
  8
0
 10
182.6772519091431093
 20
23.8719609151692609
 30
0.0
 40
6.0000000239000002
 50
355.1755380134999882
 51
6.919072830400065
  0
ARC
  5
14291
  8
0
 10
183.453334459230291
 20
109.5653121128245999
 30
0.0
 40
57.819334463124811
 50
270.0009487665445249
 51
275.9108130714927256
  0
ARC
  5
14292
  8
0
 10
188.8512850129621938
 20
19.4333250860726814
 30
0.0
 40
0.1013618894819242
 50
270.3429984447445804
 51
358.9213412936853729
  0
ARC
  5
14293
  8
0
 10
3133.219413049312152
 20
17.1658464984678716
 30
0.0
 40
2944.2475442937120533
 50
179.7520820775825996
 51
179.8302161913705106
  0
ARC
  5
14294
  8
0
 10
197.8707905281783894
 20
27.4931701589238884
 30
0.0
 40
9.1935002226802833
 50
153.9256449444208954
 51
164.7876491608473088
  0
ARC
  5
14295
  8
0
 10
180.7426835087613028
 20
35.8342719827503231
 30
0.0
 40
9.8576744345596978
 50
334.1363917912722172
 51
358.5335765937309134
  0
ARC
  5
14296
  8
0
 10
190.3474183975237963
 20
35.5822538225783731
 30
0.0
 40
0.2497112202038564
 50
359.9424556919565816
 51
90.0271392687037064
  0
ARC
  5
14297
  8
0
 10
188.4520147340429901
 20
24.6036145774980888
 30
0.0
 40
0.1817565503003228
 50
357.2091323347543721
 51
42.6754929890759769
  0
ARC
  5
14298
  8
0
 10
188.4802587850614941
 20
23.3511803155938189
 30
0.0
 40
0.1764769324051583
 50
318.0994072202922212
 51
5.2542349364760721
  0
ARC
  5
14299
  8
0
 10
188.607841276111202
 20
24.6975894222376802
 30
0.0
 40
0.0367020227893098
 50
127.2162305239413058
 51
180.780710076568198
  0
ARC
  5
1429A
  8
0
 10
193.6023451269068971
 20
24.0694356134654086
 30
0.0
 40
5.0702019146856054
 50
172.8889618874545135
 51
189.0250983866172874
  0
ARC
  5
1429B
  8
0
 10
188.6753253131776091
 20
23.2832216858756311
 30
0.0
 40
0.0809286834175646
 50
186.4804680696520904
 51
218.0675014035151946
  0
ARC
  5
1429C
  8
0
 10
194.6872257067296061
 20
24.0899140048137994
 30
0.0
 40
6.129530710887213
 50
174.0854063828556093
 51
187.9742556675147966
  0
ARC
  5
1429D
  8
0
 10
190.4546991113116121
 20
36.1432904744016525
 30
0.0
 40
0.0609577658548769
 50
270.2303926415817728
 51
2.2455831900729488
  0
ARC
  5
1429E
  8
0
 10
184.5327619264492114
 20
-565.8629822989347531
 30
0.0
 40
601.9744472118228487
 50
89.4363190552854945
 51
90.1026485679222731
  0
ARC
  5
1429F
  8
0
 10
190.0267885194838016
 20
36.0151934687150828
 30
0.0
 40
0.147797270033351
 50
150.685398400519091
 51
172.7920017967686022
  0
ARC
  5
142A0
  8
0
 10
189.6996360351118085
 20
36.0667203684297775
 30
0.0
 40
0.183511531696309
 50
273.4331134483181245
 51
349.6459686040220163
  0
LINE
  5
142A1
  8
0
 10
189.0256367316385138
 20
36.0678792326118511
 30
0.0
 11
189.029011992890787
 21
35.8319650147692599
 31
0.0
  0
ARC
  5
142A2
  8
0
 10
188.7289469627567939
 20
35.216005160171342
 30
0.0
 40
0.919629430328338
 50
106.3188556231327055
 51
137.9490355976313083
  0
LINE
  5
142A3
  8
0
 10
189.0768441790930012
 20
36.0681005390410476
 30
0.0
 11
188.7440681295431091
 21
36.0666623599692713
 31
0.0
  0
ARC
  5
142A4
  8
0
 10
188.758613775813501
 20
36.289936072479847
 30
0.0
 40
0.2237470145581447
 50
239.3627655661452138
 51
266.2726104454538927
  0
ARC
  5
142A5
  8
0
 10
186.4656950752070088
 20
35.7181295456145165
 30
0.0
 40
4.0724206482684702
 50
6.0263920725431568
 51
20.4662379645553898
  0
ARC
  5
142A6
  8
0
 10
189.9968938089151891
 20
37.0287515863560373
 30
0.0
 40
0.3059266075666803
 50
21.7416042690640516
 51
76.8809632375354255
  0
ARC
  5
142A7
  8
0
 10
187.4257501388632932
 20
23.4032838222813098
 30
0.0
 40
14.1715917336339903
 50
79.2613625539146796
 51
84.7268529799291485
  0
ARC
  5
142A8
  8
0
 10
186.6083691590559965
 20
18.8173403899781206
 30
0.0
 40
18.81734039555446
 50
83.5318020520442701
 51
87.004429807493679
  0
ARC
  5
142A9
  8
0
 10
181.8792546436702082
 20
377.4819947130775972
 30
0.0
 40
339.9210298425444989
 50
270.2654831604996275
 51
270.9629198225603091
  0
ARC
  5
142AA
  8
0
 10
-820599.1004788234131411
 20
37013.8198126954666805
 30
0.0
 40
821620.6241636442719027
 50
357.4205808330008267
 51
357.4214908925255259
  0
ARC
  5
142AB
  8
0
 10
183.4062391639137104
 20
51.9953502794980835
 30
0.0
 40
0.0301882592604577
 50
64.3682460164290262
 51
90.946868973358562
  0
ARC
  5
142AC
  8
0
 10
177.0708621001930112
 20
38.8110312030868911
 30
0.0
 40
14.6576717029807106
 50
63.2859779583624515
 51
64.334683940690681
  0
ARC
  5
142AD
  8
0
 10
183.4812671796931909
 20
51.9959238327877529
 30
0.0
 40
0.0299175845375676
 50
89.3585097589656669
 51
159.8446006369156862
  0
ARC
  5
142AE
  8
0
 10
177.0007594319563111
 20
37.1019544501613012
 30
0.0
 40
0.2499914956168191
 50
102.0544638183429953
 51
123.1158227995528023
  0
ARC
  5
142AF
  8
0
 10
177.0038225728021075
 20
37.516500332655049
 30
0.0
 40
0.2481751153724954
 50
235.7590383232681006
 51
270.9453991033661282
  0
ARC
  5
142B0
  8
0
 10
181.7804157632299962
 20
218.9861151872779885
 30
0.0
 40
181.7804160368193038
 50
268.4955725954403079
 51
270.5276002331960967
  0
ARC
  5
142B1
  8
0
 10
189.907824125586302
 20
37.1019542265465816
 30
0.0
 40
0.2499917474589254
 50
56.8841825197409321
 51
77.945520462461019
  0
ARC
  5
142B2
  8
0
 10
189.9047611028910865
 20
37.516500332655049
 30
0.0
 40
0.2481751153724954
 50
269.0546008966338718
 51
304.2409616767318994
  0
ARC
  5
142B3
  8
0
 10
185.1281679124631125
 20
218.9861151872779885
 30
0.0
 40
181.7804160368193038
 50
269.4723997668039033
 51
271.5044274045596921
  0
LINE
  5
142B4
  8
0
 10
183.4542918615773033
 20
19.3319650128692615
 30
0.0
 11
168.1689068277437116
 21
5.2947827380930192
 31
0.0
  0
ENDBLK
  5
142B8
  8
0
  0
BLOCK
  8
0
  2
A$C71DA3D4A
 70
     0
 10
0.0
 20
0.0
 30
0.0
  3
A$C71DA3D4A
  1

  0
LINE
  5
142BA
  8
0
 10
177.2252625083789042
 20
51.8025218597227308
 30
0.0
 11
177.2348828180113003
 21
50.7459807609692604
 31
0.0
  0
LINE
  5
142BB
  8
0
 10
177.2348828180113003
 20
50.7044100484692706
 30
0.0
 11
177.2348828180113003
 21
50.7459807609692604
 31
0.0
  0
LINE
  5
142BC
  8
0
 10
177.9559547827113022
 20
19.4314169450692589
 30
0.0
 11
177.9237881599113109
 21
25.8904826632692604
 31
0.0
  0
LINE
  5
142BD
  8
0
 10
177.8414141463113083
 20
36.0984875450692613
 30
0.0
 11
177.8414127226687071
 21
36.098483073543072
 31
0.0
  0
LINE
  5
142BE
  8
0
 10
177.8401054217956982
 20
36.094376965769257
 30
0.0
 11
177.8106811904112874
 21
36.0019582519692705
 31
0.0
  0
LINE
  5
142BF
  8
0
 10
182.3542918805113118
 20
51.7795542492692604
 30
0.0
 11
182.3542918805113118
 21
51.7564604497917387
 31
0.0
  0
LINE
  5
142C0
  8
0
 10
184.5542918805113004
 20
51.7795542492692604
 30
0.0
 11
184.5542918805113004
 21
51.7564604505123569
 31
0.0
  0
LINE
  5
142C1
  8
0
 10
177.6489540660112993
 20
35.8835321632692725
 30
0.0
 11
177.19795841467689
 21
35.883538169140607
 31
0.0
  0
LINE
  5
142C2
  8
0
 10
184.2922918805113
 20
51.8889477458692596
 30
0.0
 11
182.6162918805113122
 21
51.8889477458692596
 31
0.0
  0
ARC
  5
142C3
  8
0
 10
177.6486930860619964
 20
36.0535319360127531
 30
0.0
 40
0.169999973048542
 50
270.0879591696722173
 51
342.3395937402688105
  0
ARC
  5
142C4
  8
0
 10
177.4752482592539025
 20
51.8047143433571193
 30
0.0
 40
0.2499953652070132
 50
84.0877164779514743
 51
180.5024959930350974
  0
ARC
  5
142C5
  8
0
 10
177.3639782829139051
 20
50.5157893574455414
 30
0.0
 40
0.1001914104169278
 50
90.0459308570884644
 51
178.9437696630727999
  0
ARC
  5
142C6
  8
0
 10
177.3254946444556026
 20
50.7066191094746017
 30
0.0
 40
0.0906387502235813
 50
181.396559482361198
 51
269.8348737355462958
  0
ARC
  5
142C7
  8
0
 10
182.6762918805112861
 20
51.8773686645692607
 30
0.0
 40
0.03
 50
107.3368666375000942
 51
157.2960664576851002
  0
ARC
  5
142C8
  8
0
 10
182.3642918805113027
 20
51.7795542492692604
 30
0.0
 40
0.01
 50
114.4763366296004961
 51
180.0
  0
ARC
  5
142C9
  8
0
 10
182.6162918805113122
 20
51.8789477458692616
 30
0.0
 40
0.01
 50
90.0
 51
108.5740639155001048
  0
ARC
  5
142CA
  8
0
 10
184.2313318140112983
 20
23.8719609151692609
 30
0.0
 40
6.0000000239000002
 50
173.080927169599903
 51
184.8244619864998981
  0
ARC
  5
142CB
  8
0
 10
183.4542918805113061
 20
49.3851474275692581
 30
0.0
 40
2.6408333332999998
 50
72.663133362600604
 51
89.4074635060993188
  0
ARC
  5
142CC
  8
0
 10
183.4542919097457911
 20
49.3851473035702426
 30
0.0
 40
2.6408334603772081
 50
91.0534398825431168
 51
107.3368664411796942
  0
ARC
  5
142CD
  8
0
 10
183.4542918805113061
 20
49.3851474275692581
 30
0.0
 40
2.6408333332999998
 50
108.5740639153007976
 51
114.4763366309998958
  0
ARC
  5
142CE
  8
0
 10
183.4542918755691971
 20
49.3851474140274505
 30
0.0
 40
2.6408333477106729
 50
65.5236633931584009
 51
71.4259360766454705
  0
ARC
  5
142CF
  8
0
 10
184.2322918805112977
 20
51.8773686645692607
 30
0.0
 40
0.03
 50
22.7039335423149105
 51
72.6631333624999343
  0
ARC
  5
142D0
  8
0
 10
183.6465452838112924
 20
51.8773692062692575
 30
0.0
 40
0.0299993617
 50
22.7033221020507696
 51
63.2734985746997225
  0
ARC
  5
142D1
  8
0
 10
184.5442918805113095
 20
51.7795542492692604
 30
0.0
 40
0.01
 50
0.0
 51
65.5236633703994755
  0
ARC
  5
142D2
  8
0
 10
184.2922918805113
 20
51.8789477458692616
 30
0.0
 40
0.01
 50
71.4259360844999094
 51
90.0
  0
ARC
  5
142D3
  8
0
 10
183.455249263892
 20
109.5653121124101972
 30
0.0
 40
57.8193344627092998
 50
264.0891869284959057
 51
269.9990513004677268
  0
LINE
  5
142D4
  8
0
 10
188.8518918074433941
 20
19.3319650128692615
 30
0.0
 11
178.0566919157112977
 21
19.3319650128692615
 31
0.0
  0
ARC
  5
142D5
  8
0
 10
178.0572987101922138
 20
19.4333250860726814
 30
0.0
 40
0.1013618894819242
 50
181.0786587063145134
 51
269.6570015552554196
  0
ARC
  5
142D6
  8
0
 10
-2766.3108293261580002
 20
17.1658464984678716
 30
0.0
 40
2944.2475442937120533
 50
0.1697838086295185
 51
0.2479179224173893
  0
ARC
  5
142D7
  8
0
 10
169.0377931949759898
 20
27.4931701589238884
 30
0.0
 40
9.1935002226802833
 50
15.2123508391526698
 51
26.0743550555786712
  0
ARC
  5
142D8
  8
0
 10
186.173700001070813
 20
35.8370757445348573
 30
0.0
 40
9.8659160810439737
 50
181.5312846968438123
 51
205.8585000919777031
  0
LINE
  5
142D9
  8
0
 10
190.3473001169084
 20
35.8319650147692599
 30
0.0
 11
176.5612836062389022
 21
35.8319650147692599
 31
0.0
  0
ARC
  5
142DA
  8
0
 10
176.5755123481173996
 20
35.5680892220974272
 30
0.0
 40
0.2642591361781795
 50
93.0865207031112902
 51
178.8417223815723105
  0
ARC
  5
142DB
  8
0
 10
178.4565689891115028
 20
24.6036145774980888
 30
0.0
 40
0.1817565503003228
 50
137.3245070109240089
 51
182.7908676652452868
  0
ARC
  5
142DC
  8
0
 10
178.4283249380929135
 20
23.3511803155938189
 30
0.0
 40
0.1764769324051583
 50
174.7457650635238906
 51
221.9005927797076936
  0
ARC
  5
142DD
  8
0
 10
178.3007424470432909
 20
24.6975894222376802
 30
0.0
 40
0.0367020227893098
 50
359.219289923431802
 51
52.7837694760587013
  0
ARC
  5
142DE
  8
0
 10
173.3062385962475105
 20
24.0694356134654086
 30
0.0
 40
5.0702019146856054
 50
350.974901613382599
 51
7.111038112545442
  0
ARC
  5
142DF
  8
0
 10
178.2332584099767985
 20
23.2832216858756311
 30
0.0
 40
0.0809286834175646
 50
321.932498596484777
 51
353.5195319303477959
  0
ARC
  5
142E0
  8
0
 10
172.2213580164248015
 20
24.0899140048137994
 30
0.0
 40
6.129530710887213
 50
352.0257443324850897
 51
5.9145936171443809
  0
ARC
  5
142E1
  8
0
 10
176.4538846118429092
 20
36.1432904744016525
 30
0.0
 40
0.0609577658548769
 50
177.7544168099269939
 51
269.7696073584182272
  0
ARC
  5
142E2
  8
0
 10
182.3758218117245065
 20
-565.8629844634245956
 30
0.0
 40
601.9744493763555511
 50
89.8973514299835443
 51
90.5636809441168396
  0
ARC
  5
142E3
  8
0
 10
176.881795203670606
 20
36.0151934687150828
 30
0.0
 40
0.147797270033351
 50
7.2079982032313872
 51
29.314601599480909
  0
ARC
  5
142E4
  8
0
 10
177.2089476880427128
 20
36.0667203684297775
 30
0.0
 40
0.183511531696309
 50
190.3540313959780121
 51
266.5668865516818187
  0
LINE
  5
142E5
  8
0
 10
177.8829469915158938
 20
36.0678792326118511
 30
0.0
 11
177.8795717302635921
 21
35.8319650147692599
 31
0.0
  0
ARC
  5
142E6
  8
0
 10
178.1796367603976137
 20
35.216005160171342
 30
0.0
 40
0.919629430328338
 50
42.0509644023686704
 51
73.6811443768672802
  0
LINE
  5
142E7
  8
0
 10
177.8317395440614916
 20
36.0681005390410476
 30
0.0
 11
178.1645155936112985
 21
36.0666623599692713
 31
0.0
  0
ARC
  5
142E8
  8
0
 10
178.1499699473409066
 20
36.289936072479847
 30
0.0
 40
0.2237470145581447
 50
273.7273895545461073
 51
300.6372344338548146
  0
ARC
  5
142E9
  8
0
 10
180.4428886479473988
 20
35.7181295456145165
 30
0.0
 40
4.0724206482684702
 50
159.533762035444596
 51
173.9736079274568112
  0
ARC
  5
142EA
  8
0
 10
176.9116899142391901
 20
37.0287515863560373
 30
0.0
 40
0.3059266075666803
 50
103.1190367624645035
 51
158.2583957309360017
  0
ARC
  5
142EB
  8
0
 10
179.482833584291086
 20
23.4032838222813098
 30
0.0
 40
14.1715917336339903
 50
95.2731470200708372
 51
100.7386374460853062
  0
ARC
  5
142EC
  8
0
 10
180.3002145640984111
 20
18.8173403899781206
 30
0.0
 40
18.81734039555446
 50
92.9955701925063352
 51
96.4681979479557157
  0
ARC
  5
142ED
  8
0
 10
185.0293290047918049
 20
377.4819892863782229
 30
0.0
 40
339.9210244153562144
 50
269.0370801746562961
 51
269.7345168551644861
  0
ARC
  5
142EE
  8
0
 10
820966.0090625465381891
 20
37013.8198126954666805
 30
0.0
 40
821620.6241636442719027
 50
182.5785091074745026
 51
182.5794191669990028
  0
LINE
  5
142EF
  8
0
 10
177.3252334242112909
 20
50.615980735669261
 30
0.0
 11
189.5833502989430883
 21
50.615980735669261
 31
0.0
  0
LINE
  5
142F0
  8
0
 10
189.6833212147755034
 20
51.8025218597227308
 30
0.0
 11
189.6737009051431073
 21
50.7459807609692604
 31
0.0
  0
LINE
  5
142F1
  8
0
 10
189.6737009051431073
 20
50.7044100484692706
 30
0.0
 11
189.6737009051431073
 21
50.7459807609692604
 31
0.0
  0
LINE
  5
142F2
  8
0
 10
188.9526289404431054
 20
19.4314169450692589
 30
0.0
 11
188.9847955632430967
 21
25.8904826632692604
 31
0.0
  0
LINE
  5
142F3
  8
0
 10
189.0671695768430993
 20
36.0984875450692613
 30
0.0
 11
189.0671710004857005
 21
36.098483073543072
 31
0.0
  0
LINE
  5
142F4
  8
0
 10
189.0684783013587094
 20
36.094376965769257
 30
0.0
 11
189.0979025327430918
 21
36.0019582519692705
 31
0.0
  0
LINE
  5
142F5
  8
0
 10
189.2596296571431083
 20
35.8835321632692725
 30
0.0
 11
189.7106253084776029
 21
35.883538169140607
 31
0.0
  0
ARC
  5
142F6
  8
0
 10
189.2598906370924112
 20
36.0535319360127531
 30
0.0
 40
0.169999973048542
 50
197.6604062597311895
 51
269.9120408303277827
  0
ARC
  5
142F7
  8
0
 10
189.4333354639005904
 20
51.8047143433571193
 30
0.0
 40
0.2499953652070132
 50
359.4975040069649026
 51
95.9122835220485541
  0
ARC
  5
142F8
  8
0
 10
189.5446054402405025
 20
50.5157893574455414
 30
0.0
 40
0.1001914104169226
 50
1.056230336927201
 51
89.9540691429131698
  0
ARC
  5
142F9
  8
0
 10
189.5830890786988903
 20
50.7066191094746017
 30
0.0
 40
0.0906387502235813
 50
270.1651262644538178
 51
358.6034405176387168
  0
ARC
  5
142FA
  8
0
 10
182.6772519091431093
 20
23.8719609151692609
 30
0.0
 40
6.0000000239000002
 50
355.1755380134999882
 51
6.919072830400065
  0
ARC
  5
142FB
  8
0
 10
183.453334459230291
 20
109.5653121128245999
 30
0.0
 40
57.819334463124811
 50
270.0009487665445249
 51
275.9108130714927256
  0
ARC
  5
142FC
  8
0
 10
188.8512850129621938
 20
19.4333250860726814
 30
0.0
 40
0.1013618894819242
 50
270.3429984447445804
 51
358.9213412936853729
  0
ARC
  5
142FD
  8
0
 10
3133.219413049312152
 20
17.1658464984678716
 30
0.0
 40
2944.2475442937120533
 50
179.7520820775825996
 51
179.8302161913705106
  0
ARC
  5
142FE
  8
0
 10
197.8707905281783894
 20
27.4931701589238884
 30
0.0
 40
9.1935002226802833
 50
153.9256449444208954
 51
164.7876491608473088
  0
ARC
  5
142FF
  8
0
 10
180.7426835087613028
 20
35.8342719827503231
 30
0.0
 40
9.8576744345596978
 50
334.1363917912722172
 51
358.5335765937309134
  0
ARC
  5
14300
  8
0
 10
190.3474183975237963
 20
35.5822538225783731
 30
0.0
 40
0.2497112202038564
 50
359.9424556919565816
 51
90.0271392687037064
  0
ARC
  5
14301
  8
0
 10
188.4520147340429901
 20
24.6036145774980888
 30
0.0
 40
0.1817565503003228
 50
357.2091323347543721
 51
42.6754929890759769
  0
ARC
  5
14302
  8
0
 10
188.4802587850614941
 20
23.3511803155938189
 30
0.0
 40
0.1764769324051583
 50
318.0994072202922212
 51
5.2542349364760721
  0
ARC
  5
14303
  8
0
 10
188.607841276111202
 20
24.6975894222376802
 30
0.0
 40
0.0367020227893098
 50
127.2162305239413058
 51
180.780710076568198
  0
ARC
  5
14304
  8
0
 10
193.6023451269068971
 20
24.0694356134654086
 30
0.0
 40
5.0702019146856054
 50
172.8889618874545135
 51
189.0250983866172874
  0
ARC
  5
14305
  8
0
 10
188.6753253131776091
 20
23.2832216858756311
 30
0.0
 40
0.0809286834175646
 50
186.4804680696520904
 51
218.0675014035151946
  0
ARC
  5
14306
  8
0
 10
194.6872257067296061
 20
24.0899140048137994
 30
0.0
 40
6.129530710887213
 50
174.0854063828556093
 51
187.9742556675147966
  0
ARC
  5
14307
  8
0
 10
190.4546991113116121
 20
36.1432904744016525
 30
0.0
 40
0.0609577658548769
 50
270.2303926415817728
 51
2.2455831900729488
  0
ARC
  5
14308
  8
0
 10
184.5327619264492114
 20
-565.8629822989347531
 30
0.0
 40
601.9744472118228487
 50
89.4363190552854945
 51
90.1026485679222731
  0
ARC
  5
14309
  8
0
 10
190.0267885194838016
 20
36.0151934687150828
 30
0.0
 40
0.147797270033351
 50
150.685398400519091
 51
172.7920017967686022
  0
ARC
  5
1430A
  8
0
 10
189.6996360351118085
 20
36.0667203684297775
 30
0.0
 40
0.183511531696309
 50
273.4331134483181245
 51
349.6459686040220163
  0
LINE
  5
1430B
  8
0
 10
189.0256367316385138
 20
36.0678792326118511
 30
0.0
 11
189.029011992890787
 21
35.8319650147692599
 31
0.0
  0
ARC
  5
1430C
  8
0
 10
188.7289469627567939
 20
35.216005160171342
 30
0.0
 40
0.919629430328338
 50
106.3188556231327055
 51
137.9490355976313083
  0
LINE
  5
1430D
  8
0
 10
189.0768441790930012
 20
36.0681005390410476
 30
0.0
 11
188.7440681295431091
 21
36.0666623599692713
 31
0.0
  0
ARC
  5
1430E
  8
0
 10
188.758613775813501
 20
36.289936072479847
 30
0.0
 40
0.2237470145581447
 50
239.3627655661452138
 51
266.2726104454538927
  0
ARC
  5
1430F
  8
0
 10
186.4656950752070088
 20
35.7181295456145165
 30
0.0
 40
4.0724206482684702
 50
6.0263920725431568
 51
20.4662379645553898
  0
ARC
  5
14310
  8
0
 10
189.9968938089151891
 20
37.0287515863560373
 30
0.0
 40
0.3059266075666803
 50
21.7416042690640516
 51
76.8809632375354255
  0
ARC
  5
14311
  8
0
 10
187.4257501388632932
 20
23.4032838222813098
 30
0.0
 40
14.1715917336339903
 50
79.2613625539146796
 51
84.7268529799291485
  0
ARC
  5
14312
  8
0
 10
186.6083691590559965
 20
18.8173403899781206
 30
0.0
 40
18.81734039555446
 50
83.5318020520442701
 51
87.004429807493679
  0
ARC
  5
14313
  8
0
 10
181.8792546436702082
 20
377.4819947130775972
 30
0.0
 40
339.9210298425444989
 50
270.2654831604996275
 51
270.9629198225603091
  0
ARC
  5
14314
  8
0
 10
-820599.1004788234131411
 20
37013.8198126954666805
 30
0.0
 40
821620.6241636442719027
 50
357.4205808330008267
 51
357.4214908925255259
  0
ARC
  5
14315
  8
0
 10
183.4062391639137104
 20
51.9953502794980835
 30
0.0
 40
0.0301882592604577
 50
64.3682460164290262
 51
90.946868973358562
  0
ARC
  5
14316
  8
0
 10
177.0708621001930112
 20
38.8110312030868911
 30
0.0
 40
14.6576717029807106
 50
63.2859779583624515
 51
64.334683940690681
  0
ARC
  5
14317
  8
0
 10
183.4812671796931909
 20
51.9959238327877529
 30
0.0
 40
0.0299175845375676
 50
89.3585097589656669
 51
159.8446006369156862
  0
ARC
  5
14318
  8
0
 10
177.0007594319563111
 20
37.1019544501613012
 30
0.0
 40
0.2499914956168191
 50
102.0544638183429953
 51
123.1158227995528023
  0
ARC
  5
14319
  8
0
 10
177.0038225728021075
 20
37.516500332655049
 30
0.0
 40
0.2481751153724954
 50
235.7590383232681006
 51
270.9453991033661282
  0
ARC
  5
1431A
  8
0
 10
181.7804157632299962
 20
218.9861151872779885
 30
0.0
 40
181.7804160368193038
 50
268.4955725954403079
 51
270.5276002331960967
  0
ARC
  5
1431B
  8
0
 10
189.907824125586302
 20
37.1019542265465816
 30
0.0
 40
0.2499917474589254
 50
56.8841825197409321
 51
77.945520462461019
  0
ARC
  5
1431C
  8
0
 10
189.9047611028910865
 20
37.516500332655049
 30
0.0
 40
0.2481751153724954
 50
269.0546008966338718
 51
304.2409616767318994
  0
ARC
  5
1431D
  8
0
 10
185.1281679124631125
 20
218.9861151872779885
 30
0.0
 40
181.7804160368193038
 50
269.4723997668039033
 51
271.5044274045596921
  0
LINE
  5
1431E
  8
0
 10
183.4542918615773033
 20
19.3319650128692615
 30
0.0
 11
168.1689068277437116
 21
5.2947827380930192
 31
0.0
  0
ENDBLK
  5
14322
  8
0
  0
BLOCK
  8
0
  2
A$CC379987D
 70
     0
 10
0.0
 20
0.0
 30
0.0
  3
A$CC379987D
  1

  0
LINE
  5
143CD
  8
0
 10
69.2316241713456151
 20
112.9666014745724993
 30
0.0
 11
90.9316537142456127
 21
112.9666014745724993
 31
0.0
  0
LINE
  5
143CE
  8
0
 10
67.4438723356050787
 20
129.4666014745725136
 30
0.0
 11
67.4432978939033347
 21
129.5087300883010926
 31
0.0
  0
LINE
  5
143CF
  8
0
 10
68.33505221074563
 20
129.4666014745725136
 30
0.0
 11
68.3358503782899902
 21
129.5063933860529062
 31
0.0
  0
LINE
  5
143D0
  8
0
 10
86.8767731233456146
 20
129.4666014745725136
 30
0.0
 11
64.4162329851456263
 21
129.4666014745725136
 31
0.0
  0
LINE
  5
143D1
  8
0
 10
67.4362732672456104
 20
129.5087484787725032
 30
0.0
 11
68.3429653006479896
 21
129.5063747591362926
 31
0.0
  0
LINE
  5
143D2
  8
0
 10
81.214376509545616
 20
129.7258287108724915
 30
0.0
 11
82.1234964903456159
 21
130.022974923572491
 31
0.0
  0
LINE
  5
143D3
  8
0
 10
85.9746358426582447
 20
130.7566004911006132
 30
0.0
 11
92.0816537126456041
 21
130.7566014745725056
 31
0.0
  0
LINE
  5
143D4
  8
0
 10
81.057729299345624
 20
129.7010882901724926
 30
0.0
 11
64.2330474579456165
 21
129.7451353048724911
 31
0.0
  0
LINE
  5
143D5
  8
0
 10
81.0996743325253817
 20
129.7027406000322003
 30
0.0
 11
81.0914281725456192
 21
129.4666014745725136
 31
0.0
  0
LINE
  5
143D6
  8
0
 10
82.2380805404456225
 20
129.4666014745725136
 30
0.0
 11
82.164002249723552
 21
130.0699207372258002
 31
0.0
  0
LINE
  5
143D7
  8
0
 10
82.183222728445628
 20
130.0396781607724961
 30
0.0
 11
82.2535876977535878
 21
129.4666014745725136
 31
0.0
  0
LINE
  5
143D8
  8
0
 10
82.1644276127456266
 20
130.087162094372502
 30
0.0
 11
82.0941926040456167
 21
130.671830451072509
 31
0.0
  0
LINE
  5
143D9
  8
0
 10
85.0023007554815422
 20
144.3390465059931955
 30
0.0
 11
84.9941276416456049
 21
145.1284360235725046
 31
0.0
  0
LINE
  5
143DA
  8
0
 10
85.7749640759456042
 20
130.9453597463725032
 30
0.0
 11
85.0314413343456295
 21
144.1523552357724896
 31
0.0
  0
LINE
  5
143DB
  8
0
 10
87.2385251831456117
 20
145.4371673712724942
 30
0.0
 11
87.2433686378461175
 21
144.339046502641196
 31
0.0
  0
LINE
  5
143DC
  8
0
 10
91.0316537142456355
 20
113.0666014844724998
 30
0.0
 11
91.0316537142456355
 21
119.5265492112724957
 31
0.0
  0
LINE
  5
143DD
  8
0
 10
92.2816537142456355
 20
129.2074154687724956
 30
0.0
 11
92.256401233145624
 21
130.511441813172496
 31
0.0
  0
LINE
  5
143DE
  8
0
 10
92.2816537142456355
 20
129.2074154687724956
 30
0.0
 11
92.256401233145624
 21
130.511441813172496
 31
0.0
  0
LINE
  5
143DF
  8
0
 10
92.2816537142456355
 20
144.1514892580725018
 30
0.0
 11
92.2793617083456184
 21
144.2819261523725061
 31
0.0
  0
LINE
  5
143E0
  8
0
 10
92.2506537142456153
 20
144.4332866493724907
 30
0.0
 11
92.2506537142456153
 21
145.4207981289725069
 31
0.0
  0
LINE
  5
143E1
  8
0
 10
92.2816537142456355
 20
125.0893173360724973
 30
0.0
 11
92.2816537142456355
 21
129.2074154687724103
 31
0.0
  0
LINE
  5
143E2
  8
0
 10
92.2816537142456355
 20
130.9566014745724942
 30
0.0
 11
92.2816537142456355
 21
144.1514892580725018
 31
0.0
  0
LINE
  5
143E3
  8
0
 10
91.6726305750456163
 20
122.3421960956725059
 30
0.0
 11
91.6406774342456174
 21
122.2736723641724979
 31
0.0
  0
LINE
  5
143E4
  8
0
 10
85.0922870469396173
 20
144.2506172225724868
 30
0.0
 11
92.1759216352118642
 21
144.2506172225724868
 31
0.0
  0
LINE
  5
143E5
  8
0
 10
91.8581035243456085
 20
145.6893461702674131
 30
0.0
 11
87.4317292455456254
 21
145.6893461702674131
 31
0.0
  0
ARC
  5
143E6
  8
0
 10
67.4364716328868781
 20
129.6187483707217041
 30
0.0
 40
0.1100000708079593
 50
185.7209767382144889
 51
269.8966771555651007
  0
ARC
  5
143E7
  8
0
 10
68.3432532796456087
 20
129.616374382172495
 30
0.0
 40
0.11
 50
269.8500000000000796
 51
347.666208242899927
  0
ARC
  5
143E8
  8
0
 10
81.059038294745605
 20
130.201086576672509
 30
0.0
 40
0.5
 50
269.8500000000000796
 51
288.1000000000008754
  0
ARC
  5
143E9
  8
0
 10
82.3116533974659035
 20
130.0066021974469948
 30
0.0
 40
0.1354992403585393
 50
99.7413169874696734
 51
159.0682037471144952
  0
ARC
  5
143EA
  8
0
 10
82.1048559045456159
 20
130.0800058674724937
 30
0.0
 40
0.06
 50
288.1000000000008754
 51
6.8499999999998709
  0
ARC
  5
143EB
  8
0
 10
82.2149875632161695
 20
130.0435770810512111
 30
0.0
 40
0.0320032233898522
 50
159.0687235614149131
 51
186.9976703757743905
  0
ARC
  5
143EC
  8
0
 10
83.6968027024456092
 20
129.8335321583724919
 30
0.0
 40
0.0600063242
 50
0.9680422425000015
 51
73.1104417239993154
  0
ARC
  5
143ED
  8
0
 10
85.7816537101298024
 20
125.0892657409695943
 30
0.0
 40
6.5000000043206017
 50
334.9995045370723119
 51
0.0004547971758726
  0
ARC
  5
143EE
  8
0
 10
85.9747112784694423
 20
130.9566674906432127
 30
0.0
 40
0.2000670137643389
 50
183.240071668650188
 51
269.9783964701322247
  0
ARC
  5
143EF
  8
0
 10
85.2441194483128442
 20
145.130609612711396
 30
0.0
 40
0.250001255777831
 50
94.9930474774149474
 51
180.4981537100904063
  0
ARC
  5
143F0
  8
0
 10
85.1317095259385326
 20
144.1503286956233865
 30
0.0
 40
0.1002886689027593
 50
90.0964017791414733
 51
178.8421413683946923
  0
ARC
  5
143F1
  8
0
 10
85.0922870480456055
 20
144.3406172225724902
 30
0.0
 40
0.09
 50
181.0000000000001137
 51
269.9999992958998973
  0
ARC
  5
143F2
  8
0
 10
97.5316537142456355
 20
119.5266014745725016
 30
0.0
 40
6.5
 50
154.9994924178008944
 51
180.0004606870998032
  0
ARC
  5
143F3
  8
0
 10
90.9316407210362456
 20
113.066614467780596
 30
0.0
 40
0.100012994052092
 50
270.0074435933875066
 51
359.9925620788924903
  0
ARC
  5
143F4
  8
0
 10
92.0064489593389965
 20
130.5066023555125128
 30
0.0
 40
0.2499991190615413
 50
1.1091951863174081
 51
90.0001980277757667
  0
ARC
  5
143F5
  8
0
 10
92.0816537142456042
 20
130.9566014745724942
 30
0.0
 40
0.2
 50
269.9999995500999717
 51
0.0
  0
ARC
  5
143F6
  8
0
 10
92.1816072772053872
 20
144.150574344265209
 30
0.0
 40
0.1000506203465183
 50
0.5239490790741347
 51
72.7329680627590847
  0
ARC
  5
143F7
  8
0
 10
92.1793650749909261
 20
144.2806136827886121
 30
0.0
 40
0.100005246155811
 50
0.7519718181113927
 51
54.3532887753188731
  0
ARC
  5
143F8
  8
0
 10
69.2385624476202111
 20
113.0735440223561028
 30
0.0
 40
0.1071673840499386
 50
183.7472088387177962
 51
266.2879359957146903
  0
ARC
  5
143F9
  8
0
 10
51.3043361232059567
 20
114.049000741175206
 30
0.0
 40
17.8543391960005486
 50
356.8456244250883742
 51
18.4966889535053589
  0
ARC
  5
143FA
  8
0
 10
35.4318339309749319
 20
106.3238065850809022
 30
0.0
 40
35.4318337089344908
 50
22.2032987716197496
 51
31.9778952444877902
  0
ARC
  5
143FB
  8
0
 10
73.2718417597113785
 20
129.8555206731643921
 30
0.0
 40
9.1285965329357062
 50
184.0714497630200981
 51
211.4824682119752879
  0
ARC
  5
143FC
  8
0
 10
64.4163305352103635
 20
129.2163920373104133
 30
0.0
 40
0.2502094562782292
 50
90.0223381131352767
 51
182.0626279472909914
  0
ARC
  5
143FD
  8
0
 10
86.8816394864898172
 20
129.9366471019411904
 30
0.0
 40
0.4700708173229532
 50
269.4068403312055011
 51
323.6581974808187283
  0
ARC
  5
143FE
  8
0
 10
86.1148775261959543
 20
130.2589204842028039
 30
0.0
 40
1.293426561649641
 50
332.3200718856681988
 51
11.4644125040822704
  0
ARC
  5
143FF
  8
0
 10
87.6174138458638652
 20
130.5236772375675969
 30
0.0
 40
0.2350411401518088
 50
97.6956034094759929
 51
181.8715694227770996
  0
ARC
  5
14400
  8
0
 10
85.0151231592705301
 20
130.1114035476047093
 30
0.0
 40
0.6977164603489855
 50
292.4578786499945977
 51
351.7119069896525048
  0
ARC
  5
14401
  8
0
 10
83.6364322625614705
 20
130.5761131807959998
 30
0.0
 40
2.144949108208237
 50
344.7196174936511284
 51
358.3564796630723208
  0
ARC
  5
14402
  8
0
 10
86.0303703795564871
 20
130.5066013011897894
 30
0.0
 40
0.2499991988870302
 50
89.9998652995777633
 51
178.1678687442511091
  0
ARC
  5
14403
  8
0
 10
91.9969506701729642
 20
145.4199029737698083
 30
0.0
 40
0.2537046232818127
 50
0.2021591915782826
 51
58.1850047727296626
  0
ARC
  5
14404
  8
0
 10
91.80751366724175
 20
144.7164880535098916
 30
0.0
 40
0.9741725971216775
 50
70.6247980674586842
 51
87.0232279916917832
  0
ARC
  5
14405
  8
0
 10
96.4765189047762135
 20
73.1254354312482349
 30
0.0
 40
73.1254358053342912
 50
97.105035828200414
 51
98.8531273292232839
  0
ARC
  5
14406
  8
0
 10
92.1768358323400889
 20
144.1164868219514972
 30
0.0
 40
0.134133516047035
 50
75.1093307502596872
 51
90.3905067440720558
  0
ARC
  5
14407
  8
0
 10
91.980986467186483
 20
144.4437443166272033
 30
0.0
 40
0.2698699444933795
 50
337.1055284105573264
 51
357.7791885761346862
  0
ARC
  5
14408
  8
0
 10
92.119529529290844
 20
144.3632585981758893
 30
0.0
 40
0.1127617852572676
 50
272.6480486887988945
 51
347.4494929467912812
  0
ARC
  5
14409
  8
0
 10
87.6068635193485363
 20
130.9402379560642942
 30
0.0
 40
0.1848247111983176
 50
178.4053436055561974
 51
263.499589825632313
  0
ARC
  5
1440A
  8
0
 10
-19434.3305398767915904
 20
-326.8943941638963793
 30
0.0
 40
19527.1207247292295506
 50
1.343500214199832
 51
1.3822625994296751
  0
ARC
  5
1440B
  8
0
 10
87.1999177506069572
 20
144.1592320099856011
 30
0.0
 40
0.0922746548578118
 50
97.9616808785749953
 51
184.2764227215508868
  0
ARC
  5
1440C
  8
0
 10
87.3282529559911325
 20
144.3344778047967907
 30
0.0
 40
0.0850071789141098
 50
176.9191626965771036
 51
260.578836577097718
  0
ARC
  5
1440D
  8
0
 10
87.4697197671692948
 20
145.4684867647243038
 30
0.0
 40
0.2333063224348578
 50
113.4811511413717966
 51
187.7147624933436987
  0
CIRCLE
  5
1440E
  8
0
 10
80.7892491998456137
 20
117.6131529031589054
 30
0.0
 40
0.7434442799947484
  0
ARC
  5
1440F
  8
0
 10
64.2332384732869741
 20
129.8051674058361868
 30
0.0
 40
0.0600324048575269
 50
177.3642980309448092
 51
269.8176919386344252
  0
ARC
  5
14410
  8
0
 10
67.7659934216482043
 20
129.461196242700197
 30
0.0
 40
3.6094165147257522
 50
160.3261053588074958
 51
174.4874884993656963
  0
ARC
  5
14411
  8
0
 10
64.6046934290505988
 20
130.5980446369341053
 30
0.0
 40
0.2499983669859207
 50
89.8843191485038062
 51
161.7427727997634008
  0
ARC
  5
14412
  8
0
 10
66.8858276025744942
 20
403.090592448437917
 30
0.0
 40
272.2521024272584782
 50
269.5200332053628927
 51
273.126136750852595
  0
ARC
  5
14413
  8
0
 10
81.7128502906507777
 20
130.9653661581745894
 30
0.0
 40
0.2789850012721989
 50
25.4721724145504105
 51
85.8769930503783741
  0
ARC
  5
14414
  8
0
 10
81.0155810154919891
 20
130.5611383773282057
 30
0.0
 40
1.084276576410276
 50
5.8594432512173391
 51
28.9120628304858904
  0
ARC
  5
14415
  8
0
 10
82.2938035102609433
 20
130.1104223322996916
 30
0.0
 40
0.0301558219422099
 50
83.2723580393513743
 51
99.691649973576034
  0
ARC
  5
14416
  8
0
 10
81.2823761426186593
 20
120.2253601680264978
 30
0.0
 40
9.9668236714325307
 50
75.8775216681587352
 51
84.1552179533003368
  0
ARC
  5
14417
  8
0
 10
83.6762216214241903
 20
129.8262379257789121
 30
0.0
 40
0.0810060048331644
 50
296.6019235147824133
 51
5.8866391245990899
  0
ARC
  5
14418
  8
0
 10
83.8546713084680277
 20
129.5363512329097091
 30
0.0
 40
0.2598098742725134
 50
123.177271276982097
 51
143.0018764078575941
  0
ARC
  5
14419
  8
0
 10
83.7818749598931163
 20
129.5894253603433128
 30
0.0
 40
0.1697372122511739
 50
142.5225067036514872
 51
175.3917275090213934
  0
LINE
  5
1441A
  8
0
 10
83.6126864590342507
 20
129.6030625301353041
 30
0.0
 11
83.605456855745615
 21
129.4666014745725136
 31
0.0
  0
ARC
  5
1441B
  8
0
 10
65.0197646393581294
 20
124.0271299683176949
 30
0.0
 40
5.716021847549948
 50
80.2883174500575052
 51
89.5184085800782015
  0
ARC
  5
1441C
  8
0
 10
65.6504196577441803
 20
128.4313399145235053
 30
0.0
 40
1.2743319612384749
 50
58.5819542330343097
 51
74.8248450315502822
  0
ARC
  5
1441D
  8
0
 10
66.3882509429998038
 20
129.6130259646965044
 30
0.0
 40
0.119502883221194
 50
232.0144861074086862
 51
269.1158961845823114
  0
LINE
  5
1441E
  8
0
 10
66.3864070242456137
 20
129.4935373080724901
 30
0.0
 11
67.4435941602456239
 21
129.4887611865725034
 31
0.0
  0
ARC
  5
1441F
  8
0
 10
67.1778343742387847
 20
129.5928878038733956
 30
0.0
 40
0.1499268464808901
 50
5.7017735238248788
 51
74.4410374358974138
  0
ARC
  5
14420
  8
0
 10
68.5901609145159341
 20
129.5997233819765881
 30
0.0
 40
0.1396143952654962
 50
106.1472130846472055
 51
182.8105157865985859
  0
LINE
  5
14421
  8
0
 10
68.3766735011249551
 20
129.5115741493661972
 30
0.0
 11
70.9350910244456259
 21
129.4666014745725136
 31
0.0
  0
LINE
  5
14422
  8
0
 10
92.7816537142456355
 20
112.9666014745724993
 30
0.0
 11
123.1633329193911948
 21
89.9371738505359133
 31
0.0
  0
ENDBLK
  5
14426
  8
0
  0
ENDSEC
  0
SECTION
  2
ENTITIES
  0
ATTDEF
  5
3930
  8
DEFPOINTS
 10
4541.2239277170356218
 20
-8.6116543896396607
 30
0.0
 40
0.001
  1
K-6355M
  3

  2
MODELNUMBER
 70
     0
1001
ACDBATTR
1070
     0
1070
     1
  0
ATTDEF
  5
3931
  8
DEFPOINTS
 10
4541.2239277170356218
 20
-8.6133210563063258
 30
0.0
 40
0.001
  1
PERSUADE/CURV
  3

  2
TRADENAME
 70
     0
1001
ACDBATTR
1070
     0
1070
     1
  0
ATTDEF
  5
3932
  8
DEFPOINTS
 10
4541.2239277170356218
 20
-8.6149877229729892
 30
0.0
 40
0.001
  1
TOILET
  3

  2
PRODUCT
 70
     0
1001
ACDBATTR
1070
     0
1070
     1
  0
LINE
  5
14483
  8
0
 10
4517.6713558001238198
 20
-8.6166750950142728
 30
0.0
 11
4539.3713853430253948
 21
-8.6166750950142728
 31
0.0
  0
LINE
  5
14484
  8
0
 10
4515.8836039643829281
 20
7.8833249049857272
 30
0.0
 11
4515.8830295226816816
 21
7.9254535187143631
 31
0.0
  0
LINE
  5
14485
  8
0
 10
4516.7747838395243889
 20
7.8833249049857272
 30
0.0
 11
4516.775582007068806
 21
7.923116816466119
 31
0.0
  0
LINE
  5
14486
  8
0
 10
4535.3165047521242741
 20
7.8833249049857272
 30
0.0
 11
4512.8559646139237884
 21
7.8833249049857272
 31
0.0
  0
LINE
  5
14487
  8
0
 10
4515.8760048960239146
 20
7.925471909185716
 30
0.0
 11
4516.7826969294274022
 21
7.9230981895495631
 31
0.0
  0
LINE
  5
14488
  8
0
 10
4529.6541081383229539
 20
8.1425521412857336
 30
0.0
 11
4530.5632281191246875
 21
8.4396983539857331
 31
0.0
  0
LINE
  5
14489
  8
0
 10
4534.4143674714368899
 20
9.1733239215137701
 30
0.0
 11
4540.5213853414243204
 21
9.1733249049857193
 31
0.0
  0
LINE
  5
1448A
  8
0
 10
4529.4974609281252924
 20
8.1178117205857347
 30
0.0
 11
4512.6727790867244039
 21
8.1618587352857332
 31
0.0
  0
LINE
  5
1448B
  8
0
 10
4529.5394059613036006
 20
8.1194640304454424
 30
0.0
 11
4529.5311598013240655
 21
7.8833249049857272
 31
0.0
  0
LINE
  5
1448C
  8
0
 10
4530.6778121692241257
 20
7.8833249049857272
 30
0.0
 11
4530.603733878501771
 21
8.4866441676390423
 31
0.0
  0
LINE
  5
1448D
  8
0
 10
4530.6229543572244438
 20
8.4564015911857382
 30
0.0
 11
4530.6933193265322188
 21
7.8833249049857272
 31
0.0
  0
LINE
  5
1448E
  8
0
 10
4530.6041592415240302
 20
8.5038855247857157
 30
0.0
 11
4530.5339242328236651
 21
9.0885538814857227
 31
0.0
  0
LINE
  5
1448F
  8
0
 10
4533.442032384259619
 20
22.7557699364063808
 30
0.0
 11
4533.4338592704243638
 21
23.5451594539857183
 31
0.0
  0
LINE
  5
14490
  8
0
 10
4534.2146957047243632
 20
9.3620831767857169
 30
0.0
 11
4533.4711729631244452
 21
22.5690786661857317
 31
0.0
  0
LINE
  5
14491
  8
0
 10
4535.6782568119242569
 20
23.8538908016857292
 30
0.0
 11
4535.6831002666240238
 21
22.7557699330543812
 31
0.0
  0
LINE
  5
14492
  8
0
 10
4539.4713853430230301
 20
-8.5166750851142723
 30
0.0
 11
4539.4713853430230301
 21
-2.056727358314276
 31
0.0
  0
LINE
  5
14493
  8
0
 10
4540.7213853430239396
 20
7.6241388991857368
 30
0.0
 11
4540.6961328619236156
 21
8.9281652435857382
 31
0.0
  0
LINE
  5
14494
  8
0
 10
4540.7213853430239396
 20
7.6241388991857368
 30
0.0
 11
4540.6961328619236156
 21
8.9281652435857382
 31
0.0
  0
LINE
  5
14495
  8
0
 10
4540.7213853430239396
 20
22.5682126884857404
 30
0.0
 11
4540.719093337123013
 21
22.6986495827857198
 31
0.0
  0
LINE
  5
14496
  8
0
 10
4540.6903853430239906
 20
22.8500100797857293
 30
0.0
 11
4540.6903853430239906
 21
23.8375215593857206
 31
0.0
  0
LINE
  5
14497
  8
0
 10
4540.7213853430239396
 20
3.5060407664857252
 30
0.0
 11
4540.7213853430239396
 21
7.6241388991855672
 31
0.0
  0
LINE
  5
14498
  8
0
 10
4540.7213853430239396
 20
9.3733249049857363
 30
0.0
 11
4540.7213853430239396
 21
22.5682126884857404
 31
0.0
  0
LINE
  5
14499
  8
0
 10
4540.1123622038230678
 20
0.7589195260857338
 30
0.0
 11
4540.0804090630235805
 21
0.6903957945857258
 31
0.0
  0
LINE
  5
1449A
  8
0
 10
4533.5320186757171541
 20
22.6673406529857289
 30
0.0
 11
4540.6156532639897705
 21
22.6673406529857289
 31
0.0
  0
LINE
  5
1449B
  8
0
 10
4540.2978351531246517
 20
24.1060696006805983
 30
0.0
 11
4535.8714608743239296
 21
24.1060696006805983
 31
0.0
  0
ARC
  5
1449C
  8
0
 10
4515.8762032616641591
 20
8.0354718011348893
 30
0.0
 40
0.1100000708079593
 50
185.7209767382128973
 51
269.8966771555536752
  0
ARC
  5
1449D
  8
0
 10
4516.7829849084246234
 20
8.0330978125857371
 30
0.0
 40
0.11
 50
269.8500000000066734
 51
347.6662082429027123
  0
ARC
  5
1449E
  8
0
 10
4529.4987699235243781
 20
8.6178100070857226
 30
0.0
 40
0.5
 50
269.8500000000066734
 51
288.1000000000040018
  0
ARC
  5
1449F
  8
0
 10
4530.7513850262448614
 20
8.42332562786018
 30
0.0
 40
0.1354992403585393
 50
99.7413169874937466
 51
159.0682037471138983
  0
ARC
  5
144A0
  8
0
 10
4530.5445875333243748
 20
8.4967292978857358
 30
0.0
 40
0.06
 50
288.1000000000040018
 51
6.8499999999998709
  0
ARC
  5
144A1
  8
0
 10
4530.6547191919953548
 20
8.4603005114644247
 30
0.0
 40
0.0320032233898522
 50
159.0687235614178121
 51
186.9976703757762095
  0
ARC
  5
144A2
  8
0
 10
4532.1365343312236291
 20
8.2502555887857341
 30
0.0
 40
0.0600063242
 50
0.9680422425000015
 51
73.1104417239977664
  0
ARC
  5
144A3
  8
0
 10
4534.2213853389075666
 20
3.5059891713827649
 30
0.0
 40
6.5000000043206017
 50
334.9995045370819753
 51
0.0004547971758727
  0
ARC
  5
144A4
  8
0
 10
4534.4144429072475759
 20
9.3733909210564548
 30
0.0
 40
0.2000670137643389
 50
183.240071668650188
 51
269.9783964701305763
  0
ARC
  5
144A5
  8
0
 10
4533.6838510770912762
 20
23.5473330431245813
 30
0.0
 40
0.250001255777831
 50
94.9930474774197791
 51
180.4981537100904063
  0
ARC
  5
144A6
  8
0
 10
4533.571441154716922
 20
22.5670521260366286
 30
0.0
 40
0.1002886689027593
 50
90.0964017791479819
 51
178.8421413683952039
  0
ARC
  5
144A7
  8
0
 10
4533.5320186768240092
 20
22.7573406529857287
 30
0.0
 40
0.09
 50
181.0000000000005969
 51
269.9999992958868802
  0
ARC
  5
144A8
  8
0
 10
4545.9713853430230301
 20
-2.05667509501427
 30
0.0
 40
6.5
 50
154.9994924177919984
 51
180.0004606870998032
  0
ARC
  5
144A9
  8
0
 10
4539.3713723498149193
 20
-8.5166621018061903
 30
0.0
 40
0.100012994052092
 50
270.0074435934038206
 51
359.9925620788924903
  0
ARC
  5
144AA
  8
0
 10
4540.4461805881173859
 20
8.9233257859256696
 30
0.0
 40
0.2499991190615413
 50
1.1091951863174709
 51
90.0001980277529583
  0
ARC
  5
144AB
  8
0
 10
4540.5213853430241215
 20
9.3733249049857363
 30
0.0
 40
0.2
 50
269.9999995500804744
 51
0.0
  0
ARC
  5
144AC
  8
0
 10
4540.6213389059839756
 20
22.5672977746784191
 30
0.0
 40
0.1000506203465183
 50
0.5239490790739709
 51
72.7329680627761945
  0
ARC
  5
144AD
  8
0
 10
4540.6190967037691735
 20
22.6973371132018009
 30
0.0
 40
0.100005246155811
 50
0.7519718181114996
 51
54.3532887753188731
  0
ARC
  5
144AE
  8
0
 10
4517.6782940763978331
 20
-8.5097325472307102
 30
0.0
 40
0.1071673840499386
 50
183.7472088387160056
 51
266.2879359957212273
  0
ARC
  5
144AF
  8
0
 10
4499.7440677519853125
 20
-7.534275828411551
 30
0.0
 40
17.8543391960005486
 50
356.8456244250878058
 51
18.4966889535079311
  0
ARC
  5
144B0
  8
0
 10
4483.8715655597534351
 20
-15.2594699845058699
 30
0.0
 40
35.4318337089344908
 50
22.2032987716209789
 51
31.9778952444852003
  0
ARC
  5
144B1
  8
0
 10
4521.7115733884902511
 20
8.2722441035775773
 30
0.0
 40
9.1285965329357062
 50
184.0714497630185917
 51
211.4824682119769932
  0
ARC
  5
144B2
  8
0
 10
4512.8560621639890087
 20
7.6331154677235977
 30
0.0
 40
0.2502094562782292
 50
90.0223381131418137
 51
182.0626279472919009
  0
ARC
  5
144B3
  8
0
 10
4535.3213711152684482
 20
8.3533705323544041
 30
0.0
 40
0.4700708173229532
 50
269.4068403312268174
 51
323.6581974808070754
  0
ARC
  5
144B4
  8
0
 10
4534.554609154974969
 20
8.6756439146160176
 30
0.0
 40
1.293426561649641
 50
332.3200718856643903
 51
11.4644125040851801
  0
ARC
  5
144B5
  8
0
 10
4536.0571454746423115
 20
8.9404006679808106
 30
0.0
 40
0.2350411401518088
 50
97.6956034094614836
 51
181.8715694227769006
  0
ARC
  5
144B6
  8
0
 10
4533.4548547880485785
 20
8.5281269780179514
 30
0.0
 40
0.6977164603489855
 50
292.457878649974873
 51
351.7119069896521069
  0
ARC
  5
144B7
  8
0
 10
4532.076163891340002
 20
8.9928366112092402
 30
0.0
 40
2.144949108208237
 50
344.7196174936561874
 51
358.3564796630720934
  0
ARC
  5
144B8
  8
0
 10
4534.4701020083339245
 20
8.9233247316029747
 30
0.0
 40
0.2499991988870302
 50
89.9998652995940489
 51
178.1678687442517912
  0
ARC
  5
144B9
  8
0
 10
4540.4366822989522916
 20
23.8366264041829901
 30
0.0
 40
0.2537046232818127
 50
0.2021591915782251
 51
58.1850047727213706
  0
ARC
  5
144BA
  8
0
 10
4540.2472452960200826
 20
23.1332114839230805
 30
0.0
 40
0.9741725971216775
 50
70.6247980674725113
 51
87.0232279917015177
  0
ARC
  5
144BB
  8
0
 10
4544.9162505335552851
 20
-48.4578411383385728
 30
0.0
 40
73.1254358053342912
 50
97.1050358282020056
 51
98.8531273292280872
  0
ARC
  5
144BC
  8
0
 10
4540.6165674611183931
 20
22.5332102523647393
 30
0.0
 40
0.134133516047035
 50
75.1093307502470964
 51
90.3905067440785643
  0
ARC
  5
144BD
  8
0
 10
4540.4207180959647303
 20
22.8604677470404489
 30
0.0
 40
0.2698699444933795
 50
337.1055284105528926
 51
357.7791885761341746
  0
ARC
  5
144BE
  8
0
 10
4540.5592611580686935
 20
22.7799820285891315
 30
0.0
 40
0.1127617852572676
 50
272.6480486887924144
 51
347.4494929467954876
  0
ARC
  5
144BF
  8
0
 10
4536.0465951481273805
 20
9.3569613864774794
 30
0.0
 40
0.1848247111983176
 50
178.405343605556709
 51
263.4995898256225928
  0
ARC
  5
144C0
  8
0
 10
-14985.8908082480102166
 20
-448.4776707334830803
 30
0.0
 40
19527.1207247292295506
 50
1.3435002141993739
 51
1.3822625994292821
  0
ARC
  5
144C1
  8
0
 10
4535.6396493793854461
 20
22.5759554403987899
 30
0.0
 40
0.0922746548578118
 50
97.961680878560486
 51
184.2764227215500057
  0
ARC
  5
144C2
  8
0
 10
4535.7679845847696924
 20
22.7512012352100612
 30
0.0
 40
0.0850071789141098
 50
176.9191626965773025
 51
260.5788365771218196
  0
ARC
  5
144C3
  8
0
 10
4535.9094513959480537
 20
23.8852101951375211
 30
0.0
 40
0.2333063224348578
 50
113.4811511413897023
 51
187.7147624933450061
  0
CIRCLE
  5
144C4
  8
0
 10
4529.2289808286241168
 20
-3.9701236664279369
 30
0.0
 40
0.7434442799947484
  0
ARC
  5
144C5
  8
0
 10
4512.6729701020649372
 20
8.2218908362494272
 30
0.0
 40
0.0600324048575269
 50
177.364298030943587
 51
269.8176919386327199
  0
ARC
  5
144C6
  8
0
 10
4516.2057250504267358
 20
7.8779196731134098
 30
0.0
 40
3.6094165147257522
 50
160.3261053588092011
 51
174.4874884993674868
  0
ARC
  5
144C7
  8
0
 10
4513.0444250578293577
 20
9.0147680673473474
 30
0.0
 40
0.2499983669859207
 50
89.8843191484859005
 51
161.7427727997639124
  0
ARC
  5
144C8
  8
0
 10
4515.3255592313525995
 20
281.507315878851216
 30
0.0
 40
272.2521024272584782
 50
269.5200332053482271
 51
273.1261367508769808
  0
ARC
  5
144C9
  8
0
 10
4530.152581919430304
 20
9.3820895885877746
 30
0.0
 40
0.2789850012721989
 50
25.472172414559509
 51
85.876993050392997
  0
ARC
  5
144CA
  8
0
 10
4529.4553126442697248
 20
8.9778618077414478
 30
0.0
 40
1.084276576410276
 50
5.8594432512158443
 51
28.9120628304748806
  0
ARC
  5
144CB
  8
0
 10
4530.7335351390393043
 20
8.5271457627129053
 30
0.0
 40
0.0301558219422099
 50
83.2723580393610661
 51
99.6916499735856831
  0
ARC
  5
144CC
  8
0
 10
4529.7221077713966224
 20
-1.357916401560302
 30
0.0
 40
9.9668236714325307
 50
75.8775216681619042
 51
84.1552179532954767
  0
ARC
  5
144CD
  8
0
 10
4532.1159532502024376
 20
8.2429613561921542
 30
0.0
 40
0.0810060048331644
 50
296.6019235147882114
 51
5.886639124598422
  0
ARC
  5
144CE
  8
0
 10
4532.2944029372456498
 20
7.9530746633229512
 30
0.0
 40
0.2598098742725134
 50
123.1772712769616049
 51
143.0018764078712934
  0
ARC
  5
144CF
  8
0
 10
4532.2216065886714205
 20
8.0061487907564981
 30
0.0
 40
0.1697372122511739
 50
142.5225067036514872
 51
175.3917275090234114
  0
LINE
  5
144D0
  8
0
 10
4532.0524180878128391
 20
8.0197859605484894
 30
0.0
 11
4532.0451884845242603
 21
7.8833249049857272
 31
0.0
  0
ARC
  5
144D1
  8
0
 10
4513.4594962681358084
 20
2.443853398730965
 30
0.0
 40
5.716021847549948
 50
80.2883174500623369
 51
89.5184085800602674
  0
ARC
  5
144D2
  8
0
 10
4514.0901512865229961
 20
6.8480633449366621
 30
0.0
 40
1.2743319612384749
 50
58.581954233044037
 51
74.8248450315282838
  0
ARC
  5
144D3
  8
0
 10
4514.8279825717781932
 20
8.0297493951097181
 30
0.0
 40
0.119502883221194
 50
232.0144861074086862
 51
269.1158961845757744
  0
LINE
  5
144D4
  8
0
 10
4514.8261386530230084
 20
7.9102607384857322
 30
0.0
 11
4515.8833257890237292
 21
7.9054846169857171
 31
0.0
  0
ARC
  5
144D5
  8
0
 10
4515.6175660030176005
 20
8.0096112342865808
 30
0.0
 40
0.1499268464808901
 50
5.7017735238227774
 51
74.4410374358927101
  0
ARC
  5
144D6
  8
0
 10
4517.0298925432944088
 20
8.0164468123898303
 30
0.0
 40
0.1396143952654962
 50
106.147213084631602
 51
182.8105157865985007
  0
LINE
  5
144D7
  8
0
 10
4516.8164051299036146
 20
7.928297579779354
 30
0.0
 11
4519.374822653224328
 21
7.8833249049857272
 31
0.0
  0
ENDSEC
  0
EOF
