  0
SECTION
  2
HEADER
  9
$ACADVER
  1
AC1009
  9
$INSBASE
 10
4181.1777746946745538
 20
38.2122821457593034
 30
0.0
  9
$EXTMIN
 10
4142.1421928165627833
 20
11.2539203582402099
 30
0.0
  9
$EXTMAX
 10
4188.5619083328101624
 20
63.0077785974868618
 30
0.0
  9
$LIMMIN
 10
0.0
 20
0.0
  9
$LIMMAX
 10
11.6929133858000007
 20
8.2677165353999982
  9
$ORTHOMODE
 70
     0
  9
$REGENMODE
 70
     1
  9
$FILLMODE
 70
     1
  9
$QTEXTMODE
 70
     0
  9
$MIRRTEXT
 70
     0
  9
$DRAGMODE
 70
     2
  9
$LTSCALE
 40
0.6431102362
  9
$OSMODE
 70
  4095
  9
$ATTMODE
 70
     1
  9
$TEXTSIZE
 40
0.2
  9
$TRACEWID
 40
0.05
  9
$TEXTSTYLE
  7
STANDARD
  9
$CLAYER
  8
0
  9
$CELTYPE
  6
BYLAYER
  9
$CECOLOR
 62
   256
  9
$DIMSCALE
 40
1.0
  9
$DIMASZ
 40
0.1875
  9
$DIMEXO
 40
0.0625
  9
$DIMDLI
 40
0.4443307087
  9
$DIMRND
 40
0.0
  9
$DIMDLE
 40
0.0
  9
$DIMEXE
 40
0.125
  9
$DIMTP
 40
0.01
  9
$DIMTM
 40
0.01
  9
$DIMTXT
 40
2.0
  9
$DIMCEN
 40
0.1052362205
  9
$DIMTSZ
 40
0.0
  9
$DIMTOL
 70
     1
  9
$DIMLIM
 70
     0
  9
$DIMTIH
 70
     1
  9
$DIMTOH
 70
     1
  9
$DIMSE1
 70
     0
  9
$DIMSE2
 70
     0
  9
$DIMTAD
 70
     0
  9
$DIMZIN
 70
     0
  9
$DIMBLK
  1

  9
$DIMASO
 70
     1
  9
$DIMSHO
 70
     1
  9
$DIMPOST
  1
\X
  9
$DIMAPOST
  1

  9
$DIMALT
 70
     1
  9
$DIMALTD
 70
     2
  9
$DIMALTF
 40
25.3999999999999986
  9
$DIMLFAC
 40
1.0
  9
$DIMTOFL
 70
     0
  9
$DIMTVP
 40
0.0
  9
$DIMTIX
 70
     0
  9
$DIMSOXD
 70
     0
  9
$DIMSAH
 70
     0
  9
$DIMBLK1
  1

  9
$DIMBLK2
  1

  9
$DIMSTYLE
  2
STANDARD
  9
$DIMCLRD
 70
     0
  9
$DIMCLRE
 70
     0
  9
$DIMCLRT
 70
     0
  9
$DIMTFAC
 40
1.0
  9
$DIMGAP
 40
0.09
  9
$LUNITS
 70
     2
  9
$LUPREC
 70
     4
  9
$SKETCHINC
 40
0.1
  9
$FILLETRAD
 40
0.0
  9
$AUNITS
 70
     0
  9
$AUPREC
 70
     0
  9
$MENU
  1
.
  9
$ELEVATION
 40
0.0
  9
$PELEVATION
 40
0.0
  9
$THICKNESS
 40
0.0
  9
$LIMCHECK
 70
     0
  9
$BLIPMODE
 70
     0
  9
$CHAMFERA
 40
0.0
  9
$CHAMFERB
 40
0.0
  9
$SKPOLY
 70
     0
  9
$TDCREATE
 40
2458060.468368056230247
  9
$TDUPDATE
 40
2459089.4716898151673377
  9
$TDINDWG
 40
0.4276922454
  9
$TDUSRTIMER
 40
0.4276922454
  9
$USRTIMER
 70
     1
  9
$ANGBASE
 50
0.0
  9
$ANGDIR
 70
     0
  9
$PDMODE
 70
     0
  9
$PDSIZE
 40
0.3125
  9
$PLINEWID
 40
0.0
  9
$COORDS
 70
     1
  9
$SPLFRAME
 70
     0
  9
$SPLINETYPE
 70
     6
  9
$SPLINESEGS
 70
     8
  9
$ATTDIA
 70
     1
  9
$ATTREQ
 70
     1
  9
$HANDLING
 70
     1
  9
$HANDSEED
  5
A71D
  9
$SURFTAB1
 70
     6
  9
$SURFTAB2
 70
     6
  9
$SURFTYPE
 70
     6
  9
$SURFU
 70
     6
  9
$SURFV
 70
     6
  9
$UCSNAME
  2

  9
$UCSORG
 10
0.0
 20
0.0
 30
0.0
  9
$UCSXDIR
 10
1.0
 20
0.0
 30
0.0
  9
$UCSYDIR
 10
0.0
 20
1.0
 30
0.0
  9
$PUCSNAME
  2

  9
$PUCSORG
 10
0.0
 20
0.0
 30
0.0
  9
$PUCSXDIR
 10
1.0
 20
0.0
 30
0.0
  9
$PUCSYDIR
 10
0.0
 20
1.0
 30
0.0
  9
$USERI1
 70
     0
  9
$USERI2
 70
     0
  9
$USERI3
 70
     0
  9
$USERI4
 70
     0
  9
$USERI5
 70
     0
  9
$USERR1
 40
0.0
  9
$USERR2
 40
0.0
  9
$USERR3
 40
0.0
  9
$USERR4
 40
0.0
  9
$USERR5
 40
0.0
  9
$WORLDVIEW
 70
     1
  9
$SHADEDGE
 70
     3
  9
$SHADEDIF
 70
    70
  9
$TILEMODE
 70
     1
  9
$MAXACTVP
 70
    64
  9
$PLIMCHECK
 70
     0
  9
$PEXTMIN
 10
1.0000000000000000E+20
 20
1.0000000000000000E+20
 30
1.0000000000000000E+20
  9
$PEXTMAX
 10
-1.0000000000000000E+20
 20
-1.0000000000000000E+20
 30
-1.0000000000000000E+20
  9
$PLIMMIN
 10
0.0
 20
0.0
  9
$PLIMMAX
 10
12.0
 20
9.0
  9
$UNITMODE
 70
     0
  9
$VISRETAIN
 70
     1
  9
$PLINEGEN
 70
     0
  9
$PSLTSCALE
 70
     1
  0
ENDSEC
  0
SECTION
  2
TABLES
  0
TABLE
  2
VPORT
 70
     1
  0
VPORT
  2
*ACTIVE
 70
     0
 10
0.0
 20
0.0
 11
1.0
 21
1.0
 12
392.8973872900108972
 22
-70.4686139199879733
 13
0.0
 23
0.0
 14
1.0
 24
1.0
 15
0.0
 25
0.0
 16
0.0
 26
0.0
 36
5.1040778033513332
 17
3792.35791015625
 27
120.1806564331053977
 37
0.0
 40
154.4311454221441124
 41
2.005224660397074
 42
50.0
 43
0.0
 44
0.0
 50
0.0
 51
0.0
 71
     0
 72
   100
 73
     1
 74
     1
 75
     0
 76
     0
 77
     0
 78
     0
  0
ENDTAB
  0
TABLE
  2
LTYPE
 70
     2
  0
LTYPE
  2
CONTINUOUS
 70
     0
  3
Solid line
 72
    65
 73
     0
 40
0.0
  0
LTYPE
  2
PHANTOM2
 70
     0
  3
___ _ _ ___ _ _ ___ _ _ ___ _ _
 72
    65
 73
     6
 40
1.25
 49
0.625
 49
-0.125
 49
0.125
 49
-0.125
 49
0.125
 49
-0.125
  0
ENDTAB
  0
TABLE
  2
LAYER
 70
     2
  0
LAYER
  2
0
 70
     0
 62
   255
  6
CONTINUOUS
  0
LAYER
  2
DEFPOINTS
 70
     0
 62
     7
  6
CONTINUOUS
  0
ENDTAB
  0
TABLE
  2
STYLE
 70
     1
  0
STYLE
  2
STANDARD
 70
     0
 40
0.0
 41
0.8
 50
0.0
 71
     0
 42
0.2
  3
txt
  4

  0
ENDTAB
  0
TABLE
  2
VIEW
 70
     0
  0
ENDTAB
  0
TABLE
  2
UCS
 70
     0
  0
ENDTAB
  0
TABLE
  2
APPID
 70
     9
  0
APPID
  2
ACAD
 70
     0
  0
APPID
  2
ACAD_MLEADERVER
 70
     0
  0
APPID
  2
ACAD_EXEMPT_FROM_CAD_STANDARDS
 70
     0
  0
APPID
  2
ACAD_NAV_VCDISPLAY
 70
     0
  0
APPID
  2
ACAECLAYERSTANDARD
 70
     0
  0
APPID
  2
ACCMTRANSPARENCY
 70
     0
  0
APPID
  2
ACAD_DSTYLE_DIMJAG
 70
     0
  0
APPID
  2
ACAD_DSTYLE_DIMTALN
 70
     0
  0
APPID
  2
ACDBATTR
 70
     0
  0
ENDTAB
  0
TABLE
  2
DIMSTYLE
 70
     1
  0
DIMSTYLE
  2
STANDARD
 70
     0
  3

  4

  5

  6

  7

 40
1.0
 41
0.1875
 42
0.0625
 43
0.38
 44
0.125
 45
0.0
 46
0.0
 47
0.01
 48
0.01
140
0.15625
141
0.09
142
0.0
143
25.3999999999999986
144
1.0
145
0.0
146
1.0
147
0.09
 71
     1
 72
     0
 73
     1
 74
     1
 75
     0
 76
     0
 77
     0
 78
     4
170
     0
171
     2
172
     0
173
     0
174
     0
175
     0
176
     0
177
     0
178
     0
  0
ENDTAB
  0
ENDSEC
  0
SECTION
  2
BLOCKS
  0
BLOCK
  8
0
  2
$MODEL_SPACE
 70
     0
 10
0.0
 20
0.0
 30
0.0
  3
$MODEL_SPACE
  1

  0
ENDBLK
  5
21
  8
0
  0
BLOCK
 67
     1
  8
0
  2
$PAPER_SPACE
 70
     0
 10
0.0
 20
0.0
 30
0.0
  3
$PAPER_SPACE
  1

  0
ENDBLK
  5
1D
 67
     1
  8
0
  0
BLOCK
  8
0
  2
_FILLED
 70
     0
 10
0.0
 20
0.0
 30
0.0
  3
_FILLED
  1

  0
SOLID
  5
69B4
  8
0
  6
BYBLOCK
 62
     0
 10
0.0
 20
0.0
 30
0.0
 11
-1.0
 21
0.1666666667
 31
0.0
 12
-1.0
 22
-0.1666666667
 32
0.0
 13
-1.0
 23
-0.1666666667
 33
0.0
  0
ENDBLK
  5
69B5
  8
0
  6
BYBLOCK
 62
     0
  0
BLOCK
  8
0
  2
A$CDFAF6206
 70
     0
 10
0.0
 20
0.0
 30
0.0
  3
A$CDFAF6206
  1

  0
LINE
  5
6A0E
  8
0
 10
7.4646650085734834
 20
10.9287685970688493
 30
0.0
 11
7.4646650085734896
 21
10.8905784766688498
 31
0.0
  0
ARC
  5
6A0F
  8
0
 10
7.7269027075262349
 20
10.8926811525838598
 30
0.0
 40
0.2622461286616791
 50
180.4593995232625048
 51
217.0214027758331099
  0
LINE
  5
6A10
  8
0
 10
9.767814609867095
 20
10.9287685970688493
 30
0.0
 11
9.767814609867095
 21
10.8905433757650094
 31
0.0
  0
ARC
  5
6A11
  8
0
 10
9.5068669568548287
 20
10.8922438613003703
 30
0.0
 40
0.2609531936261092
 50
322.8847083717149076
 51
359.6266329125650145
  0
LINE
  5
6A12
  8
0
 10
7.517522606271406
 20
10.7347792678688396
 30
0.0
 11
9.7149570120691777
 21
10.7347792678688396
 31
0.0
  0
LINE
  5
6A13
  8
0
 10
7.4646650085734834
 20
10.9287685970688493
 30
0.0
 11
9.7678146123202936
 21
10.9287685970688493
 31
0.0
  0
ARC
  5
6A14
  8
0
 10
4.0826771419203629
 20
8.527951346868889
 30
0.0
 40
4.0826771653999172
 50
13.3117747050523896
 51
32.7200330051415591
  0
ARC
  5
6A15
  8
0
 10
4.0826771460567306
 20
8.5279513475907933
 30
0.0
 40
4.0826771612084691
 50
359.6656501984817851
 51
13.3117747085593798
  0
ARC
  5
6A16
  8
0
 10
13.1498041284835097
 20
8.5279508235212234
 30
0.0
 40
4.0826788382043553
 50
147.2799733478981068
 51
166.6882233021349862
  0
ARC
  5
6A17
  8
0
 10
13.1498064934207992
 20
8.5279506557033251
 30
0.0
 40
4.0826811782395342
 50
166.688228652086309
 51
180.3343397625230011
  0
LINE
  5
6A18
  8
0
 10
8.1652847935202928
 20
8.504127000268852
 30
0.0
 11
9.0671948248202892
 21
8.5041270002687881
 31
0.0
  0
LINE
  5
6A19
  8
0
 10
8.1652847935202786
 20
8.5041270002667204
 30
0.0
 11
8.1652847935202928
 21
8.3607006934688481
 31
0.0
  0
ARC
  5
6A1A
  8
0
 10
5.6196779630382627
 20
8.3631022096452732
 30
0.0
 40
2.545607963272567
 50
342.0511668832173768
 51
359.945947387132378
  0
LINE
  5
6A1B
  8
0
 10
9.0671948248202892
 20
8.5041270002687881
 30
0.0
 11
9.0671948248202892
 21
8.2885990108688503
 31
0.0
  0
ARC
  5
6A1C
  8
0
 10
9.4521885297801163
 20
7.9614488056228501
 30
0.0
 40
0.5052201595850959
 50
139.6436242991769916
 51
174.6757930071850069
  0
ARC
  5
6A1D
  8
0
 10
9.9238413395551746
 20
8.1492417579399508
 30
0.0
 40
0.9848265662939324
 50
188.2263441834095943
 51
209.5593615864376034
  0
ARC
  5
6A1E
  8
0
 10
8.0788764238271256
 20
7.5665710856463297
 30
0.0
 40
0.0393715937169877
 50
162.1669117288323037
 51
227.2023190037006088
  0
ARC
  5
6A1F
  8
0
 10
8.7223682141740682
 20
8.2079667397440517
 30
0.0
 40
0.947895137885075
 50
225.0018610752970858
 51
261.4598823366255829
  0
ARC
  5
6A20
  8
0
 10
8.6645157662702701
 20
8.1695128573935332
 30
0.0
 40
0.9027466462812931
 50
264.7303071214498118
 51
281.8608311947915013
  0
ARC
  5
6A21
  8
0
 10
8.6645157662698935
 20
8.1695128573999671
 30
0.0
 40
0.9027466462876658
 50
299.1741886792128753
 51
299.1743179154552195
  0
ARC
  5
6A22
  8
0
 10
9.0843330931590316
 20
7.4150554710086141
 30
0.0
 40
0.0393703053609601
 50
251.9700352025496954
 51
252.4698971938937859
  0
ARC
  5
6A23
  8
0
 10
9.0843330931590316
 20
7.4150554710086141
 30
0.0
 40
0.0393703053609601
 50
297.2453716727138726
 51
6.8376113572703074
  0
LINE
  5
6A24
  8
0
 10
9.0671948248202892
 20
7.663402160468852
 30
0.0
 11
9.1234233799329516
 21
7.419742732911689
 31
0.0
  0
ARC
  5
6A25
  8
0
 10
8.8843741880892395
 20
9.8961379890094676
 30
0.0
 40
2.5255097382132701
 50
263.792800240752797
 51
274.9514951129821156
  0
ARC
  5
6A26
  8
0
 10
8.8258167405968848
 20
9.2763025889666508
 30
0.0
 40
1.9029970832759311
 50
246.0108363320686067
 51
263.5276935074397215
  0
ARC
  5
6A27
  8
0
 10
8.607491361665744
 20
8.3225444804829642
 30
0.0
 40
1.064510137163637
 50
283.1717405874071005
 51
297.7022170607311864
  0
LINE
  5
6A28
  8
0
 10
9.0671948248202892
 20
8.2885990108688503
 30
0.0
 11
26.2014378595979593
 21
8.2885990108689942
 31
0.0
  0
LINE
  5
6A29
  8
0
 10
26.2014378595979913
 20
7.6634021604689053
 30
0.0
 11
9.0671948248202892
 21
7.6634021604688618
 31
0.0
  0
LINE
  5
6A2A
  8
0
 10
27.8039676758446994
 20
10.9287685970690802
 30
0.0
 11
27.8039676758446888
 21
10.8905784766690807
 31
0.0
  0
ARC
  5
6A2B
  8
0
 10
27.5417299768919399
 20
10.8926811525840801
 30
0.0
 40
0.2622461286616791
 50
322.9785972241680838
 51
359.5406004767386889
  0
LINE
  5
6A2C
  8
0
 10
25.5008180745510913
 20
10.9287685970690305
 30
0.0
 11
25.5008180745510913
 21
10.8905433757651799
 31
0.0
  0
ARC
  5
6A2D
  8
0
 10
25.7617657275633505
 20
10.8922438613005497
 30
0.0
 40
0.2609531936261092
 50
180.3733670874362929
 51
217.1152916282862861
  0
LINE
  5
6A2E
  8
0
 10
27.7511100781467803
 20
10.7347792678690706
 30
0.0
 11
25.5536756723490015
 21
10.7347792678690208
 31
0.0
  0
LINE
  5
6A2F
  8
0
 10
27.8039676758446888
 20
10.9287685970686006
 30
0.0
 11
25.5008180745510806
 21
10.9287685970686006
 31
0.0
  0
ARC
  5
6A30
  8
0
 10
31.1859555424978616
 20
8.5279513468691981
 30
0.0
 40
4.0826771653999172
 50
147.2799669948597057
 51
166.6882252949490066
  0
ARC
  5
6A31
  8
0
 10
31.185955538361501
 20
8.5279513475911024
 30
0.0
 40
4.0826771612084691
 50
166.6882252914419098
 51
180.3343498015194086
  0
ARC
  5
6A32
  8
0
 10
22.1188285559344706
 20
8.5279508235212251
 30
0.0
 40
4.0826788382046102
 50
13.3117766978667795
 51
32.7200266521023977
  0
ARC
  5
6A33
  8
0
 10
22.1188261909974315
 20
8.5279506557034264
 30
0.0
 40
4.0826811782395342
 50
359.665660237478221
 51
13.31177134791497
  0
LINE
  5
6A34
  8
0
 10
27.1033478908979397
 20
8.5041270002690652
 30
0.0
 11
26.2014378595979416
 21
8.5041270002689835
 31
0.0
  0
LINE
  5
6A35
  8
0
 10
27.1033478908979504
 20
8.5041270002669354
 30
0.0
 11
27.1033478908979397
 21
8.3607006934690649
 31
0.0
  0
ARC
  5
6A36
  8
0
 10
29.6489547213799689
 20
8.3631022096455467
 30
0.0
 40
2.545607963272567
 50
180.0540526128687873
 51
197.9488331167837032
  0
LINE
  5
6A37
  8
0
 10
26.2014378595979416
 20
8.5041270002689835
 30
0.0
 11
26.2014378595979487
 21
8.2885990108690457
 31
0.0
  0
ARC
  5
6A38
  8
0
 10
25.8164441546381305
 20
7.9614488056230366
 30
0.0
 40
0.5052201595850959
 50
5.324206992816312
 51
40.3563757008241879
  0
ARC
  5
6A39
  8
0
 10
25.3447913448601803
 20
8.149241757940846
 30
0.0
 40
0.9848265662968968
 50
330.4406384136033807
 51
351.7736558165743759
  0
ARC
  5
6A3A
  8
0
 10
27.1897562605911212
 20
7.5665710856465473
 30
0.0
 40
0.0393715937169877
 50
312.7976809963004143
 51
17.8330882711689185
  0
ARC
  5
6A3B
  8
0
 10
26.5462644702441715
 20
8.2079667397442542
 30
0.0
 40
0.947895137885075
 50
278.5401176633754972
 51
314.9981389247041079
  0
ARC
  5
6A3C
  8
0
 10
26.6041169181479695
 20
8.1695128573937392
 30
0.0
 40
0.9027466462812931
 50
258.139168805210204
 51
275.2696928785518935
  0
ARC
  5
6A3D
  8
0
 10
26.6041169181483497
 20
8.1695128574001732
 30
0.0
 40
0.9027466462876658
 50
240.8256820845460027
 51
240.8258113207880058
  0
ARC
  5
6A3E
  8
0
 10
26.1842995912592293
 20
7.4150554710088086
 30
0.0
 40
0.0393703053609601
 50
287.5301028061073794
 51
288.0299647974517825
  0
ARC
  5
6A3F
  8
0
 10
26.1842995912592293
 20
7.4150554710088086
 30
0.0
 40
0.0393703053609601
 50
173.1623886427310026
 51
242.7546283272870085
  0
LINE
  5
6A40
  8
0
 10
26.2014378595981192
 20
7.6634021604690448
 30
0.0
 11
26.1452093044853093
 21
7.4197427329118826
 31
0.0
  0
ARC
  5
6A41
  8
0
 10
26.384258496328961
 20
9.8961379890096666
 30
0.0
 40
2.5255097382132701
 50
265.0485048870193054
 51
276.2071997592482262
  0
ARC
  5
6A42
  8
0
 10
26.4428159438213299
 20
9.2763025889668516
 30
0.0
 40
1.9029970832759311
 50
276.4723064925619838
 51
293.9891636679327007
  0
ARC
  5
6A43
  8
0
 10
26.6611413227524885
 20
8.3225444804831703
 30
0.0
 40
1.064510137163637
 50
242.2977829392704052
 51
256.8282594125943774
  0
LINE
  5
6A44
  8
0
 62
     4
 10
17.9031473532159602
 20
10.9287685970686006
 30
0.0
 11
24.6329820359843588
 21
20.0952817181593808
 31
0.0
  0
LINE
  5
6A45
  8
0
 62
     4
 10
17.9031473532159602
 20
-0.0000000300842942
 30
0.0
 11
22.3963351323106608
 21
4.993614497796286
 31
0.0
  0
ENDBLK
  5
6A49
  8
0
  0
ENDSEC
  0
SECTION
  2
ENTITIES
  0
ATTDEF
  5
3930
  8
DEFPOINTS
 10
4181.1777746946745538
 20
38.2140136046651904
 30
0.0
 40
0.001
  1
K-6301IN
  3

  2
MODELNUMBER
 70
     0
1001
ACDBATTR
1070
     0
1070
     1
  0
ATTDEF
  5
3931
  8
DEFPOINTS
 10
4181.1777746946745538
 20
38.2123469379985181
 30
0.0
 40
0.001
  1
ODEON
  3

  2
TRADENAME
 70
     0
1001
ACDBATTR
1070
     0
1070
     1
  0
ATTDEF
  5
3932
  8
DEFPOINTS
 10
4181.1777746946745538
 20
38.210680271331853
 30
0.0
 40
0.001
  1
TOILET
  3

  2
PRODUCT
 70
     0
1001
ACDBATTR
1070
     0
1070
     1
  0
ARC
  5
A5FE
  8
0
 10
4181.1233826049428899
 20
29.5318899202811309
 30
0.0
 40
28.7150230941741604
 50
89.8914813782806874
 51
99.8777679411111734
  0
ARC
  5
A5FF
  8
0
 10
4180.165613105610646
 20
37.5338803814288013
 30
0.0
 40
20.6718070724032117
 50
101.0673082160752045
 51
105.3700490542099004
  0
LINE
  5
A600
  8
0
 10
4174.6248181026157908
 20
57.4496074012941378
 30
0.0
 11
4174.6865070758258298
 21
57.4663414626157873
 31
0.0
  0
ARC
  5
A601
  8
0
 10
4174.8305831959341958
 20
56.5983333880582578
 30
0.0
 40
0.8757891979460922
 50
103.5885692059545988
 51
124.7691833904166003
  0
ARC
  5
A602
  8
0
 10
4174.5558441734192456
 20
56.987549044189862
 30
0.0
 40
0.3994071100276539
 50
124.2344855615173032
 51
157.4006529857090868
  0
ARC
  5
A603
  8
0
 10
4182.5078240959674076
 20
54.6634775076084978
 30
0.0
 40
8.6817421286067802
 50
163.4186969770240125
 51
173.7042118839040938
  0
ARC
  5
A604
  8
0
 10
4180.6931815584839569
 20
54.5330873069058626
 30
0.0
 40
6.9001711427642958
 50
170.9746413347328087
 51
179.0831484394190056
  0
ARC
  5
A605
  8
0
 10
4175.1008133399427606
 20
54.7100846906312981
 30
0.0
 40
1.308614581179921
 50
182.9165871619345012
 51
198.6940184588781904
  0
ARC
  5
A606
  8
0
 10
4174.1397744555142708
 20
54.4465652910821589
 30
0.0
 40
0.3192043308953551
 50
209.2376595839785125
 51
234.541072679185902
  0
ARC
  5
A607
  8
0
 10
4174.0664298485917243
 20
54.4050671229239313
 30
0.0
 40
0.2454593967943106
 50
242.8962824278301014
 51
264.2078852563719806
  0
ARC
  5
A608
  8
0
 10
4174.2656323018336479
 20
55.9900528010833796
 30
0.0
 40
1.8428530647204759
 50
263.019208608604913
 51
265.6163310640500868
  0
LINE
  5
A609
  8
0
 10
4174.1247741333163503
 20
54.1525908573941592
 30
0.0
 11
4174.2145844098349698
 21
54.1503938492030485
 31
0.0
  0
ARC
  5
A60A
  8
0
 10
4178.76823854263057
 20
55.2794321450513522
 30
0.0
 40
4.8927720961062331
 50
172.4032188559527867
 51
177.6939807457879112
  0
ARC
  5
A60B
  8
0
 10
4174.9979294926042712
 20
55.4108681286482465
 30
0.0
 40
1.120413070136614
 50
176.6519597396747088
 51
193.1410427536467864
  0
ARC
  5
A60C
  8
0
 10
4174.1675033527299092
 20
55.2054064403855094
 30
0.0
 40
0.2652616539064053
 50
190.7028138177722951
 51
225.510413560750294
  0
ARC
  5
A60D
  8
0
 10
4174.0748131434929746
 20
55.2026113252238488
 30
0.0
 40
0.2084342213650228
 50
243.4395175698157914
 51
268.3208723970129199
  0
ARC
  5
A60E
  8
0
 10
4177.7176846049769665
 20
216.4015730074686985
 30
0.0
 40
161.4485478656218049
 50
268.7049192801620734
 51
271.2280284739443914
  0
ARC
  5
A60F
  8
0
 10
4169.5554737229222155
 20
99.0821182498372508
 30
0.0
 40
43.6810314065681098
 50
273.8878114627564173
 51
275.6796717580411951
  0
ARC
  5
A610
  8
0
 10
4172.6287794531053805
 20
53.6595714142923015
 30
0.0
 40
1.8454149481793261
 50
93.4669854807526264
 51
107.7571300432348949
  0
ARC
  5
A611
  8
0
 10
4172.270678722804405
 20
54.7731786865923809
 30
0.0
 40
0.6756492161591408
 50
107.6376484725127938
 51
152.4579116151388121
  0
ARC
  5
A612
  8
0
 10
4172.1254229873802615
 20
54.8587705361708871
 30
0.0
 40
0.5073524703375242
 50
153.4433482932489881
 51
191.5410187380701927
  0
ARC
  5
A613
  8
0
 10
4172.3142094065451602
 20
54.9618722726523075
 30
0.0
 40
0.715749319877317
 50
196.6105417807827962
 51
265.6124505610665096
  0
ARC
  5
A614
  8
0
 10
4173.6321171775962284
 20
64.0287768163532007
 30
0.0
 40
9.8764107121885001
 50
262.0109338762761126
 51
272.3765419282833022
  0
ARC
  5
A615
  8
0
 10
4172.3395915603659887
 20
54.6020048151245305
 30
0.0
 40
0.8053338218030582
 50
55.8186477951698734
 51
90.5890387690741363
  0
ARC
  5
A616
  8
0
 10
4172.5156289347587517
 20
54.8417495895207807
 30
0.0
 40
0.5082191411539818
 50
1.951669264223135
 51
57.0517936731028499
  0
ARC
  5
A617
  8
0
 10
4172.3407387380611908
 20
55.1122372065768928
 30
0.0
 40
0.8014810941149749
 50
269.3261158329265186
 51
304.2687257863788091
  0
ARC
  5
A618
  8
0
 10
4172.516375341913772
 20
54.8759493649511469
 30
0.0
 40
0.5074591322334624
 50
302.9024968980220933
 51
358.0924617040000726
  0
ARC
  5
A619
  8
0
 10
4172.3229492536165708
 20
54.6022826712766403
 30
0.0
 40
0.8050568471510468
 50
89.4047897723472715
 51
124.187524696988902
  0
ARC
  5
A61A
  8
0
 10
4172.1469684081339437
 20
54.8417752154111184
 30
0.0
 40
0.5081827667553488
 50
122.9471918236670973
 51
178.0515246657332114
  0
ARC
  5
A61B
  8
0
 10
4172.3229398943703927
 20
55.1157285484259489
 30
0.0
 40
0.8049605433524384
 50
235.8092057631359069
 51
270.5959476028045856
  0
ARC
  5
A61C
  8
0
 10
4172.1462232386165851
 20
54.8759247973008826
 30
0.0
 40
0.5074243127238334
 50
181.905337077508392
 51
237.0984684505104951
  0
ARC
  5
A61D
  8
0
 10
4172.3328014501330472
 20
54.568323236925302
 30
0.0
 40
0.8282813213511101
 50
61.825470345969272
 51
90.1030128658509852
  0
ARC
  5
A61E
  8
0
 10
4172.5057710409291758
 20
54.8374709950824695
 30
0.0
 40
0.5099874616421743
 50
2.4254053850498081
 51
64.6796570786435154
  0
ARC
  5
A61F
  8
0
 10
4172.3335773702046936
 20
55.1367292170847989
 30
0.0
 40
0.8152477880259784
 50
269.8408174498201788
 51
302.7286952663183115
  0
ARC
  5
A620
  8
0
 10
4172.5192582798008516
 20
54.8767015512195329
 30
0.0
 40
0.496357214602533
 50
300.9258922233049134
 51
357.9623515122320896
  0
ARC
  5
A621
  8
0
 10
4172.3298180828896875
 20
54.5683232459520013
 30
0.0
 40
0.8282813213511101
 50
89.8966404175889409
 51
118.1741829374776955
  0
ARC
  5
A622
  8
0
 10
4172.1568501208039379
 20
54.8374720508029014
 30
0.0
 40
0.5099874616421743
 50
115.3199962048178975
 51
177.5742478984238915
  0
ARC
  5
A623
  8
0
 10
4172.3290456987915604
 20
55.1367294421562377
 30
0.0
 40
0.815248017924871
 50
237.2709603518119934
 51
270.1593045988548738
  0
ARC
  5
A624
  8
0
 10
4172.1433631193285692
 20
54.8767026885551701
 30
0.0
 40
0.496357214602533
 50
182.0373017712416015
 51
239.073761060148712
  0
ARC
  5
A625
  8
0
 10
4172.303944017892718
 20
56.9091401834223731
 30
0.0
 40
2.5449530394049651
 50
270.4705959618636939
 51
272.3167034668078941
  0
ARC
  5
A626
  8
0
 10
4172.4274969479520223
 20
53.9956947671573602
 30
0.0
 40
0.3711489600030888
 50
87.2488164767898837
 51
93.1938122883561562
  0
ARC
  5
A627
  8
0
 10
4172.3477401835962155
 20
54.695064683477213
 30
0.0
 40
0.3470439440202889
 50
272.1632321316732828
 51
286.4654951688052051
  0
ARC
  5
A628
  8
0
 10
4172.3104745388709489
 20
56.844096619474918
 30
0.0
 40
2.4798652808663442
 50
269.0355934977997094
 51
270.3320601662084073
  0
ARC
  5
A629
  8
0
 10
4172.3189186323079412
 20
54.8038885364059567
 30
0.0
 40
0.4564155832762738
 50
259.5204708709923125
 51
267.8486093070742982
  0
ARC
  5
A62A
  8
0
 10
4172.2470134540526487
 20
54.434078089630809
 30
0.0
 40
0.0797695175171639
 50
245.7067609999326976
 51
261.9943137154917849
  0
ARC
  5
A62B
  8
0
 10
4172.2147821510052381
 20
54.3628645244161319
 30
0.0
 40
0.0016035792768
 50
189.8977577841814082
 51
248.5496912535597005
  0
ARC
  5
A62C
  8
0
 10
4172.2199829767723713
 20
54.3528539946251428
 30
0.0
 40
0.0118635477443947
 50
84.0809614169969137
 51
124.8579516886835989
  0
ARC
  5
A62D
  8
0
 10
4172.2435204757339307
 20
53.4027664083401135
 30
0.0
 40
0.9621466736724869
 50
88.4982898903312218
 51
91.328922152606367
  0
LINE
  5
A62E
  8
0
 10
4172.3017847784149126
 20
54.3642465636631869
 30
0.0
 11
4172.3017847784149126
 21
54.346370276394147
 31
0.0
  0
LINE
  5
A62F
  8
0
 10
4172.3017847784149126
 20
54.346370276394147
 30
0.0
 11
4172.3608398965798187
 21
54.3468342351049287
 31
0.0
  0
LINE
  5
A630
  8
0
 10
4172.3608398965798187
 20
54.3468342351049287
 30
0.0
 11
4172.3608398966161985
 21
54.3648232157941464
 31
0.0
  0
ARC
  5
A631
  8
0
 10
4172.4455079975532499
 20
54.3609867891144134
 30
0.0
 40
0.0054326997424378
 50
43.8994155645406821
 51
92.0713480975925336
  0
ARC
  5
A632
  8
0
 10
4172.4443343982766237
 20
54.3680519854262485
 30
0.0
 40
0.0060636295213815
 50
286.9836767485394944
 51
327.0483999353509716
  0
ARC
  5
A633
  8
0
 10
4174.9800714085358777
 20
54.7385290273858871
 30
0.0
 40
0.6274605312410638
 50
249.6182541208063128
 51
270.0170400406839804
  0
ARC
  5
A634
  8
0
 10
4175.669231910614144
 20
54.7392210150584617
 30
0.0
 40
0.6281749904059709
 50
270.0002267112957952
 51
290.3759154150502013
  0
LINE
  5
A635
  8
0
 10
4174.9802580183149985
 20
54.1110685238941471
 30
0.0
 11
4175.6692343962140512
 21
54.1110460246574121
 31
0.0
  0
ARC
  5
A636
  8
0
 10
4176.4826816143804535
 20
54.6548135253320879
 30
0.0
 40
0.6225330641789762
 50
234.1288750801552112
 51
269.8667117509825175
  0
ARC
  5
A637
  8
0
 10
4177.0554031192914408
 20
54.6538403012888381
 30
0.0
 40
0.6216313595587605
 50
270.8793103458281735
 51
305.9092577277961027
  0
LINE
  5
A638
  8
0
 10
4180.7446981643151958
 20
54.1503519144482865
 30
0.0
 11
4180.744698164015972
 21
54.0322821345941477
 31
0.0
  0
LINE
  5
A639
  8
0
 10
4180.8880217901551077
 20
54.1503519142979997
 30
0.0
 11
4180.8900827057423157
 21
54.0322821445678585
 31
0.0
  0
ARC
  5
A63A
  8
0
 10
4181.2435779990164519
 20
54.1217019142942206
 30
0.0
 40
0.1940487543001597
 50
171.5096226342303964
 51
207.449224360299695
  0
ARC
  5
A63B
  8
0
 10
4181.2434212963162281
 20
54.1314945037940873
 30
0.0
 40
0.2135726654998639
 50
174.9344695440493069
 51
207.6900183249003931
  0
ARC
  5
A63C
  8
0
 10
4174.2841243994407705
 20
53.827072407333759
 30
0.0
 40
0.2053869787055161
 50
92.3804720922492351
 51
179.5845155066164125
  0
ARC
  5
A63D
  8
0
 10
4174.407707550338273
 20
52.3895904326316924
 30
0.0
 40
0.2784349107886329
 50
182.4805707989467862
 51
231.7280693679464889
  0
ARC
  5
A63E
  8
0
 10
4174.4868239544730386
 20
52.2692502910048873
 30
0.0
 40
0.236287914335415
 50
230.3002456306228964
 51
270.0046060656791838
  0
ARC
  5
A63F
  8
0
 10
4174.6139089366479311
 20
51.2460537077150775
 30
0.0
 40
0.7869060251403031
 50
14.0116402831331506
 51
90.0286891088850041
  0
LINE
  5
A640
  8
0
 10
4174.0787428208795973
 20
53.8285617727620718
 30
0.0
 11
4174.1295335454160522
 21
52.3775396014941492
 31
0.0
  0
LINE
  5
A641
  8
0
 10
4174.1247741333163503
 20
54.1525908573927097
 30
0.0
 11
4174.1271981294021316
 21
53.9595788479082827
 31
0.0
  0
LINE
  5
A642
  8
0
 10
4174.2352464998748474
 20
52.17099677851796
 30
0.0
 11
4174.3358916185079579
 21
52.0874498278006186
 31
0.0
  0
LINE
  5
A643
  8
0
 10
4174.4868429498974365
 20
52.0329623774330088
 30
0.0
 11
4174.6135149175415791
 21
52.0329596342088578
 31
0.0
  0
ARC
  5
A644
  8
0
 10
4203.988373093878181
 20
56.8577834355399716
 30
0.0
 40
29.1200470486713598
 50
190.7292047069147998
 51
211.7745566316810937
  0
ARC
  5
A645
  8
0
 10
4174.9181869959502365
 20
37.2169271338457222
 30
0.0
 40
14.9669857699909699
 50
88.0890145363734547
 51
91.2999546328226472
  0
LINE
  5
A646
  8
0
 10
4174.5786378451148266
 20
52.1800608100941474
 30
0.0
 11
4174.4234199242509931
 21
52.0856107369649735
 31
0.0
  0
LINE
  5
A647
  8
0
 10
4174.4234199242509931
 20
52.0856107369649735
 30
0.0
 11
4174.4868429498992555
 21
52.0329623774330088
 31
0.0
  0
ARC
  5
A648
  8
0
 10
4175.2773496581648942
 20
52.0470127875844071
 30
0.0
 40
0.1900383952724505
 50
5.3213447865413697
 51
42.57692978973283
  0
ARC
  5
A649
  8
0
 10
4196.1359025930951248
 20
53.9924732866142705
 30
0.0
 40
20.7590438556390602
 50
185.3285815454443934
 51
187.0040787062451955
  0
ARC
  5
A64A
  8
0
 10
4187.0603677431117831
 20
52.8396567388505076
 30
0.0
 40
11.6107216717974495
 50
186.8188142480018996
 51
194.9273283810229884
  0
ARC
  5
A64B
  8
0
 10
4180.1784366456013231
 20
50.9772361571962378
 30
0.0
 40
4.48136537089729
 50
194.5843211242041093
 51
212.664316218566114
  0
ARC
  5
A64C
  8
0
 10
4179.0744993829621308
 20
50.1801045807262298
 30
0.0
 40
3.1227010578349348
 50
211.28348169758209
 51
238.4371016242297117
  0
ARC
  5
A64D
  8
0
 10
4176.3263205106586611
 20
45.6586420565535676
 30
0.0
 40
2.1685194748790821
 50
35.4337919730287894
 51
59.0992013879484119
  0
ARC
  5
A64E
  8
0
 10
4174.1133679921731527
 20
44.1977029609606191
 30
0.0
 40
4.8194892250713366
 50
21.4623905648178095
 51
34.3324747289604773
  0
ARC
  5
A64F
  8
0
 10
4171.1849807736180082
 20
43.035617435088831
 30
0.0
 40
7.9700183192318761
 50
15.77548213137438
 51
21.5345335879443098
  0
ARC
  5
A650
  8
0
 10
4336.9875899946027857
 20
55.7059191693705884
 30
0.0
 40
158.4812345748865141
 50
183.8001215516981972
 51
184.5760739251003031
  0
ARC
  5
A651
  8
0
 10
4189.8228589452601227
 20
43.8530287644870569
 30
0.0
 40
10.84021991584404
 50
184.1854156030466072
 51
187.8152725198937105
  0
ARC
  5
A652
  8
0
 10
4183.3100839703793099
 20
43.4902436540202331
 30
0.0
 40
4.370398461332023
 50
194.7303750227067098
 51
205.467871379223908
  0
ARC
  5
A653
  8
0
 10
4180.8832634850214163
 20
42.3422725870226131
 30
0.0
 40
1.685782363451813
 50
205.7100664118567011
 51
236.2450426330782136
  0
ARC
  5
A654
  8
0
 10
4181.1082048300149836
 20
42.6374729781231423
 30
0.0
 40
2.056333802995117
 50
235.6043097419290007
 51
247.7600534791644975
  0
ARC
  5
A655
  8
0
 10
4181.194556202934109
 20
42.8811804116959507
 30
0.0
 40
2.3146266441072409
 50
248.0648352945644035
 51
269.5844503076044134
  0
ARC
  5
A656
  8
0
 10
4181.1776102586591151
 20
42.7270568390115528
 30
0.0
 40
2.287076373220033
 50
211.7431580584866992
 51
270.0039776237093179
  0
ARC
  5
A657
  8
0
 10
4178.3813062215704122
 20
37.5065564737220711
 30
0.0
 40
15.0259292197735892
 50
79.2741952849341089
 51
91.4418018736340059
  0
ARC
  5
A658
  8
0
 10
4181.9539917812953718
 20
-214.314505650576109
 30
0.0
 40
266.8714792148564925
 50
90.8482367627772049
 51
91.1275419871981427
  0
ARC
  5
A659
  8
0
 10
4175.7049086476936282
 20
95.0537873470482282
 30
0.0
 40
42.5601812433653777
 50
269.2208587101980015
 51
271.3430851712749927
  0
ARC
  5
A65A
  8
0
 10
4174.8763827090206178
 20
45.7715463822452975
 30
0.0
 40
6.7306313981411572
 50
87.8731632454371834
 51
94.8772584027807255
  0
LINE
  5
A65B
  8
0
 10
4174.3041346595146024
 20
52.4778069786940904
 30
0.0
 11
4174.1262490559838625
 21
52.4715950768039008
 31
0.0
  0
ARC
  5
A65C
  8
0
 10
4181.2321554495665623
 20
29.531889920254379
 30
0.0
 40
28.7150230941741604
 50
80.1222320306965941
 51
90.1085185935276485
  0
ARC
  5
A65D
  8
0
 10
4182.1899249528360087
 20
37.5338803809310306
 30
0.0
 40
20.6718070724032117
 50
74.6299509175817661
 51
78.9326917557305592
  0
LINE
  5
A65E
  8
0
 10
4187.7307199656252124
 20
57.4496073980714215
 30
0.0
 11
4187.6690309924233588
 21
57.4663414594233899
 31
0.0
  0
ARC
  5
A65F
  8
0
 10
4187.5249548718884398
 20
56.5983333849367227
 30
0.0
 40
0.8757891979460922
 50
55.2308165814137126
 51
76.4114307658472285
  0
ARC
  5
A660
  8
0
 10
4187.7996938945952934
 20
56.9875490409332031
 30
0.0
 40
0.3994071100276539
 50
22.5993469861087988
 51
55.7655144103068707
  0
ARC
  5
A661
  8
0
 10
4179.8477139709038966
 20
54.6634775082626234
 30
0.0
 40
8.6817421286067802
 50
6.2957880879200081
 51
16.5813029947878192
  0
ARC
  5
A662
  8
0
 10
4182.5083016762591797
 20
54.6050232358052625
 30
0.0
 40
6.0537289325111834
 50
0.3641643397458918
 51
9.6089474943849549
  0
ARC
  5
A663
  8
0
 10
4187.5422082783206861
 20
54.6559798673870034
 30
0.0
 40
1.019776424724572
 50
339.007858233844388
 51
359.2987870631766896
  0
ARC
  5
A664
  8
0
 10
4188.2157636112506225
 20
54.4465652876208779
 30
0.0
 40
0.3192043308953551
 50
305.4589272926126
 51
330.7623403878463932
  0
ARC
  5
A665
  8
0
 10
4188.2891082181513411
 20
54.4050671194265618
 30
0.0
 40
0.2454593967943106
 50
275.7921147154489177
 51
297.1037175439619205
  0
ARC
  5
A666
  8
0
 10
4188.0899057656888544
 20
55.9900527976839797
 30
0.0
 40
1.8428530647204759
 50
274.383668907780077
 51
276.9807913632548093
  0
LINE
  5
A667
  8
0
 10
4188.2307639333039333
 20
54.1525908539254814
 30
0.0
 11
4188.1392699892157907
 21
54.1503519066941479
 31
0.0
  0
ARC
  5
A668
  8
0
 10
4183.5872995245417769
 20
55.2794321438662379
 30
0.0
 40
4.8927720961073593
 50
2.3060192260345591
 51
7.5967811158721412
  0
ARC
  5
A669
  8
0
 10
4187.3576085746326498
 20
55.4108681256089994
 30
0.0
 40
1.120413070136614
 50
346.8589572181743961
 51
3.3480402321461389
  0
ARC
  5
A66A
  8
0
 10
4188.1880347144060579
 20
55.2054064369378565
 30
0.0
 40
0.2652616539064053
 50
314.4895864110624757
 51
349.2971861540435157
  0
ARC
  5
A66B
  8
0
 10
4188.280724923642083
 20
55.2026113217306289
 30
0.0
 40
0.2084342213650228
 50
271.6791275748354906
 51
296.560482402037394
  0
ARC
  5
A66C
  8
0
 10
4184.6378535414351063
 20
216.4015730057178928
 30
0.0
 40
161.448547865572607
 50
268.7719714978574075
 51
271.2950806916912256
  0
ARC
  5
A66D
  8
0
 10
4187.3754666583718063
 20
54.7385290243378719
 30
0.0
 40
0.6274605312410638
 50
269.9829599311764809
 51
290.381743150198588
  0
ARC
  5
A66E
  8
0
 10
4186.6863061562944495
 20
54.7392210123493683
 30
0.0
 40
0.6281749904059709
 50
249.6240867815263016
 51
269.9997732605647229
  0
LINE
  5
A66F
  8
0
 10
4187.3752800482825478
 20
54.1110685208462101
 30
0.0
 11
4186.686303670385314
 21
54.1110460219483187
 31
0.0
  0
ARC
  5
A670
  8
0
 10
4185.8728564688708502
 20
54.6548134548120998
 30
0.0
 40
0.6225329959298137
 50
270.1332867273952729
 51
305.8711256428589991
  0
ARC
  5
A671
  8
0
 10
4185.3001347488252577
 20
54.6538395014564387
 30
0.0
 40
0.621630558797382
 50
234.0907197401998872
 51
269.1207068143122001
  0
LINE
  5
A672
  8
0
 10
4181.6108399023041784
 20
54.1503519135400424
 30
0.0
 11
4181.6108399025451945
 21
54.0322821343811626
 31
0.0
  0
LINE
  5
A673
  8
0
 10
4181.467516276454262
 20
54.1503519136903293
 30
0.0
 11
4181.4654553608461356
 21
54.0322821459526565
 31
0.0
  0
ARC
  5
A674
  8
0
 10
4181.1119600675883703
 20
54.1217019143265716
 30
0.0
 40
0.1940487543001597
 50
332.5507756115284224
 51
8.4903772771480899
  0
ARC
  5
A675
  8
0
 10
4181.1121167702940511
 20
54.1314945038263886
 30
0.0
 40
0.2135726654998639
 50
332.3099816469281791
 51
5.0655303641715541
  0
ARC
  5
A676
  8
0
 10
4188.0799448518200734
 20
53.8354317490358483
 30
0.0
 40
0.1968503937642396
 50
357.9999999906045218
 51
89.9999999859302449
  0
ARC
  5
A677
  8
0
 10
4187.9478305154143527
 20
52.3895904293021673
 30
0.0
 40
0.2784349107886329
 50
308.271930603896692
 51
357.5194291728768121
  0
ARC
  5
A678
  8
0
 10
4187.8687141112213794
 20
52.2692502877142928
 30
0.0
 40
0.236287914335415
 50
269.9953939061290953
 51
309.6997543412010145
  0
ARC
  5
A679
  8
0
 10
4187.7416291285417174
 20
51.2460537044869682
 30
0.0
 40
0.7869060251403031
 50
89.9713108629233744
 51
165.9883596886874955
  0
LINE
  5
A67A
  8
0
 10
4188.2766753296400566
 20
53.8285617692708271
 30
0.0
 11
4188.2260045203311165
 21
52.3775395980278375
 31
0.0
  0
LINE
  5
A67B
  8
0
 10
4188.2307639333039333
 20
54.152590853924039
 30
0.0
 11
4188.2284042336059429
 21
53.9646984867719581
 31
0.0
  0
LINE
  5
A67C
  8
0
 10
4188.1202915657695485
 20
52.1709967751036316
 30
0.0
 11
4188.0196464470964202
 21
52.0874498244358008
 31
0.0
  0
LINE
  5
A67D
  8
0
 10
4187.8686951156805662
 20
52.0329623741424072
 30
0.0
 11
4187.7420231480346047
 21
52.0329596309805709
 31
0.0
  0
ARC
  5
A67E
  8
0
 10
4158.3671649740717839
 20
56.8577834467582122
 30
0.0
 40
29.1200470486713598
 50
328.2254433401337224
 51
349.270795264904109
  0
ARC
  5
A67F
  8
0
 10
4187.4373510623408947
 20
37.2169271307672602
 30
0.0
 40
14.9669857699909699
 50
88.700045338978498
 51
91.9109854354713178
  0
LINE
  5
A680
  8
0
 10
4187.7769002205341167
 20
52.1800608068487008
 30
0.0
 11
4187.932118141351566
 21
52.0856107336431791
 31
0.0
  0
LINE
  5
A681
  8
0
 10
4187.932118141351566
 20
52.0856107336431791
 30
0.0
 11
4187.8686951156778377
 21
52.0329623741424072
 31
0.0
  0
ARC
  5
A682
  8
0
 10
4187.078188407417656
 20
52.047012784682579
 30
0.0
 40
0.1900383952724505
 50
137.4230701820837908
 51
174.6786551852758009
  0
ARC
  5
A683
  8
0
 10
4166.2196354734460328
 20
53.9924732939706686
 30
0.0
 40
20.7590438556390602
 50
352.9959212655763849
 51
354.6714184263784091
  0
ARC
  5
A684
  8
0
 10
4175.2951703228609404
 20
52.8396567417435676
 30
0.0
 40
11.6107216717974495
 50
345.0726715907898097
 51
353.1811857238208745
  0
ARC
  5
A685
  8
0
 10
4182.1771014194573581
 20
50.9772361567047767
 30
0.0
 40
4.48136537089729
 50
327.3356837532513737
 51
345.4156788476200859
  0
ARC
  5
A686
  8
0
 10
4183.2810386817036488
 20
50.1801045796918572
 30
0.0
 40
3.1227010578349348
 50
301.5628983475809264
 51
328.7165182742344882
  0
ARC
  5
A687
  8
0
 10
4186.0292175517843134
 20
45.6586420541676432
 30
0.0
 40
2.1685194748790821
 50
120.9007985838728985
 51
144.566207998808494
  0
ARC
  5
A688
  8
0
 10
4188.2421700695485924
 20
44.1977029574863565
 30
0.0
 40
4.8194892250713366
 50
145.6675252428607052
 51
158.537609407001213
  0
ARC
  5
A689
  8
0
 10
4191.1705572875325743
 20
43.0356174301743835
 30
0.0
 40
7.9700183192318761
 50
158.4654663838676925
 51
164.2245178404475894
  0
ARC
  5
A68A
  8
0
 10
4025.3679480727801092
 20
55.7059192459977623
 30
0.0
 40
158.4812345748865141
 50
355.4239260467222152
 51
356.1998784201234116
  0
ARC
  5
A68B
  8
0
 10
4172.5326791162942754
 20
43.8530287687387101
 30
0.0
 40
10.84021991584404
 50
352.1847274519319058
 51
355.8145843687732963
  0
ARC
  5
A68C
  8
0
 10
4179.0454540909968273
 20
43.4902436550689089
 30
0.0
 40
4.370398461332023
 50
334.5321285925870143
 51
345.2696249491216918
  0
ARC
  5
A68D
  8
0
 10
4181.4722745757908342
 20
42.3422725868777619
 30
0.0
 40
1.685782363451813
 50
303.7549573387692021
 51
334.2899335599785218
  0
ARC
  5
A68E
  8
0
 10
4181.247333230940967
 20
42.6374729780889226
 30
0.0
 40
2.056333802995117
 50
292.2399464926339192
 51
304.3956902299011062
  0
ARC
  5
A68F
  8
0
 10
4181.1609818577253463
 20
42.8811804131128369
 30
0.0
 40
2.3146266455703279
 50
270.4155498499288228
 51
291.9351646738617205
  0
ARC
  5
A690
  8
0
 10
4181.1779278023432198
 20
42.7270568390099967
 30
0.0
 40
2.2870763732180648
 50
269.9960225273582068
 51
328.2568419133573911
  0
ARC
  5
A691
  8
0
 10
4183.9742318368616907
 20
37.506556472346773
 30
0.0
 40
15.0259292197735892
 50
88.558198098165434
 51
100.725804686902805
  0
ARC
  5
A692
  8
0
 10
4180.4015461532926565
 20
-214.3145056501942918
 30
0.0
 40
266.8714792148564925
 50
88.8724579846568759
 51
89.1517632090280756
  0
ARC
  5
A693
  8
0
 10
4186.6506294390419498
 20
95.0537873443566781
 30
0.0
 40
42.5601812433653777
 50
268.6569148005256125
 51
270.7791412616599018
  0
ARC
  5
A694
  8
0
 10
4187.4791553534778359
 20
45.7715463791462795
 30
0.0
 40
6.7306313981411572
 50
85.1227415690298841
 51
92.1268367264038801
  0
LINE
  5
A695
  8
0
 10
4188.0514034062798601
 20
52.4778069753136407
 30
0.0
 11
4188.2292890098078715
 21
52.471595073335962
 31
0.0
  0
LINE
  5
A696
  8
0
 10
4174.2162983575162798
 20
54.1503519212941526
 30
0.0
 11
4188.1392699892157907
 21
54.1503519066941479
 31
0.0
  0
LINE
  5
A697
  8
0
 10
4188.0799448518200734
 20
54.0322821428000992
 30
0.0
 11
4174.2755936258918155
 21
54.0322821461941487
 31
0.0
  0
ARC
  5
A698
  8
0
 10
4181.0738104449592356
 20
51.2750653963005973
 30
0.0
 40
5.2807813432594699
 50
235.6375545196605117
 51
271.1280098174852924
  0
ARC
  5
A699
  8
0
 10
4181.2868669346926254
 20
51.2845740989833274
 30
0.0
 40
5.2903916936198856
 50
268.8183687056434792
 51
304.1306105834046889
  0
ENDSEC
  0
EOF
