  0
SECTION
  2
HEADER
  9
$ACADVER
  1
AC1009
  9
$INSBASE
 10
1251.2916520023240992
 20
206.347640507141989
 30
0.0
  9
$EXTMIN
 10
1244.6335849812760443
 20
192.193967847566114
 30
-0.0000000000112498
  9
$EXTMAX
 10
1257.9481014740329101
 20
206.3479461017066114
 30
0.0000000000002956
  9
$LIMMIN
 10
0.0
 20
0.0
  9
$LIMMAX
 10
11.6929133858000007
 20
8.2677165353999982
  9
$ORTHOMODE
 70
     0
  9
$REGENMODE
 70
     1
  9
$FILLMODE
 70
     1
  9
$QTEXTMODE
 70
     0
  9
$MIRRTEXT
 70
     0
  9
$DRAGMODE
 70
     2
  9
$LTSCALE
 40
0.6431102362
  9
$OSMODE
 70
  4095
  9
$ATTMODE
 70
     1
  9
$TEXTSIZE
 40
0.2
  9
$TRACEWID
 40
0.05
  9
$TEXTSTYLE
  7
STANDARD
  9
$CLAYER
  8
0
  9
$CELTYPE
  6
BYLAYER
  9
$CECOLOR
 62
   256
  9
$DIMSCALE
 40
1.0
  9
$DIMASZ
 40
0.1875
  9
$DIMEXO
 40
0.0625
  9
$DIMDLI
 40
0.4443307087
  9
$DIMRND
 40
0.0
  9
$DIMDLE
 40
0.0
  9
$DIMEXE
 40
0.125
  9
$DIMTP
 40
0.01
  9
$DIMTM
 40
0.01
  9
$DIMTXT
 40
1.0
  9
$DIMCEN
 40
0.1052362205
  9
$DIMTSZ
 40
0.0
  9
$DIMTOL
 70
     1
  9
$DIMLIM
 70
     0
  9
$DIMTIH
 70
     0
  9
$DIMTOH
 70
     1
  9
$DIMSE1
 70
     0
  9
$DIMSE2
 70
     0
  9
$DIMTAD
 70
     0
  9
$DIMZIN
 70
     0
  9
$DIMBLK
  1

  9
$DIMASO
 70
     1
  9
$DIMSHO
 70
     1
  9
$DIMPOST
  1
\X
  9
$DIMAPOST
  1

  9
$DIMALT
 70
     1
  9
$DIMALTD
 70
     2
  9
$DIMALTF
 40
25.3999999999999986
  9
$DIMLFAC
 40
1.0
  9
$DIMTOFL
 70
     0
  9
$DIMTVP
 40
0.0
  9
$DIMTIX
 70
     0
  9
$DIMSOXD
 70
     0
  9
$DIMSAH
 70
     0
  9
$DIMBLK1
  1

  9
$DIMBLK2
  1

  9
$DIMSTYLE
  2
STANDARD
  9
$DIMCLRD
 70
     0
  9
$DIMCLRE
 70
     0
  9
$DIMCLRT
 70
     0
  9
$DIMTFAC
 40
1.0
  9
$DIMGAP
 40
0.09
  9
$LUNITS
 70
     2
  9
$LUPREC
 70
     4
  9
$SKETCHINC
 40
0.1
  9
$FILLETRAD
 40
0.0
  9
$AUNITS
 70
     0
  9
$AUPREC
 70
     0
  9
$MENU
  1
.
  9
$ELEVATION
 40
0.0
  9
$PELEVATION
 40
0.0
  9
$THICKNESS
 40
0.0
  9
$LIMCHECK
 70
     0
  9
$BLIPMODE
 70
     0
  9
$CHAMFERA
 40
0.0
  9
$CHAMFERB
 40
0.0
  9
$SKPOLY
 70
     0
  9
$TDCREATE
 40
2458172.5207638889551163
  9
$TDUPDATE
 40
2459176.5736111109144986
  9
$TDINDWG
 40
0.4612391435
  9
$TDUSRTIMER
 40
0.4612391435
  9
$USRTIMER
 70
     1
  9
$ANGBASE
 50
0.0
  9
$ANGDIR
 70
     0
  9
$PDMODE
 70
     0
  9
$PDSIZE
 40
0.3125
  9
$PLINEWID
 40
0.0
  9
$COORDS
 70
     1
  9
$SPLFRAME
 70
     0
  9
$SPLINETYPE
 70
     6
  9
$SPLINESEGS
 70
     8
  9
$ATTDIA
 70
     1
  9
$ATTREQ
 70
     1
  9
$HANDLING
 70
     1
  9
$HANDSEED
  5
C802
  9
$SURFTAB1
 70
     6
  9
$SURFTAB2
 70
     6
  9
$SURFTYPE
 70
     6
  9
$SURFU
 70
     6
  9
$SURFV
 70
     6
  9
$UCSNAME
  2

  9
$UCSORG
 10
0.0
 20
0.0
 30
0.0
  9
$UCSXDIR
 10
1.0
 20
0.0
 30
0.0
  9
$UCSYDIR
 10
0.0
 20
1.0
 30
0.0
  9
$PUCSNAME
  2

  9
$PUCSORG
 10
0.0
 20
0.0
 30
0.0
  9
$PUCSXDIR
 10
1.0
 20
0.0
 30
0.0
  9
$PUCSYDIR
 10
0.0
 20
1.0
 30
0.0
  9
$USERI1
 70
     0
  9
$USERI2
 70
     0
  9
$USERI3
 70
     0
  9
$USERI4
 70
     0
  9
$USERI5
 70
     0
  9
$USERR1
 40
0.0
  9
$USERR2
 40
0.0
  9
$USERR3
 40
0.0
  9
$USERR4
 40
0.0
  9
$USERR5
 40
0.0
  9
$WORLDVIEW
 70
     1
  9
$SHADEDGE
 70
     3
  9
$SHADEDIF
 70
    70
  9
$TILEMODE
 70
     1
  9
$MAXACTVP
 70
    64
  9
$PLIMCHECK
 70
     0
  9
$PEXTMIN
 10
1.0000000000000000E+20
 20
1.0000000000000000E+20
 30
1.0000000000000000E+20
  9
$PEXTMAX
 10
-1.0000000000000000E+20
 20
-1.0000000000000000E+20
 30
-1.0000000000000000E+20
  9
$PLIMMIN
 10
0.0
 20
0.0
  9
$PLIMMAX
 10
12.0
 20
9.0
  9
$UNITMODE
 70
     0
  9
$VISRETAIN
 70
     1
  9
$PLINEGEN
 70
     0
  9
$PSLTSCALE
 70
     1
  0
ENDSEC
  0
SECTION
  2
TABLES
  0
TABLE
  2
VPORT
 70
     1
  0
VPORT
  2
*ACTIVE
 70
     0
 10
0.0
 20
0.0
 11
1.0
 21
1.0
 12
784.9451216170673433
 22
111.1442595298875062
 13
0.0
 23
0.0
 14
1.0
 24
1.0
 15
0.0
 25
0.0
 16
0.0
 26
0.0
 36
24.1179433675886514
 17
466.74220170783002
 27
89.133147119929788
 37
0.0
 40
14.3342837807407193
 41
2.887234042553191
 42
50.0
 43
0.0
 44
0.0
 50
0.0
 51
0.0
 71
     0
 72
   100
 73
     1
 74
     1
 75
     0
 76
     0
 77
     0
 78
     0
  0
ENDTAB
  0
TABLE
  2
LTYPE
 70
     2
  0
LTYPE
  2
CONTINUOUS
 70
     0
  3
Solid line
 72
    65
 73
     0
 40
0.0
  0
LTYPE
  2
PHANTOM2
 70
     0
  3
___ _ _ ___ _ _ ___ _ _ ___ _ _
 72
    65
 73
     6
 40
1.25
 49
0.625
 49
-0.125
 49
0.125
 49
-0.125
 49
0.125
 49
-0.125
  0
ENDTAB
  0
TABLE
  2
LAYER
 70
     2
  0
LAYER
  2
0
 70
     0
 62
   255
  6
CONTINUOUS
  0
LAYER
  2
DEFPOINTS
 70
     0
 62
     7
  6
CONTINUOUS
  0
ENDTAB
  0
TABLE
  2
STYLE
 70
     1
  0
STYLE
  2
STANDARD
 70
     0
 40
0.0
 41
0.8
 50
0.0
 71
     0
 42
0.2
  3
txt
  4

  0
ENDTAB
  0
TABLE
  2
VIEW
 70
     0
  0
ENDTAB
  0
TABLE
  2
UCS
 70
     0
  0
ENDTAB
  0
TABLE
  2
APPID
 70
    11
  0
APPID
  2
ACAD
 70
     0
  0
APPID
  2
ACAD_MLEADERVER
 70
     0
  0
APPID
  2
ACAD_EXEMPT_FROM_CAD_STANDARDS
 70
     0
  0
APPID
  2
ACAD_DSTYLE_DIMJAG
 70
     0
  0
APPID
  2
ACAD_DSTYLE_DIMTALN
 70
     0
  0
APPID
  2
ACAD_NAV_VCDISPLAY
 70
     0
  0
APPID
  2
ACAECLAYERSTANDARD
 70
     0
  0
APPID
  2
ACCMTRANSPARENCY
 70
     0
  0
APPID
  2
DCO15
 70
     0
  0
APPID
  2
ACDBATTR
 70
     0
  0
APPID
  2
ACADANNOTATIVE
 70
     0
  0
ENDTAB
  0
TABLE
  2
DIMSTYLE
 70
     1
  0
DIMSTYLE
  2
STANDARD
 70
     0
  3

  4

  5

  6

  7

 40
1.0
 41
0.1875
 42
0.0625
 43
0.38
 44
0.125
 45
0.0
 46
0.0
 47
0.01
 48
0.01
140
0.15625
141
0.09
142
0.0
143
25.3999999999999986
144
1.0
145
0.0
146
1.0
147
0.09
 71
     1
 72
     0
 73
     1
 74
     1
 75
     0
 76
     0
 77
     0
 78
     4
170
     0
171
     2
172
     0
173
     0
174
     0
175
     0
176
     0
177
     0
178
     0
  0
ENDTAB
  0
ENDSEC
  0
SECTION
  2
BLOCKS
  0
BLOCK
  8
0
  2
$MODEL_SPACE
 70
     0
 10
0.0
 20
0.0
 30
0.0
  3
$MODEL_SPACE
  1

  0
ENDBLK
  5
21
  8
0
  0
BLOCK
 67
     1
  8
0
  2
$PAPER_SPACE
 70
     0
 10
0.0
 20
0.0
 30
0.0
  3
$PAPER_SPACE
  1

  0
ENDBLK
  5
1D
 67
     1
  8
0
  0
ENDSEC
  0
SECTION
  2
ENTITIES
  0
ATTDEF
  5
829
  8
DEFPOINTS
 10
1251.286625385311936
 20
206.3455546734280119
 30
0.0
 40
0.001
  1
K-5777T-ER
  3

  2
MODELNUMBER
 70
     0
1001
ACDBATTR
1070
     0
1070
     1
  0
ATTDEF
  5
82A
  8
DEFPOINTS
 10
1251.286625385311936
 20
206.3438880067614036
 30
0.0
 40
0.001
  1
STRUKTURA
  3

  2
TRADENAME
 70
     0
1001
ACDBATTR
1070
     0
1070
     1
  0
ATTDEF
  5
82B
  8
DEFPOINTS
 10
1251.286625385311936
 20
206.3422213400947101
 30
0.0
 40
0.001
  1
URINAL
  3

  2
PRODUCT
 70
     0
1001
ACDBATTR
1070
     0
1070
     1
  0
LINE
  5
C6F3
  8
0
 10
1246.9185109428710803
 20
206.347640507141989
 30
0.0
 11
1255.6647930617768907
 21
206.347640507141989
 31
0.0
  0
ARC
  5
C6F4
  8
0
 10
1251.3197748581960695
 20
194.8695399552271112
 30
0.0
 40
2.6660209547471978
 50
242.7909019996415054
 51
269.3955970860506
  0
ARC
  5
C6F5
  8
0
 10
1252.1690099368240681
 20
196.3105900991164958
 30
0.0
 40
4.3369840103674049
 50
224.624799995052598
 51
241.517822364623612
  0
ARC
  5
C6F6
  8
0
 10
1258.8883722497589588
 20
203.1356677959840056
 30
0.0
 40
13.9143336024208608
 50
210.9467527182513038
 51
225.1908649038869896
  0
ARC
  5
C6F7
  8
0
 10
1179.654068662867985
 20
152.614059188018814
 30
0.0
 40
80.0626242534364252
 50
32.7963420377169399
 51
33.9501893109487014
  0
ARC
  5
C6F8
  8
0
 10
1241.7766725803710415
 20
194.4377526186245859
 30
0.0
 40
5.1731106372544922
 50
33.9501893109487014
 51
48.6448482921659533
  0
ARC
  5
C6F9
  8
0
 10
1244.4045810961890766
 20
197.423237401932397
 30
0.0
 40
1.1957971521401469
 50
48.6448482921670333
 51
68.9752990594744801
  0
ARC
  5
C6FA
  8
0
 10
1244.894767072941022
 20
198.6491007814597936
 30
0.0
 40
0.125580202788898
 50
199.3443272888600859
 51
240.8502445112355872
  0
ARC
  5
C6FB
  8
0
 10
1245.9468467520039212
 20
199.0083254790569924
 30
0.0
 40
1.2372927447029991
 50
191.5980346852188063
 51
198.9020447026113914
  0
ARC
  5
C6FC
  8
0
 10
2269.8759355253741887
 20
444.202807764143472
 30
0.0
 40
1054.1141749196960973
 50
193.4461773909839906
 51
193.4645160887781117
  0
ARC
  5
C6FD
  8
0
 10
1244.8957993589290254
 20
199.1435033129752128
 30
0.0
 40
0.2457817430640965
 50
144.630326880120208
 51
179.657394344640295
  0
ARC
  5
C6FE
  8
0
 10
1244.9633745737780828
 20
199.1504007569967882
 30
0.0
 40
0.3133995693390697
 50
180.992357034988288
 51
191.5399230408033873
  0
ARC
  5
C6FF
  8
0
 10
1313.3872170414090306
 20
151.2443840722951904
 30
0.0
 40
83.8244806300068745
 50
141.73498171113269
 51
145.0319997497826137
  0
ARC
  5
C700
  8
0
 10
1261.7016770909399384
 20
192.0119502111523104
 30
0.0
 40
17.9959952391241309
 50
131.1630509715195103
 51
141.73498171113269
  0
ARC
  5
C701
  8
0
 10
1252.20170228558095
 20
202.8778146402281095
 30
0.0
 40
3.5628205677805549
 50
114.0201701158242003
 51
131.1630509715195103
  0
ARC
  5
C702
  8
0
 10
1251.9096305642331117
 20
203.5331974472105969
 30
0.0
 40
2.8453022655058469
 50
105.2177685944003969
 51
114.0201701158242003
  0
ARC
  5
C703
  8
0
 10
1252.0410436583829323
 20
201.5034209287655926
 30
0.0
 40
4.85540260941913
 50
98.8786257437301543
 51
100.421343247692505
  0
ARC
  5
C704
  8
0
 10
1598.1082838364739018
 20
105.749552740524507
 30
0.0
 40
365.5966209968169096
 50
164.3134823239975049
 51
165.1871602566465072
  0
ARC
  5
C705
  8
0
 10
971.015888742731704
 20
314.8497330375291767
 30
0.0
 40
296.3821091357169166
 50
338.1613492113506823
 51
338.5069827971904033
  0
ARC
  5
C706
  8
0
 10
1246.9185109428710803
 20
206.207640507141889
 30
0.0
 40
0.14
 50
90.0000000000130314
 51
158.5069827971811947
  0
ARC
  5
C707
  8
0
 10
1244.8655234387870223
 20
198.6389504852413097
 30
0.0
 40
0.1045203390742527
 50
252.2147674007860019
 51
286.6160402759941235
  0
ARC
  5
C708
  8
0
 10
1244.4625223070559059
 20
199.2439659696964895
 30
0.0
 40
0.8274417441726321
 50
301.5448635389560081
 51
325.4016228471264753
  0
ARC
  5
C709
  8
0
 10
1249.4360152237240982
 20
196.0045322467333904
 30
0.0
 40
5.1083464786741173
 50
117.3110874591249058
 51
147.1684748013198885
  0
ARC
  5
C70A
  8
0
 10
1251.1134123302369971
 20
193.0050614632912129
 30
0.0
 40
8.5438506668857972
 50
96.576888166367695
 51
118.0769005997222934
  0
ARC
  5
C70B
  8
0
 10
1251.2857592023510733
 20
191.8450747589481011
 30
0.0
 40
9.7160192441942961
 50
89.9652499053158579
 51
96.8030516702429651
  0
ARC
  5
C70C
  8
0
 10
1237.7931107674689883
 20
208.590928225366298
 30
0.0
 40
9.6762347517679643
 50
330.8085185288686034
 51
344.6647831137520939
  0
ARC
  5
C70D
  8
0
 10
1261.8119863837309822
 20
198.7580134344939893
 30
0.0
 40
16.3896947609589496
 50
153.6528868430781927
 51
161.8204147995458015
  0
ARC
  5
C70E
  8
0
 10
1251.2635291464519014
 20
194.8695399552271112
 30
0.0
 40
2.666020954747212
 50
270.6044029139492864
 51
297.2090980003584946
  0
ARC
  5
C70F
  8
0
 10
1250.4142940678229934
 20
196.3105900991164958
 30
0.0
 40
4.3369840103674049
 50
298.482177635376388
 51
315.3752000049473736
  0
ARC
  5
C710
  8
0
 10
1243.6949317548890122
 20
203.1356677959840056
 30
0.0
 40
13.9143336024208608
 50
314.809135096112982
 51
329.0532472817487246
  0
ARC
  5
C711
  8
0
 10
1322.9292353417799859
 20
152.614059188018814
 30
0.0
 40
80.0626242534364252
 50
146.049810689052606
 51
147.203657962282989
  0
ARC
  5
C712
  8
0
 10
1260.8066314242769295
 20
194.4377526186245859
 30
0.0
 40
5.1731106372544922
 50
131.3551517078340112
 51
146.049810689052606
  0
ARC
  5
C713
  8
0
 10
1258.1787229084579849
 20
197.423237401932397
 30
0.0
 40
1.1957971521401469
 50
111.0247009405255056
 51
131.3551517078329027
  0
ARC
  5
C714
  8
0
 10
1257.6885369317060395
 20
198.6491007814597936
 30
0.0
 40
0.125580202788898
 50
299.1497554887644128
 51
340.6556727111399141
  0
ARC
  5
C715
  8
0
 10
1256.6364572526429129
 20
199.0083254790569924
 30
0.0
 40
1.2372927447029991
 50
341.0979552973885802
 51
348.4019653147811937
  0
ARC
  5
C716
  8
0
 10
232.7073684792742085
 20
444.202807764143472
 30
0.0
 40
1054.1141749196960973
 50
346.5354839112218883
 51
346.553822609015981
  0
ARC
  5
C717
  8
0
 10
1257.687504645718036
 20
199.1435033129752128
 30
0.0
 40
0.2457817430640965
 50
0.3426056553596586
 51
35.3696731198798275
  0
ARC
  5
C718
  8
0
 10
1257.6199294308689787
 20
199.1504007569967882
 30
0.0
 40
0.3133995693390697
 50
348.460076959196499
 51
359.007642965011712
  0
ARC
  5
C719
  8
0
 10
1189.1960869632380309
 20
151.2443840722951904
 30
0.0
 40
83.8244806300068745
 50
34.9680002502174005
 51
38.2650182888672816
  0
ARC
  5
C71A
  8
0
 10
1240.8816269137080326
 20
192.0119502111523104
 30
0.0
 40
17.9959952391241309
 50
38.2650182888672816
 51
48.8369490284805181
  0
ARC
  5
C71B
  8
0
 10
1250.3816017190670209
 20
202.8778146402281095
 30
0.0
 40
3.5628205677805549
 50
48.8369490284805181
 51
65.979829884175814
  0
ARC
  5
C71C
  8
0
 10
1250.6736734404150866
 20
203.5331974472105969
 30
0.0
 40
2.8453022655058469
 50
65.979829884175814
 51
74.7822314055995463
  0
ARC
  5
C71D
  8
0
 10
1250.5422603462650386
 20
201.5034209287655926
 30
0.0
 40
4.85540260941913
 50
79.5786567523075092
 51
81.1213742562698741
  0
ARC
  5
C71E
  8
0
 10
904.4750201661101983
 20
105.7495527399665036
 30
0.0
 40
365.5966209989546201
 50
14.8128397433550791
 51
15.6865176759993492
  0
ARC
  5
C71F
  8
0
 10
1531.5674152619160395
 20
314.8497330375291767
 30
0.0
 40
296.3821091357169166
 50
201.4930172028097104
 51
201.8386507886492041
  0
ARC
  5
C720
  8
0
 10
1255.6647930617768907
 20
206.207640507141889
 30
0.0
 40
0.14
 50
21.4930172028187592
 51
89.9999999999869686
  0
ARC
  5
C721
  8
0
 10
1257.7177805658600391
 20
198.6389504852413097
 30
0.0
 40
0.1045203390742527
 50
253.3839597240059049
 51
287.7852325992139981
  0
ARC
  5
C722
  8
0
 10
1258.120781697592065
 20
199.2439659696964895
 30
0.0
 40
0.8274417441726321
 50
214.5983771528734962
 51
238.4551364610439919
  0
ARC
  5
C723
  8
0
 10
1253.1472887809229633
 20
196.0045322467333904
 30
0.0
 40
5.1083464786741173
 50
32.8315251986801186
 51
62.6889125408751084
  0
ARC
  5
C724
  8
0
 10
1251.4698916744100643
 20
193.0050614632912129
 30
0.0
 40
8.5438506668857972
 50
61.9230994002776498
 51
83.4231118336322908
  0
ARC
  5
C725
  8
0
 10
1251.2975448022968976
 20
191.8450747589481011
 30
0.0
 40
9.7160192441942961
 50
83.1969483297570349
 51
90.0347500946841279
  0
ARC
  5
C726
  8
0
 10
1264.7901932371789826
 20
208.590928225366298
 30
0.0
 40
9.6762347517679643
 50
195.3352168862479061
 51
209.1914814711313966
  0
ARC
  5
C727
  8
0
 10
1240.7713176209160792
 20
198.7580134344939893
 30
0.0
 40
16.3896947609589496
 50
18.1795852004541914
 51
26.3471131569217398
  0
CIRCLE
  5
C728
  8
0
 10
1251.2916520023240992
 20
199.8373694803088938
 30
0.0
 40
1.2105381970640461
  0
ARC
  5
C729
  8
0
 10
1258.1399701639491013
 20
197.2663059606065019
 30
0.0
 40
10.7088440375540301
 50
178.5792156012454939
 51
187.8447556985526887
  0
ARC
  5
C72A
  8
0
 10
1255.186777653083027
 20
197.3395523692537097
 30
0.0
 40
7.7547433211580916
 50
162.3044566196697076
 51
178.5792156012454939
  0
ARC
  5
C72B
  8
0
 10
1252.0091601465899203
 20
198.3533871437327889
 30
0.0
 40
4.4193102207174118
 50
140.3609958672851974
 51
162.3044566196697076
  0
ARC
  5
C72C
  8
0
 10
1251.2999633908821124
 20
194.7152678633487142
 30
0.0
 40
2.1110351402711198
 50
259.7807630453049796
 51
269.7744193322657793
  0
ARC
  5
C72D
  8
0
 10
1251.3413242653739417
 20
194.9446999297433081
 30
0.0
 40
2.3441655652028639
 50
236.8357038654754945
 51
259.7807630453049796
  0
ARC
  5
C72E
  8
0
 10
1252.504248827282936
 20
196.7242542344069136
 30
0.0
 40
4.4700082357541637
 50
223.8586099290778009
 51
236.8357038654754945
  0
ARC
  5
C72F
  8
0
 10
1260.6661105794300965
 20
204.5672409803293874
 30
0.0
 40
15.7893910969301103
 50
212.3167679141502902
 51
223.8586099290778009
  0
ARC
  5
C730
  8
0
 10
1222.7162635660649812
 20
180.5607959546105121
 30
0.0
 40
29.1160683830786304
 50
32.3167679141503186
 51
36.1605886530922191
  0
ARC
  5
C731
  8
0
 10
1242.7682739460169614
 20
195.2106771414703985
 30
0.0
 40
4.2825821818367382
 50
36.2124499029543614
 51
56.3129893391663288
  0
ARC
  5
C732
  8
0
 10
1244.4433385322809045
 20
197.2663006733419877
 30
0.0
 40
10.7088440375540301
 50
352.155288536842022
 51
1.4208286341482479
  0
ARC
  5
C733
  8
0
 10
1247.396530986595053
 20
197.339549362011013
 30
0.0
 40
7.7547433211580916
 50
1.4208286341482479
 51
17.6955876157189707
  0
ARC
  5
C734
  8
0
 10
1250.5741477103529178
 20
198.3533865897798023
 30
0.0
 40
4.4193102207174118
 50
17.6955876157189707
 51
39.6390483681048806
  0
ARC
  5
C735
  8
0
 10
1241.9171924800889428
 20
204.5672337427477885
 30
0.0
 40
15.7893910969301103
 50
316.1414343063152046
 51
327.6832763212491955
  0
ARC
  5
C736
  8
0
 10
1279.8670580276971123
 20
180.5608180163389136
 30
0.0
 40
29.1160683830786304
 50
143.8394555823032022
 51
147.6832763212491955
  0
ARC
  5
C737
  8
0
 10
1259.8150363372619722
 20
195.2106837219745898
 30
0.0
 40
4.2825821818367382
 50
123.6871289892818027
 51
143.7875943324364982
  0
ARC
  5
C739
  8
0
 10
1251.2833406137660859
 20
194.7152678633487142
 30
0.0
 40
2.1110351402711198
 50
270.2255806677342207
 51
280.2192369546950204
  0
ARC
  5
C73A
  8
0
 10
1251.2419797392740293
 20
194.9446999297433081
 30
0.0
 40
2.3441655652028639
 50
280.2192369546950204
 51
303.1642961345244771
  0
ARC
  5
C73B
  8
0
 10
1250.0885970208969411
 20
196.7127717241502864
 30
0.0
 40
4.4551767053070703
 50
303.1423546290013746
 51
316.1629241798534053
  0
CIRCLE
  5
C73C
  8
0
 10
1251.2916520023240992
 20
199.8373694803088938
 30
0.0
 40
1.0843826379852901
  0
ENDSEC
  0
EOF
