  0
SECTION
  2
HEADER
  9
$ACADVER
  1
AC1009
  9
$INSBASE
 10
404.0618442895398061
 20
122.574658514803204
 30
0.0
  9
$EXTMIN
 10
402.0950497675636939
 20
115.5014472388704974
 30
-0.0000000349181948
  9
$EXTMAX
 10
410.0023957302391864
 20
122.5883731826153991
 30
0.0000000814935746
  9
$LIMMIN
 10
0.0
 20
0.0
  9
$LIMMAX
 10
11.6929133858000007
 20
8.2677165353999982
  9
$ORTHOMODE
 70
     0
  9
$REGENMODE
 70
     1
  9
$FILLMODE
 70
     1
  9
$QTEXTMODE
 70
     0
  9
$MIRRTEXT
 70
     0
  9
$DRAGMODE
 70
     2
  9
$LTSCALE
 40
0.6431102362
  9
$OSMODE
 70
  4095
  9
$ATTMODE
 70
     1
  9
$TEXTSIZE
 40
0.2
  9
$TRACEWID
 40
0.05
  9
$TEXTSTYLE
  7
STANDARD
  9
$CLAYER
  8
0
  9
$CELTYPE
  6
BYLAYER
  9
$CECOLOR
 62
   256
  9
$DIMSCALE
 40
1.0
  9
$DIMASZ
 40
0.1875
  9
$DIMEXO
 40
0.0625
  9
$DIMDLI
 40
0.4443307087
  9
$DIMRND
 40
0.0
  9
$DIMDLE
 40
0.0
  9
$DIMEXE
 40
0.125
  9
$DIMTP
 40
0.01
  9
$DIMTM
 40
0.01
  9
$DIMTXT
 40
1.0
  9
$DIMCEN
 40
0.1052362205
  9
$DIMTSZ
 40
0.0
  9
$DIMTOL
 70
     1
  9
$DIMLIM
 70
     0
  9
$DIMTIH
 70
     1
  9
$DIMTOH
 70
     1
  9
$DIMSE1
 70
     0
  9
$DIMSE2
 70
     0
  9
$DIMTAD
 70
     0
  9
$DIMZIN
 70
     0
  9
$DIMBLK
  1

  9
$DIMASO
 70
     1
  9
$DIMSHO
 70
     1
  9
$DIMPOST
  1
\X
  9
$DIMAPOST
  1

  9
$DIMALT
 70
     1
  9
$DIMALTD
 70
     2
  9
$DIMALTF
 40
25.3999999999999986
  9
$DIMLFAC
 40
1.0
  9
$DIMTOFL
 70
     0
  9
$DIMTVP
 40
0.0
  9
$DIMTIX
 70
     0
  9
$DIMSOXD
 70
     0
  9
$DIMSAH
 70
     0
  9
$DIMBLK1
  1

  9
$DIMBLK2
  1

  9
$DIMSTYLE
  2
STANDARD
  9
$DIMCLRD
 70
     0
  9
$DIMCLRE
 70
     0
  9
$DIMCLRT
 70
     0
  9
$DIMTFAC
 40
1.0
  9
$DIMGAP
 40
0.09
  9
$LUNITS
 70
     2
  9
$LUPREC
 70
     4
  9
$SKETCHINC
 40
0.1
  9
$FILLETRAD
 40
0.0
  9
$AUNITS
 70
     0
  9
$AUPREC
 70
     0
  9
$MENU
  1
.
  9
$ELEVATION
 40
0.0
  9
$PELEVATION
 40
0.0
  9
$THICKNESS
 40
0.0
  9
$LIMCHECK
 70
     0
  9
$BLIPMODE
 70
     0
  9
$CHAMFERA
 40
0.0
  9
$CHAMFERB
 40
0.0
  9
$SKPOLY
 70
     0
  9
$TDCREATE
 40
2458172.4620254631154239
  9
$TDUPDATE
 40
2460010.6318981479853392
  9
$TDINDWG
 40
0.106174919
  9
$TDUSRTIMER
 40
0.106174919
  9
$USRTIMER
 70
     1
  9
$ANGBASE
 50
0.0
  9
$ANGDIR
 70
     0
  9
$PDMODE
 70
     0
  9
$PDSIZE
 40
0.3125
  9
$PLINEWID
 40
0.0
  9
$COORDS
 70
     1
  9
$SPLFRAME
 70
     0
  9
$SPLINETYPE
 70
     6
  9
$SPLINESEGS
 70
     8
  9
$ATTDIA
 70
     1
  9
$ATTREQ
 70
     1
  9
$HANDLING
 70
     1
  9
$HANDSEED
  5
B63E
  9
$SURFTAB1
 70
     6
  9
$SURFTAB2
 70
     6
  9
$SURFTYPE
 70
     6
  9
$SURFU
 70
     6
  9
$SURFV
 70
     6
  9
$UCSNAME
  2

  9
$UCSORG
 10
0.0
 20
0.0
 30
0.0
  9
$UCSXDIR
 10
1.0
 20
0.0
 30
0.0
  9
$UCSYDIR
 10
0.0
 20
1.0
 30
0.0
  9
$PUCSNAME
  2

  9
$PUCSORG
 10
0.0
 20
0.0
 30
0.0
  9
$PUCSXDIR
 10
1.0
 20
0.0
 30
0.0
  9
$PUCSYDIR
 10
0.0
 20
1.0
 30
0.0
  9
$USERI1
 70
     0
  9
$USERI2
 70
     0
  9
$USERI3
 70
     0
  9
$USERI4
 70
     0
  9
$USERI5
 70
     0
  9
$USERR1
 40
0.0
  9
$USERR2
 40
0.0
  9
$USERR3
 40
0.0
  9
$USERR4
 40
0.0
  9
$USERR5
 40
0.0
  9
$WORLDVIEW
 70
     1
  9
$SHADEDGE
 70
     3
  9
$SHADEDIF
 70
    70
  9
$TILEMODE
 70
     1
  9
$MAXACTVP
 70
    64
  9
$PLIMCHECK
 70
     0
  9
$PEXTMIN
 10
1.0000000000000000E+20
 20
1.0000000000000000E+20
 30
1.0000000000000000E+20
  9
$PEXTMAX
 10
-1.0000000000000000E+20
 20
-1.0000000000000000E+20
 30
-1.0000000000000000E+20
  9
$PLIMMIN
 10
0.0
 20
0.0
  9
$PLIMMAX
 10
12.0
 20
9.0
  9
$UNITMODE
 70
     0
  9
$VISRETAIN
 70
     1
  9
$PLINEGEN
 70
     0
  9
$PSLTSCALE
 70
     1
  0
ENDSEC
  0
SECTION
  2
TABLES
  0
TABLE
  2
VPORT
 70
     1
  0
VPORT
  2
*ACTIVE
 70
     0
 10
0.0
 20
0.0
 11
1.0
 21
1.0
 12
302.9528670360107867
 22
123.6046637953179044
 13
0.0
 23
0.0
 14
1.0
 24
1.0
 15
0.0
 25
0.0
 16
0.0
 26
0.0
 36
24.7332413121020203
 17
103.0958557128905966
 27
-4.5597535845750086
 37
0.0
 40
7.1430970872884814
 41
2.5251322751322749
 42
50.0
 43
0.0
 44
0.0
 50
0.0
 51
0.0
 71
     0
 72
   100
 73
     1
 74
     1
 75
     0
 76
     0
 77
     0
 78
     0
  0
ENDTAB
  0
TABLE
  2
LTYPE
 70
     2
  0
LTYPE
  2
CONTINUOUS
 70
     0
  3
Solid line
 72
    65
 73
     0
 40
0.0
  0
LTYPE
  2
PHANTOM2
 70
     0
  3
___ _ _ ___ _ _ ___ _ _ ___ _ _
 72
    65
 73
     6
 40
1.25
 49
0.625
 49
-0.125
 49
0.125
 49
-0.125
 49
0.125
 49
-0.125
  0
ENDTAB
  0
TABLE
  2
LAYER
 70
     2
  0
LAYER
  2
0
 70
     0
 62
   255
  6
CONTINUOUS
  0
LAYER
  2
DEFPOINTS
 70
     0
 62
     7
  6
CONTINUOUS
  0
ENDTAB
  0
TABLE
  2
STYLE
 70
     1
  0
STYLE
  2
STANDARD
 70
     0
 40
0.0
 41
0.8
 50
0.0
 71
     0
 42
0.2
  3
txt
  4

  0
ENDTAB
  0
TABLE
  2
VIEW
 70
     0
  0
ENDTAB
  0
TABLE
  2
UCS
 70
     0
  0
ENDTAB
  0
TABLE
  2
APPID
 70
     9
  0
APPID
  2
ACAD
 70
     0
  0
APPID
  2
ACAD_MLEADERVER
 70
     0
  0
APPID
  2
ACAD_EXEMPT_FROM_CAD_STANDARDS
 70
     0
  0
APPID
  2
ACAD_DSTYLE_DIMJAG
 70
     0
  0
APPID
  2
ACAD_DSTYLE_DIMTALN
 70
     0
  0
APPID
  2
ACAD_NAV_VCDISPLAY
 70
     0
  0
APPID
  2
ACAECLAYERSTANDARD
 70
     0
  0
APPID
  2
ACCMTRANSPARENCY
 70
     0
  0
APPID
  2
ACDBATTR
 70
     0
  0
ENDTAB
  0
TABLE
  2
DIMSTYLE
 70
     1
  0
DIMSTYLE
  2
STANDARD
 70
     0
  3

  4

  5

  6

  7

 40
1.0
 41
0.1875
 42
0.0625
 43
0.38
 44
0.125
 45
0.0
 46
0.0
 47
0.01
 48
0.01
140
0.15625
141
0.09
142
0.0
143
25.3999999999999986
144
1.0
145
0.0
146
1.0
147
0.09
 71
     1
 72
     0
 73
     1
 74
     1
 75
     0
 76
     0
 77
     0
 78
     4
170
     0
171
     2
172
     0
173
     0
174
     0
175
     0
176
     0
177
     0
178
     0
  0
ENDTAB
  0
ENDSEC
  0
SECTION
  2
BLOCKS
  0
BLOCK
  8
0
  2
$MODEL_SPACE
 70
     0
 10
0.0
 20
0.0
 30
0.0
  3
$MODEL_SPACE
  1

  0
ENDBLK
  5
21
  8
0
  0
BLOCK
 67
     1
  8
0
  2
$PAPER_SPACE
 70
     0
 10
0.0
 20
0.0
 30
0.0
  3
$PAPER_SPACE
  1

  0
ENDBLK
  5
1D
 67
     1
  8
0
  0
BLOCK
  8
0
  2
_FILLED
 70
     0
 10
0.0
 20
0.0
 30
0.0
  3
_FILLED
  1

  0
SOLID
  5
87CF
  8
0
  6
BYBLOCK
 62
     0
 10
0.0
 20
0.0
 30
0.0
 11
-1.0
 21
0.1666666667
 31
0.0
 12
-1.0
 22
-0.1666666667
 32
0.0
 13
-1.0
 23
-0.1666666667
 33
0.0
  0
ENDBLK
  5
87D0
  8
0
  6
BYBLOCK
 62
     0
  0
ENDSEC
  0
SECTION
  2
ENTITIES
  0
ARC
  5
B229
  8
0
 10
404.0640028650760769
 20
118.2534416717306982
 30
0.0
 40
2.7426840633428058
 50
265.9231176023311036
 51
269.9534185095635053
  0
ARC
  5
B22A
  8
0
 10
403.9319285312112129
 20
116.3931968281257952
 30
0.0
 40
0.8777568040621739
 50
244.3617444041643978
 51
265.889568249595186
  0
ARC
  5
B22B
  8
0
 10
403.7746087911685891
 20
115.9981469902074025
 30
0.0
 40
0.4544645106257877
 50
191.3612025667742955
 51
240.6901749450479997
  0
ARC
  5
B22C
  8
0
 10
405.4316613475807003
 20
116.3597416667743971
 30
0.0
 40
2.1504619273798311
 50
182.9546738352572106
 51
192.10938732861689
  0
LINE
  5
B22D
  8
0
 10
403.2840581910398896
 20
116.2488940997031932
 30
0.0
 11
403.076602875739809
 21
122.2447737613031933
 31
0.0
  0
LINE
  5
B22E
  8
0
 10
409.934054531549009
 20
122.244844485856504
 30
0.0
 11
402.1896285510306939
 21
122.2447646166032058
 31
0.0
  0
ARC
  5
B22F
  8
0
 10
402.1897753082942017
 20
122.284135029132301
 30
0.0
 40
0.0393706860544898
 50
185.0009845470079028
 51
269.7864250760335949
  0
ARC
  5
B254
  8
0
 10
404.0596881341651283
 20
118.2534187071212983
 30
0.0
 40
2.7426609847830341
 50
270.043555359452796
 51
274.0768660744253111
  0
ARC
  5
B255
  8
0
 10
404.1917600478686268
 20
116.3931968281257952
 30
0.0
 40
0.8777568040621739
 50
274.1104317504047003
 51
295.6382555958355738
  0
ARC
  5
B256
  8
0
 10
404.3490797879111938
 20
115.9981469902074025
 30
0.0
 40
0.4544645106257877
 50
299.3098250549520003
 51
348.6387974332255908
  0
ARC
  5
B257
  8
0
 10
402.692027231498912
 20
116.3597416667743971
 30
0.0
 40
2.1504619273798311
 50
347.89061267138311
 51
357.0453261647418799
  0
LINE
  5
B258
  8
0
 10
404.8396303880398932
 20
116.2488940997031932
 30
0.0
 11
405.047085703339917
 21
122.2447940859234023
 31
0.0
  0
LINE
  5
B26D
  8
0
 10
408.4191720971899144
 20
120.0813041252032036
 30
0.0
 11
407.7045096504899107
 21
120.0813041252032036
 31
0.0
  0
LINE
  5
B26E
  8
0
 10
407.7045096504899107
 20
120.0813041252032036
 30
0.0
 11
407.5602453872360229
 21
120.1120056651511021
 31
0.0
  0
ARC
  5
B26F
  8
0
 10
407.5652537490769873
 20
120.1355395866527971
 30
0.0
 40
0.0240609465644875
 50
181.0173466890109069
 51
257.9858559108383247
  0
LINE
  5
B270
  8
0
 10
407.5411965953477988
 20
120.1351123817467936
 30
0.0
 11
407.5254200286357786
 21
121.0235368483534018
 31
0.0
  0
ARC
  5
B271
  8
0
 10
406.7638446770628775
 20
120.9429760682460966
 30
0.0
 40
0.8553326963991679
 50
5.4044988854310132
 51
15.7612407692621606
  0
ARC
  5
B272
  8
0
 10
407.230364532461806
 20
121.0398090728900939
 30
0.0
 40
0.3815264598744105
 50
20.8028413024848007
 51
68.5044263015062427
  0
ARC
  5
B273
  8
0
 10
406.9634898799017151
 20
120.4089631496442934
 30
0.0
 40
1.0664230959541581
 50
67.5828621241767564
 51
80.1143143521298953
  0
ARC
  5
B274
  8
0
 10
407.157979931044224
 20
121.5189592517915003
 30
0.0
 40
0.0604915451551342
 50
186.8436594654864962
 51
259.1340687891805032
  0
LINE
  5
B275
  8
0
 10
407.0979193883998164
 20
121.5117510444889035
 30
0.0
 11
407.0979193883998164
 21
121.5550247587031976
 31
0.0
  0
ARC
  5
B276
  8
0
 10
407.1077725263874072
 20
121.5639314851064938
 30
0.0
 40
0.0099071097676824
 50
185.9833564024864927
 51
244.030031229303205
  0
LINE
  5
B277
  8
0
 10
407.0979193883998164
 20
121.5628987722978991
 30
0.0
 11
407.0979193883998164
 21
121.8581744441031987
 31
0.0
  0
ARC
  5
B278
  8
0
 10
407.1056381622535127
 20
121.8583505707666035
 30
0.0
 40
0.0077207830177223
 50
93.328893683384905
 51
181.3071459054974071
  0
LINE
  5
B279
  8
0
 10
407.0874314227672812
 20
121.866058326203202
 30
0.0
 11
407.0874314227672812
 21
122.2448151282691953
 31
0.0
  0
LINE
  5
B27A
  8
0
 10
408.4191720971899144
 20
120.0813041252032036
 30
0.0
 11
408.5634363604438022
 21
120.1120056651511021
 31
0.0
  0
ARC
  5
B27B
  8
0
 10
408.5584279986027809
 20
120.1355395866527971
 30
0.0
 40
0.0240609465644875
 50
282.0141440891616753
 51
358.9826533109891216
  0
LINE
  5
B27C
  8
0
 10
408.5824851523319126
 20
120.1351123817467936
 30
0.0
 11
408.5982617190438759
 21
121.0235368483534018
 31
0.0
  0
ARC
  5
B27D
  8
0
 10
409.3598370706167771
 20
120.9429760682460966
 30
0.0
 40
0.8553326963991679
 50
164.2387592307377986
 51
174.5955011145690037
  0
ARC
  5
B27E
  8
0
 10
408.8933172152179054
 20
121.0398090728900939
 30
0.0
 40
0.3815264598744105
 50
111.4955736984937005
 51
159.1971586975151922
  0
ARC
  5
B27F
  8
0
 10
409.1601918677779963
 20
120.4089631496442934
 30
0.0
 40
1.0664230959541581
 50
99.8856856478701189
 51
112.4171378758232009
  0
ARC
  5
B280
  8
0
 10
408.9653766705466182
 20
121.5189592517915003
 30
0.0
 40
0.0604915451551332
 50
280.8659312108196104
 51
353.1563405345150954
  0
LINE
  5
B281
  8
0
 10
409.0254372131910259
 20
121.5117510444889035
 30
0.0
 11
409.0254372131910259
 21
121.5550247587031976
 31
0.0
  0
ARC
  5
B282
  8
0
 10
409.018659142467925
 20
121.5616859079856056
 30
0.0
 40
0.0067799190417098
 50
280.7402490836626043
 51
1.337900049274761
  0
LINE
  5
B283
  8
0
 10
409.0254372131910259
 20
121.5618442098674024
 30
0.0
 11
409.0254372131910259
 21
121.8595813976049982
 31
0.0
  0
ARC
  5
B284
  8
0
 10
409.0191671949360739
 20
121.8598202054319017
 30
0.0
 40
0.0062745643748302
 50
357.8188149416287729
 51
96.1782705393735853
  0
LINE
  5
B285
  8
0
 10
409.0362503253239765
 20
121.866058326203202
 30
0.0
 11
409.0362503253239765
 21
122.2448352266468987
 31
0.0
  0
LINE
  5
B286
  8
0
 10
407.5254200286357786
 20
121.0235368483534018
 30
0.0
 11
408.5982617190438759
 21
121.0235368483534018
 31
0.0
  0
LINE
  5
B287
  8
0
 10
407.0975942423107767
 20
121.5550247587031976
 30
0.0
 11
409.0254372131910259
 21
121.5550247587031976
 31
0.0
  0
LINE
  5
B288
  8
0
 10
407.0874314227672812
 20
121.866058326203202
 30
0.0
 11
409.0362503253239765
 21
121.866058326203202
 31
0.0
  0
LINE
  5
B289
  8
0
 10
407.1465765776399053
 20
121.4595522609031946
 30
0.0
 11
408.9771051700398061
 21
121.4595522609031946
 31
0.0
  0
LINE
  5
B28A
  8
0
 10
402.1505544985557208
 20
122.2807029737920033
 30
0.0
 11
402.1248336680479838
 21
122.574658514803204
 31
0.0
  0
ARC
  5
B28E
  8
0
 10
409.934054629531488
 20
122.2840626074034986
 30
0.0
 40
0.0392181215471171
 50
269.9998568522166806
 51
355.0857145542831859
  0
LINE
  5
B28F
  8
0
 10
409.9731285840239821
 20
122.2807029737920033
 30
0.0
 11
409.998849414531719
 21
122.574658514803204
 31
0.0
  0
LINE
  5
B293
  8
0
 10
402.1248336680479838
 20
122.574658514803204
 30
0.0
 11
409.998849414531719
 21
122.574658514803204
 31
0.0
  0
LINE
  5
B297
  8
0
 10
407.5602453872360229
 20
120.1120056651511021
 30
0.0
 11
408.5634363604438022
 21
120.1120056651511021
 31
0.0
  0
ATTDEF
  5
B573
  8
DEFPOINTS
 10
404.0619569080436122
 20
122.5780865914364028
 30
0.0
 40
0.001
  1
K-5684ME-4ND
  3

  2
MODELNUMBER
 70
     0
1001
ACDBATTR
1070
     0
1070
     1
  0
ATTDEF
  5
B574
  8
DEFPOINTS
 10
404.0619569080436122
 20
122.5764199247696951
 30
0.0
 40
0.001
  1
ALEO
  3

  2
TRADENAME
 70
     0
1001
ACDBATTR
1070
     0
1070
     1
  0
ATTDEF
  5
B575
  8
DEFPOINTS
 10
404.0619569080436122
 20
122.574753258103101
 30
0.0
 40
0.001
  1
BATHROOM SINK FAUCET
  3

  2
PRODUCT
 70
     0
1001
ACDBATTR
1070
     0
1070
     1
  0
ENDSEC
  0
EOF
