  0
SECTION
  2
HEADER
  9
$ACADVER
  1
AC1009
  9
$INSBASE
 10
404.0618442895398061
 20
110.4611674976031992
 30
0.0
  9
$EXTMIN
 10
402.0950497675636939
 20
106.5896859554109994
 30
-0.0000000349181948
  9
$EXTMAX
 10
410.0023957302391864
 20
112.044880959930893
 30
0.0000000814935746
  9
$LIMMIN
 10
0.0
 20
0.0
  9
$LIMMAX
 10
11.6929133858000007
 20
8.2677165353999982
  9
$ORTHOMODE
 70
     0
  9
$REGENMODE
 70
     1
  9
$FILLMODE
 70
     1
  9
$QTEXTMODE
 70
     0
  9
$MIRRTEXT
 70
     0
  9
$DRAGMODE
 70
     2
  9
$LTSCALE
 40
0.6431102362
  9
$OSMODE
 70
  4095
  9
$ATTMODE
 70
     1
  9
$TEXTSIZE
 40
0.2
  9
$TRACEWID
 40
0.05
  9
$TEXTSTYLE
  7
STANDARD
  9
$CLAYER
  8
0
  9
$CELTYPE
  6
BYLAYER
  9
$CECOLOR
 62
   256
  9
$DIMSCALE
 40
1.0
  9
$DIMASZ
 40
0.1875
  9
$DIMEXO
 40
0.0625
  9
$DIMDLI
 40
0.4443307087
  9
$DIMRND
 40
0.0
  9
$DIMDLE
 40
0.0
  9
$DIMEXE
 40
0.125
  9
$DIMTP
 40
0.01
  9
$DIMTM
 40
0.01
  9
$DIMTXT
 40
1.0
  9
$DIMCEN
 40
0.1052362205
  9
$DIMTSZ
 40
0.0
  9
$DIMTOL
 70
     1
  9
$DIMLIM
 70
     0
  9
$DIMTIH
 70
     1
  9
$DIMTOH
 70
     1
  9
$DIMSE1
 70
     0
  9
$DIMSE2
 70
     0
  9
$DIMTAD
 70
     0
  9
$DIMZIN
 70
     0
  9
$DIMBLK
  1

  9
$DIMASO
 70
     1
  9
$DIMSHO
 70
     1
  9
$DIMPOST
  1
\X
  9
$DIMAPOST
  1

  9
$DIMALT
 70
     1
  9
$DIMALTD
 70
     2
  9
$DIMALTF
 40
25.3999999999999986
  9
$DIMLFAC
 40
1.0
  9
$DIMTOFL
 70
     0
  9
$DIMTVP
 40
0.0
  9
$DIMTIX
 70
     0
  9
$DIMSOXD
 70
     0
  9
$DIMSAH
 70
     0
  9
$DIMBLK1
  1

  9
$DIMBLK2
  1

  9
$DIMSTYLE
  2
STANDARD
  9
$DIMCLRD
 70
     0
  9
$DIMCLRE
 70
     0
  9
$DIMCLRT
 70
     0
  9
$DIMTFAC
 40
1.0
  9
$DIMGAP
 40
0.09
  9
$LUNITS
 70
     2
  9
$LUPREC
 70
     4
  9
$SKETCHINC
 40
0.1
  9
$FILLETRAD
 40
0.0
  9
$AUNITS
 70
     0
  9
$AUPREC
 70
     0
  9
$MENU
  1
.
  9
$ELEVATION
 40
0.0
  9
$PELEVATION
 40
0.0
  9
$THICKNESS
 40
0.0
  9
$LIMCHECK
 70
     0
  9
$BLIPMODE
 70
     0
  9
$CHAMFERA
 40
0.0
  9
$CHAMFERB
 40
0.0
  9
$SKPOLY
 70
     0
  9
$TDCREATE
 40
2458172.4620254631154239
  9
$TDUPDATE
 40
2460010.6316319438628852
  9
$TDINDWG
 40
0.1059202894
  9
$TDUSRTIMER
 40
0.1059202894
  9
$USRTIMER
 70
     1
  9
$ANGBASE
 50
0.0
  9
$ANGDIR
 70
     0
  9
$PDMODE
 70
     0
  9
$PDSIZE
 40
0.3125
  9
$PLINEWID
 40
0.0
  9
$COORDS
 70
     1
  9
$SPLFRAME
 70
     0
  9
$SPLINETYPE
 70
     6
  9
$SPLINESEGS
 70
     8
  9
$ATTDIA
 70
     1
  9
$ATTREQ
 70
     1
  9
$HANDLING
 70
     1
  9
$HANDSEED
  5
B63E
  9
$SURFTAB1
 70
     6
  9
$SURFTAB2
 70
     6
  9
$SURFTYPE
 70
     6
  9
$SURFU
 70
     6
  9
$SURFV
 70
     6
  9
$UCSNAME
  2

  9
$UCSORG
 10
0.0
 20
0.0
 30
0.0
  9
$UCSXDIR
 10
1.0
 20
0.0
 30
0.0
  9
$UCSYDIR
 10
0.0
 20
1.0
 30
0.0
  9
$PUCSNAME
  2

  9
$PUCSORG
 10
0.0
 20
0.0
 30
0.0
  9
$PUCSXDIR
 10
1.0
 20
0.0
 30
0.0
  9
$PUCSYDIR
 10
0.0
 20
1.0
 30
0.0
  9
$USERI1
 70
     0
  9
$USERI2
 70
     0
  9
$USERI3
 70
     0
  9
$USERI4
 70
     0
  9
$USERI5
 70
     0
  9
$USERR1
 40
0.0
  9
$USERR2
 40
0.0
  9
$USERR3
 40
0.0
  9
$USERR4
 40
0.0
  9
$USERR5
 40
0.0
  9
$WORLDVIEW
 70
     1
  9
$SHADEDGE
 70
     3
  9
$SHADEDIF
 70
    70
  9
$TILEMODE
 70
     1
  9
$MAXACTVP
 70
    64
  9
$PLIMCHECK
 70
     0
  9
$PEXTMIN
 10
1.0000000000000000E+20
 20
1.0000000000000000E+20
 30
1.0000000000000000E+20
  9
$PEXTMAX
 10
-1.0000000000000000E+20
 20
-1.0000000000000000E+20
 30
-1.0000000000000000E+20
  9
$PLIMMIN
 10
0.0
 20
0.0
  9
$PLIMMAX
 10
12.0
 20
9.0
  9
$UNITMODE
 70
     0
  9
$VISRETAIN
 70
     1
  9
$PLINEGEN
 70
     0
  9
$PSLTSCALE
 70
     1
  0
ENDSEC
  0
SECTION
  2
TABLES
  0
TABLE
  2
VPORT
 70
     1
  0
VPORT
  2
*ACTIVE
 70
     0
 10
0.0
 20
0.0
 11
1.0
 21
1.0
 12
302.9528670360107867
 22
113.8770370422460019
 13
0.0
 23
0.0
 14
1.0
 24
1.0
 15
0.0
 25
0.0
 16
0.0
 26
0.0
 36
24.7332413121020203
 17
103.0958557128905966
 27
-4.5597535845750086
 37
0.0
 40
5.4984330098397427
 41
2.5251322751322749
 42
50.0
 43
0.0
 44
0.0
 50
0.0
 51
0.0
 71
     0
 72
   100
 73
     1
 74
     1
 75
     0
 76
     0
 77
     0
 78
     0
  0
ENDTAB
  0
TABLE
  2
LTYPE
 70
     2
  0
LTYPE
  2
CONTINUOUS
 70
     0
  3
Solid line
 72
    65
 73
     0
 40
0.0
  0
LTYPE
  2
PHANTOM2
 70
     0
  3
___ _ _ ___ _ _ ___ _ _ ___ _ _
 72
    65
 73
     6
 40
1.25
 49
0.625
 49
-0.125
 49
0.125
 49
-0.125
 49
0.125
 49
-0.125
  0
ENDTAB
  0
TABLE
  2
LAYER
 70
     2
  0
LAYER
  2
0
 70
     0
 62
   255
  6
CONTINUOUS
  0
LAYER
  2
DEFPOINTS
 70
     0
 62
     7
  6
CONTINUOUS
  0
ENDTAB
  0
TABLE
  2
STYLE
 70
     1
  0
STYLE
  2
STANDARD
 70
     0
 40
0.0
 41
0.8
 50
0.0
 71
     0
 42
0.2
  3
txt
  4

  0
ENDTAB
  0
TABLE
  2
VIEW
 70
     0
  0
ENDTAB
  0
TABLE
  2
UCS
 70
     0
  0
ENDTAB
  0
TABLE
  2
APPID
 70
     9
  0
APPID
  2
ACAD
 70
     0
  0
APPID
  2
ACAD_MLEADERVER
 70
     0
  0
APPID
  2
ACAD_EXEMPT_FROM_CAD_STANDARDS
 70
     0
  0
APPID
  2
ACAD_DSTYLE_DIMJAG
 70
     0
  0
APPID
  2
ACAD_DSTYLE_DIMTALN
 70
     0
  0
APPID
  2
ACAD_NAV_VCDISPLAY
 70
     0
  0
APPID
  2
ACAECLAYERSTANDARD
 70
     0
  0
APPID
  2
ACCMTRANSPARENCY
 70
     0
  0
APPID
  2
ACDBATTR
 70
     0
  0
ENDTAB
  0
TABLE
  2
DIMSTYLE
 70
     1
  0
DIMSTYLE
  2
STANDARD
 70
     0
  3

  4

  5

  6

  7

 40
1.0
 41
0.1875
 42
0.0625
 43
0.38
 44
0.125
 45
0.0
 46
0.0
 47
0.01
 48
0.01
140
0.15625
141
0.09
142
0.0
143
25.3999999999999986
144
1.0
145
0.0
146
1.0
147
0.09
 71
     1
 72
     0
 73
     1
 74
     1
 75
     0
 76
     0
 77
     0
 78
     4
170
     0
171
     2
172
     0
173
     0
174
     0
175
     0
176
     0
177
     0
178
     0
  0
ENDTAB
  0
ENDSEC
  0
SECTION
  2
BLOCKS
  0
BLOCK
  8
0
  2
$MODEL_SPACE
 70
     0
 10
0.0
 20
0.0
 30
0.0
  3
$MODEL_SPACE
  1

  0
ENDBLK
  5
21
  8
0
  0
BLOCK
 67
     1
  8
0
  2
$PAPER_SPACE
 70
     0
 10
0.0
 20
0.0
 30
0.0
  3
$PAPER_SPACE
  1

  0
ENDBLK
  5
1D
 67
     1
  8
0
  0
BLOCK
  8
0
  2
_FILLED
 70
     0
 10
0.0
 20
0.0
 30
0.0
  3
_FILLED
  1

  0
SOLID
  5
87CF
  8
0
  6
BYBLOCK
 62
     0
 10
0.0
 20
0.0
 30
0.0
 11
-1.0
 21
0.1666666667
 31
0.0
 12
-1.0
 22
-0.1666666667
 32
0.0
 13
-1.0
 23
-0.1666666667
 33
0.0
  0
ENDBLK
  5
87D0
  8
0
  6
BYBLOCK
 62
     0
  0
ENDSEC
  0
SECTION
  2
ENTITIES
  0
ATTDEF
  5
383D
  8
DEFPOINTS
 10
404.0623104786109252
 20
110.4648793705634944
 30
0.0
 40
0.001
  1
K-5684ME-4ND
  3

  2
MODELNUMBER
 70
     0
1001
ACDBATTR
1070
     0
1070
     1
  0
ATTDEF
  5
383E
  8
DEFPOINTS
 10
404.0623104786109252
 20
110.4632127038968008
 30
0.0
 40
0.001
  1
ALEO
  3

  2
TRADENAME
 70
     0
1001
ACDBATTR
1070
     0
1070
     1
  0
ATTDEF
  5
383F
  8
DEFPOINTS
 10
404.0623104786109252
 20
110.461546037230093
 30
0.0
 40
0.001
  1
BATHROOM SINK FAUCET
  3

  2
PRODUCT
 70
     0
1001
ACDBATTR
1070
     0
1070
     1
  0
LINE
  5
B09A
  8
0
 10
404.0537515409399134
 20
110.0660049232031952
 30
0.0
 11
404.0472703694126153
 21
110.0651545399881002
 31
0.0
  0
LINE
  5
B09B
  8
0
 10
404.0472703694126153
 20
110.0651545399881002
 30
0.0
 11
404.0439089592420032
 21
110.0648262663470973
 31
0.0
  0
LINE
  5
B09C
  8
0
 10
404.0439089592420032
 20
110.0648262663470973
 30
0.0
 11
404.0242238013398719
 21
110.0657427858031951
 31
0.0
  0
LINE
  5
B09D
  8
0
 10
404.0242238013398719
 20
110.0657427858031951
 30
0.0
 11
404.0143814598378071
 21
110.0678302777119058
 31
0.0
  0
LINE
  5
B09E
  8
0
 10
404.0143814598378071
 20
110.0678302777119058
 30
0.0
 11
404.0242205236680775
 21
110.0672126592637028
 31
0.0
  0
LINE
  5
B09F
  8
0
 10
404.0242205236680775
 20
110.0672126592637028
 30
0.0
 11
404.0439088399430716
 21
110.066300326651799
 31
0.0
  0
LINE
  5
B0A0
  8
0
 10
404.0439088399430716
 20
110.066300326651799
 30
0.0
 11
404.0537515409399134
 21
110.0660049232031952
 31
0.0
  0
LINE
  5
B0A1
  8
0
 10
404.0259123965740855
 20
110.0650179507617992
 30
0.0
 11
404.0160696965870102
 21
110.0650179380923959
 31
0.0
  0
LINE
  5
B0A2
  8
0
 10
404.0160696965870102
 20
110.0650179380923959
 30
0.0
 11
403.9963846546398258
 21
110.0669893350431039
 31
0.0
  0
LINE
  5
B0A3
  8
0
 10
403.9963846546398258
 20
110.0669893350431039
 30
0.0
 11
403.9865423135860851
 21
110.0687108827242042
 31
0.0
  0
LINE
  5
B0A4
  8
0
 10
403.9865423135860851
 20
110.0687108827242042
 30
0.0
 11
403.9963846523949087
 21
110.068710895558894
 31
0.0
  0
LINE
  5
B0A5
  8
0
 10
403.9963846523949087
 20
110.068710895558894
 30
0.0
 11
404.0160696943398762
 21
110.0667637103032064
 31
0.0
  0
LINE
  5
B0A6
  8
0
 10
404.0160696943398762
 20
110.0667637103032064
 30
0.0
 11
404.0259123965740855
 21
110.0650179507617992
 31
0.0
  0
LINE
  5
B0A7
  8
0
 10
403.9980738371731945
 20
110.0693468992558053
 30
0.0
 11
403.9882311369527201
 21
110.0691070539340046
 31
0.0
  0
LINE
  5
B0A8
  8
0
 10
403.9882311369527201
 20
110.0691070539340046
 30
0.0
 11
403.9685460938803203
 21
110.0718821490705039
 31
0.0
  0
LINE
  5
B0A9
  8
0
 10
403.9685460938803203
 20
110.0718821490705039
 30
0.0
 11
403.9589460647899273
 21
110.0748711173531973
 31
0.0
  0
LINE
  5
B0AA
  8
0
 10
403.9589460647899273
 20
110.0748711173531973
 30
0.0
 11
403.9980738371731945
 21
110.0693468992558053
 31
0.0
  0
LINE
  5
B0AB
  8
0
 10
403.9702346899547933
 20
110.0710177074401059
 30
0.0
 11
403.9603919962435157
 21
110.0721147083670957
 31
0.0
  0
LINE
  5
B0AC
  8
0
 10
403.9603919962435157
 20
110.0721147083670957
 30
0.0
 11
403.9407069435592916
 21
110.0758824865868064
 31
0.0
  0
LINE
  5
B0AD
  8
0
 10
403.9407069435592916
 20
110.0758824865868064
 30
0.0
 11
403.93086460125852
 21
110.0785090475539931
 31
0.0
  0
LINE
  5
B0AE
  8
0
 10
403.93086460125852
 20
110.0785090475539931
 30
0.0
 11
403.9407073033876259
 21
110.0773900684934006
 31
0.0
  0
LINE
  5
B0AF
  8
0
 10
403.9407073033876259
 20
110.0773900684934006
 30
0.0
 11
403.9603919858398058
 21
110.0736662474031959
 31
0.0
  0
LINE
  5
B0B0
  8
0
 10
403.9603919858398058
 20
110.0736662474031959
 30
0.0
 11
403.9702346899547933
 21
110.0710177074401059
 31
0.0
  0
LINE
  5
B0B1
  8
0
 10
403.9423961265399043
 20
110.0779492237032002
 30
0.0
 11
403.932553424939897
 21
110.0787060653031944
 31
0.0
  0
LINE
  5
B0B2
  8
0
 10
403.932553424939897
 20
110.0787060653031944
 30
0.0
 11
403.912868379339784
 21
110.0834202273031934
 31
0.0
  0
LINE
  5
B0B3
  8
0
 10
403.912868379339784
 20
110.0834202273031934
 30
0.0
 11
403.9030260353397921
 21
110.0873360216032069
 31
0.0
  0
LINE
  5
B0B4
  8
0
 10
403.9030260353397921
 20
110.0873360216032069
 30
0.0
 11
403.9423961265399043
 21
110.0779492237032002
 31
0.0
  0
LINE
  5
B0B5
  8
0
 10
403.9145569752261054
 20
110.0824282549840945
 30
0.0
 11
403.9047142721399268
 21
110.0845927311032
 31
0.0
  0
LINE
  5
B0B6
  8
0
 10
403.9047142721399268
 20
110.0845927311032
 30
0.0
 11
403.8850292250731968
 21
110.090386600969893
 31
0.0
  0
LINE
  5
B0B7
  8
0
 10
403.8850292250731968
 20
110.090386600969893
 30
0.0
 11
403.8751868822840834
 21
110.0939448547140955
 31
0.0
  0
LINE
  5
B0B8
  8
0
 10
403.8751868822840834
 20
110.0939448547140955
 30
0.0
 11
403.8850292233399273
 21
110.0917192813031988
 31
0.0
  0
LINE
  5
B0B9
  8
0
 10
403.8850292233399273
 20
110.0917192813031988
 30
0.0
 11
403.9047142702398787
 21
110.0859963869032043
 31
0.0
  0
LINE
  5
B0BA
  8
0
 10
403.9047142702398787
 20
110.0859963869032043
 30
0.0
 11
403.9145569752261054
 21
110.0824282549840945
 31
0.0
  0
LINE
  5
B0BB
  8
0
 10
403.8867184085398776
 20
110.092062253503201
 30
0.0
 11
403.8475906255397945
 21
110.1055447430532013
 31
0.0
  0
LINE
  5
B0BC
  8
0
 10
403.8475906255397945
 20
110.1055447430532013
 30
0.0
 11
403.8571906570695091
 21
110.1007098533297039
 31
0.0
  0
LINE
  5
B0BD
  8
0
 10
403.8571906570695091
 20
110.1007098533297039
 30
0.0
 11
403.8768757054941148
 21
110.0939088160969987
 31
0.0
  0
LINE
  5
B0BE
  8
0
 10
403.8768757054941148
 20
110.0939088160969987
 30
0.0
 11
403.8867184085398776
 21
110.092062253503201
 31
0.0
  0
LINE
  5
B0BF
  8
0
 10
403.8588792534828258
 20
110.0996002524001938
 30
0.0
 11
403.8490365484399263
 21
110.1029612860031932
 31
0.0
  0
LINE
  5
B0C0
  8
0
 10
403.8490365484399263
 20
110.1029612860031932
 30
0.0
 11
403.8291373809399261
 21
110.1110692591531972
 31
0.0
  0
LINE
  5
B0C1
  8
0
 10
403.8291373809399261
 20
110.1110692591531972
 30
0.0
 11
403.8195091538382258
 21
110.1155278420060029
 31
0.0
  0
LINE
  5
B0C2
  8
0
 10
403.8195091538382258
 20
110.1155278420060029
 30
0.0
 11
403.8293514969399212
 21
110.1121327279032016
 31
0.0
  0
LINE
  5
B0C3
  8
0
 10
403.8293514969399212
 20
110.1121327279032016
 30
0.0
 11
403.8490365469398853
 21
110.104134593903197
 31
0.0
  0
LINE
  5
B0C4
  8
0
 10
403.8490365469398853
 20
110.104134593903197
 30
0.0
 11
403.8588792534716845
 21
110.0996002523770017
 31
0.0
  0
LINE
  5
B0C5
  8
0
 10
403.8310406826610119
 20
110.1121327301836033
 30
0.0
 11
403.8211979791356043
 21
110.115211375088407
 31
0.0
  0
LINE
  5
B0C6
  8
0
 10
403.8211979791356043
 20
110.115211375088407
 30
0.0
 11
403.80151292657672
 21
110.1243404638155994
 31
0.0
  0
LINE
  5
B0C7
  8
0
 10
403.80151292657672
 20
110.1243404638155994
 30
0.0
 11
403.7916705799239026
 21
110.1302994854022046
 31
0.0
  0
LINE
  5
B0C8
  8
0
 10
403.7916705799239026
 20
110.1302994854022046
 30
0.0
 11
403.8015132847398831
 21
110.1270671863031936
 31
0.0
  0
LINE
  5
B0C9
  8
0
 10
403.8015132847398831
 20
110.1270671863031936
 30
0.0
 11
403.8132198527399055
 21
110.1215889316031991
 31
0.0
  0
LINE
  5
B0CA
  8
0
 10
403.8132198527399055
 20
110.1215889316031991
 30
0.0
 11
403.818128510633187
 21
110.1177776577861067
 31
0.0
  0
LINE
  5
B0CB
  8
0
 10
403.818128510633187
 20
110.1177776577861067
 30
0.0
 11
403.831040682639923
 21
110.1121327302032
 31
0.0
  0
LINE
  5
B0CC
  8
0
 10
404.071747398039804
 20
110.0634398301032064
 30
0.0
 11
404.0520623586400006
 21
110.0634398038648953
 31
0.0
  0
LINE
  5
B0CD
  8
0
 10
404.0520623586400006
 20
110.0634398038648953
 30
0.0
 11
404.0422200188347119
 21
110.0642561358158957
 31
0.0
  0
LINE
  5
B0CE
  8
0
 10
404.0422200188347119
 20
110.0642561358158957
 30
0.0
 11
404.0520372348343017
 21
110.0649281482129993
 31
0.0
  0
LINE
  5
B0CF
  8
0
 10
404.0520372348343017
 20
110.0649281482129993
 30
0.0
 11
404.0716513442454811
 21
110.0649281482129993
 31
0.0
  0
LINE
  5
B0D0
  8
0
 10
404.0498154473648924
 20
110.0636261645779967
 30
0.0
 11
404.0193588842416261
 21
110.0650179423261932
 31
0.0
  0
LINE
  5
B0D1
  8
0
 10
403.993778831244299
 20
110.0674451259163931
 30
0.0
 11
403.964153083841893
 21
110.0716955226539966
 31
0.0
  0
ARC
  5
B0D2
  8
0
 10
404.0614629963899915
 20
110.6551516228757066
 30
0.0
 40
0.5916033071777747
 50
254.8231022101942074
 51
258.0097898541403083
  0
ARC
  5
B0D3
  8
0
 10
404.0606897563022244
 20
110.6525369505473009
 30
0.0
 40
0.5888757290008724
 50
249.0603210679977053
 51
252.4621610017510136
  0
ARC
  5
B0D4
  8
0
 10
403.9426394061090946
 20
110.4065762499448056
 30
0.0
 40
0.3162898923954586
 50
233.376428078339103
 51
248.1890897135633907
  0
ARC
  5
B0D5
  8
0
 10
404.0618570636714253
 20
110.6731136584837998
 30
0.0
 40
0.6031924506354959
 50
244.8612900348456094
 51
269.9987866164079264
  0
LINE
  5
B0D6
  8
0
 10
403.8056141892880078
 20
110.1270543926240038
 30
0.0
 11
403.8051088388398853
 21
110.1282176478031971
 31
0.0
  0
LINE
  5
B0D7
  8
0
 10
403.8051088388398853
 20
110.1282176478031971
 30
0.0
 11
403.8015135099445274
 21
110.1299258392202063
 31
0.0
  0
LINE
  5
B0D8
  8
0
 10
403.8015135099445274
 20
110.1299258392202063
 30
0.0
 11
403.7916716703409179
 21
110.1376124904437006
 31
0.0
  0
LINE
  5
B0D9
  8
0
 10
403.7916716703409179
 20
110.1376124904437006
 30
0.0
 11
403.8015135016398744
 21
110.1361992671031942
 31
0.0
  0
LINE
  5
B0DA
  8
0
 10
403.8015135016398744
 20
110.1361992671031942
 30
0.0
 11
403.8035316134672144
 21
110.1352402353000031
 31
0.0
  0
LINE
  5
B0DB
  8
0
 10
403.8035316134672144
 20
110.1352402353000031
 30
0.0
 11
403.8035318358399195
 21
110.1403151220032015
 31
0.0
  0
LINE
  5
B0DC
  8
0
 10
403.8035318358399195
 20
110.1403151220032015
 30
0.0
 11
403.8015140857037863
 21
110.1412741537748019
 31
0.0
  0
LINE
  5
B0DD
  8
0
 10
403.8015140857037863
 20
110.1412741537748019
 30
0.0
 11
403.7916717344156154
 21
110.1507048029886988
 31
0.0
  0
LINE
  5
B0DE
  8
0
 10
403.7916717344156154
 20
110.1507048029886988
 30
0.0
 11
403.8015140727399057
 21
110.1510352963032062
 31
0.0
  0
LINE
  5
B0DF
  8
0
 10
403.8015140727399057
 20
110.1510352963032062
 30
0.0
 11
403.8051097634124744
 21
110.1493271049160967
 31
0.0
  0
LINE
  5
B0E0
  8
0
 10
403.8051097634124744
 20
110.1493271049160967
 30
0.0
 11
403.8056152434339197
 21
110.1511240578015958
 31
0.0
  0
LINE
  5
B0E1
  8
0
 10
403.8056141892138839
 20
110.1270543926587067
 30
0.0
 11
403.8221058752399131
 21
110.1369207251763953
 31
0.0
  0
LINE
  5
B0E2
  8
0
 10
403.8221058752399131
 20
110.1369207251763953
 30
0.0
 11
403.8269277112020745
 21
110.141601606057705
 31
0.0
  0
LINE
  5
B0E3
  8
0
 10
403.8051088388398853
 20
110.1282176478031971
 30
0.0
 11
403.8211985387397931
 21
110.1378812198024946
 31
0.0
  0
LINE
  5
B0E4
  8
0
 10
403.8211985387397931
 20
110.1378812198024946
 30
0.0
 11
403.8255963076421722
 21
110.1421660716958968
 31
0.0
  0
ARC
  5
B0E5
  8
0
 10
404.061429188043121
 20
110.6959306395611975
 30
0.0
 40
0.6018762212690315
 50
244.8475960340155098
 51
258.480880206396705
  0
ARC
  5
B0E6
  8
0
 10
404.0620081218713722
 20
110.6987716491322971
 30
0.0
 40
0.6047756177160551
 50
258.4808860979662768
 51
269.9844787041856193
  0
LINE
  5
B0E7
  8
0
 10
403.8562831008267722
 20
110.1300949137282004
 30
0.0
 11
403.8562830950788225
 21
110.1251836639039965
 31
0.0
  0
LINE
  5
B0E8
  8
0
 10
403.8562830950788225
 20
110.1251836639039965
 30
0.0
 11
403.8221058908399073
 21
110.125183703903204
 31
0.0
  0
LINE
  5
B0E9
  8
0
 10
403.8221058908399073
 20
110.125183703903204
 30
0.0
 11
403.8221058752399131
 21
110.1369207251763953
 31
0.0
  0
LINE
  5
B0EA
  8
0
 10
403.8293520704398816
 20
110.1251836954227059
 30
0.0
 11
403.8293528697233228
 21
110.1405968946796037
 31
0.0
  0
LINE
  5
B0EB
  8
0
 10
403.8490371098399123
 20
110.1251836723031943
 30
0.0
 11
403.849037043150588
 21
110.1327747441671931
 31
0.0
  0
LINE
  5
B0EC
  8
0
 10
403.8035316135436119
 20
110.1352402352636943
 30
0.0
 11
403.8194013396170021
 21
110.1448612189658007
 31
0.0
  0
LINE
  5
B0ED
  8
0
 10
403.8035318358399195
 20
110.1403151220032015
 30
0.0
 11
403.8144860364831743
 21
110.1470462568112936
 31
0.0
  0
LINE
  5
B0EE
  8
0
 10
404.0520623586400006
 20
110.0634398038648953
 30
0.0
 11
404.0520372348343017
 21
110.0649281482129993
 31
0.0
  0
LINE
  5
B0EF
  8
0
 10
404.0439089592420032
 20
110.0648262663470973
 30
0.0
 11
404.0439771187884048
 21
110.0662971626932034
 31
0.0
  0
LINE
  5
B0F0
  8
0
 10
404.0242238013398719
 20
110.0657427858031951
 30
0.0
 11
404.0242205236680775
 21
110.0672126592637028
 31
0.0
  0
LINE
  5
B0F1
  8
0
 10
404.0160696965870102
 20
110.0650179380923959
 30
0.0
 11
404.0160696943398762
 21
110.0667637103032064
 31
0.0
  0
LINE
  5
B0F2
  8
0
 10
403.9963846546398258
 20
110.0669893350431039
 30
0.0
 11
403.9963846523949087
 21
110.068710895558894
 31
0.0
  0
LINE
  5
B0F3
  8
0
 10
403.9882311369527201
 20
110.0691070539340046
 30
0.0
 11
403.9884566971770141
 21
110.0707046862080034
 31
0.0
  0
LINE
  5
B0F4
  8
0
 10
403.9685460938803203
 20
110.0718821490705039
 30
0.0
 11
403.9687722243227768
 21
110.0734838201723989
 31
0.0
  0
LINE
  5
B0F5
  8
0
 10
403.9603919962435157
 20
110.0721147083670957
 30
0.0
 11
403.9603919858398058
 21
110.0736662474031959
 31
0.0
  0
LINE
  5
B0F6
  8
0
 10
403.9407069435592916
 20
110.0758824865868064
 30
0.0
 11
403.9407073033876259
 21
110.0773900684934006
 31
0.0
  0
LINE
  5
B0F7
  8
0
 10
403.932553424939897
 20
110.0787060653031944
 30
0.0
 11
403.9329121065978825
 21
110.0802104472808054
 31
0.0
  0
LINE
  5
B0F8
  8
0
 10
403.912868379339784
 20
110.0834202273031934
 30
0.0
 11
403.9132223768523886
 21
110.0849049630462986
 31
0.0
  0
LINE
  5
B0F9
  8
0
 10
403.9047142721399268
 20
110.0845927311032
 30
0.0
 11
403.9047142702398787
 21
110.0859963869032043
 31
0.0
  0
LINE
  5
B0FA
  8
0
 10
403.8850292250731968
 20
110.090386600969893
 30
0.0
 11
403.8850292233399273
 21
110.0917192813031988
 31
0.0
  0
LINE
  5
B0FB
  8
0
 10
403.8768757054941148
 20
110.0939088160969987
 30
0.0
 11
403.877351572667294
 21
110.0952898390468988
 31
0.0
  0
LINE
  5
B0FC
  8
0
 10
403.8571906570695091
 20
110.1007098533297039
 30
0.0
 11
403.8576609663725776
 21
110.1020747466814953
 31
0.0
  0
LINE
  5
B0FD
  8
0
 10
403.8490365484399263
 20
110.1029612860031932
 30
0.0
 11
403.8490365469398853
 21
110.104134593903197
 31
0.0
  0
LINE
  5
B0FE
  8
0
 10
403.8291373809399261
 20
110.1110692591531972
 30
0.0
 11
403.8293514969399212
 21
110.1121327279032016
 31
0.0
  0
LINE
  5
B0FF
  8
0
 10
403.8211979791356043
 20
110.115211375088407
 30
0.0
 11
403.8212202640697228
 21
110.1164260087959974
 31
0.0
  0
LINE
  5
B100
  8
0
 10
403.80151292657672
 20
110.1243404638155994
 30
0.0
 11
403.8015132847398831
 21
110.1270671863031936
 31
0.0
  0
LINE
  5
B101
  8
0
 10
403.8015135099445274
 20
110.1299258392202063
 30
0.0
 11
403.8015135016398744
 21
110.1361992671031942
 31
0.0
  0
LINE
  5
B102
  8
0
 10
403.8015140857037863
 20
110.1412741537748019
 30
0.0
 11
403.8015140727399057
 21
110.1510352963032062
 31
0.0
  0
LINE
  5
B103
  8
0
 10
403.8032021079201854
 20
110.1275803764606991
 30
0.0
 11
403.7933597597545941
 21
110.1348967382071038
 31
0.0
  0
LINE
  5
B104
  8
0
 10
403.7933597597545941
 20
110.1348967382071038
 30
0.0
 11
403.7736747064719793
 21
110.1451544484848029
 31
0.0
  0
LINE
  5
B105
  8
0
 10
403.7736747064719793
 20
110.1451544484848029
 30
0.0
 11
403.7638320019041771
 21
110.1481716440249983
 31
0.0
  0
LINE
  5
B106
  8
0
 10
403.7638320019041771
 20
110.1481716440249983
 30
0.0
 11
403.7736743505399204
 21
110.140740002415896
 31
0.0
  0
LINE
  5
B107
  8
0
 10
403.7736743505399204
 20
110.140740002415896
 30
0.0
 11
403.7933594035966962
 21
110.1304092932658989
 31
0.0
  0
LINE
  5
B108
  8
0
 10
403.7933594035966962
 20
110.1304092932658989
 30
0.0
 11
403.8032021078957996
 21
110.1275803764779937
 31
0.0
  0
LINE
  5
B109
  8
0
 10
403.7736743505399204
 20
110.140740002415896
 30
0.0
 11
403.7736747064719793
 21
110.1451544484848029
 31
0.0
  0
LINE
  5
B10A
  8
0
 10
403.7933594035966962
 20
110.1304092932658989
 30
0.0
 11
403.7933597597545941
 21
110.1348967382071038
 31
0.0
  0
LINE
  5
B10B
  8
0
 10
403.8032026851594196
 20
110.1378268276350951
 30
0.0
 11
403.7933599725398039
 21
110.1468768083032046
 31
0.0
  0
LINE
  5
B10C
  8
0
 10
403.7933599725398039
 20
110.1468768083032046
 30
0.0
 11
403.7736749196398023
 21
110.1571117350031983
 31
0.0
  0
LINE
  5
B10D
  8
0
 10
403.7736749196398023
 20
110.1571117350031983
 30
0.0
 11
403.7638325791434113
 21
110.1584180951993943
 31
0.0
  0
LINE
  5
B10E
  8
0
 10
403.7638325791434113
 20
110.1584180951993943
 30
0.0
 11
403.7736749302399062
 21
110.1490944499327043
 31
0.0
  0
LINE
  5
B10F
  8
0
 10
403.7736749302399062
 20
110.1490944499327043
 30
0.0
 11
403.7935585234382074
 21
110.1387604301741021
 31
0.0
  0
LINE
  5
B110
  8
0
 10
403.7935585234382074
 20
110.1387604301741021
 30
0.0
 11
403.8032026851349201
 21
110.1378268276524039
 31
0.0
  0
LINE
  5
B111
  8
0
 10
403.7736749302399062
 20
110.1490944499327043
 30
0.0
 11
403.7736749196398023
 21
110.1571117350031983
 31
0.0
  0
LINE
  5
B112
  8
0
 10
403.7935585234382074
 20
110.1387604301741021
 30
0.0
 11
403.7933599725398039
 21
110.1468768083032046
 31
0.0
  0
LINE
  5
B113
  8
0
 10
403.8032032548275083
 20
110.1537647201573975
 30
0.0
 11
403.7933605398397958
 21
110.1646109222031953
 31
0.0
  0
LINE
  5
B114
  8
0
 10
403.7933605398397958
 20
110.1646109222031953
 30
0.0
 11
403.781840715697399
 21
110.1703966634752021
 31
0.0
  0
LINE
  5
B115
  8
0
 10
403.7721654504975959
 20
110.1650144596226966
 30
0.0
 11
403.7736755021073805
 21
110.1633215072938015
 31
0.0
  0
LINE
  5
B116
  8
0
 10
403.7736755021073805
 20
110.1633215072938015
 30
0.0
 11
403.7934824162171026
 21
110.1530679524024947
 31
0.0
  0
LINE
  5
B117
  8
0
 10
403.7934824162171026
 20
110.1530679524024947
 30
0.0
 11
403.8032032548030088
 21
110.1537647201747063
 31
0.0
  0
LINE
  5
B118
  8
0
 10
403.7736755021073805
 20
110.1633215072938015
 30
0.0
 11
403.7736755832474955
 21
110.1659030219857982
 31
0.0
  0
LINE
  5
B119
  8
0
 10
403.7934824162171026
 20
110.1530679524024947
 30
0.0
 11
403.7933605398397958
 21
110.1646109222031953
 31
0.0
  0
LINE
  5
B11A
  8
0
 10
404.0717497006328927
 20
110.1094417333428055
 30
0.0
 11
404.0520646564762046
 21
110.1094415220020011
 31
0.0
  0
LINE
  5
B11B
  8
0
 10
404.0520646564762046
 20
110.1094415220020011
 30
0.0
 11
404.0422223125768255
 21
110.1166248232093068
 31
0.0
  0
LINE
  5
B11C
  8
0
 10
404.0422223125768255
 20
110.1166248232093068
 30
0.0
 11
404.0520646417402872
 21
110.1238255485616975
 31
0.0
  0
LINE
  5
B11D
  8
0
 10
404.0520646417402872
 20
110.1238255485616975
 30
0.0
 11
404.0717496811400906
 21
110.1238255747006036
 31
0.0
  0
LINE
  5
B11E
  8
0
 10
404.0520646564762046
 20
110.1094415220020011
 30
0.0
 11
404.0520646417402872
 21
110.1238255485616975
 31
0.0
  0
LINE
  5
B11F
  8
0
 10
404.0717502584398062
 20
110.1339900769894058
 30
0.0
 11
404.0520652191398767
 21
110.1339901000032029
 31
0.0
  0
LINE
  5
B120
  8
0
 10
404.0520652191398767
 20
110.1339901000032029
 30
0.0
 11
404.0422228685338268
 21
110.1428663271730954
 31
0.0
  0
LINE
  5
B121
  8
0
 10
404.0422228685338268
 20
110.1428663271730954
 30
0.0
 11
404.0520651955403082
 21
110.1517856375856041
 31
0.0
  0
LINE
  5
B122
  8
0
 10
404.0520651955403082
 20
110.1517856375856041
 30
0.0
 11
404.0717208530720086
 21
110.1517857572223988
 31
0.0
  0
LINE
  5
B123
  8
0
 10
404.0520652191398767
 20
110.1339901000032029
 30
0.0
 11
404.0520651955403082
 21
110.1517856375856041
 31
0.0
  0
LINE
  5
B124
  8
0
 10
404.0537538180241199
 20
110.1287777855971939
 30
0.0
 11
404.043899944473992
 21
110.121225687411993
 31
0.0
  0
LINE
  5
B125
  8
0
 10
404.043899944473992
 20
110.121225687411993
 30
0.0
 11
404.0242260897397841
 21
110.122148455403206
 31
0.0
  0
LINE
  5
B126
  8
0
 10
404.0242260897397841
 20
110.122148455403206
 30
0.0
 11
404.0143837396955746
 21
110.1306373030865018
 31
0.0
  0
LINE
  5
B127
  8
0
 10
404.0143837396955746
 20
110.1306373030865018
 30
0.0
 11
404.0243696723154017
 21
110.1382151951114992
 31
0.0
  0
LINE
  5
B128
  8
0
 10
404.0243696723154017
 20
110.1382151951114992
 30
0.0
 11
404.0439114708422039
 21
110.1372878569879958
 31
0.0
  0
LINE
  5
B129
  8
0
 10
404.0439114708422039
 20
110.1372878569879958
 30
0.0
 11
404.0537538180241199
 21
110.1287777855971939
 31
0.0
  0
LINE
  5
B12A
  8
0
 10
404.043899944473992
 20
110.121225687411993
 30
0.0
 11
404.0439114708422039
 21
110.1372878569879958
 31
0.0
  0
LINE
  5
B12B
  8
0
 10
404.0242260897397841
 20
110.122148455403206
 30
0.0
 11
404.0243696723154017
 21
110.1382151951114992
 31
0.0
  0
LINE
  5
B12C
  8
0
 10
404.053753258418908
 20
110.1052814367392045
 30
0.0
 11
404.0439051166400191
 21
110.1051094024059012
 31
0.0
  0
LINE
  5
B12D
  8
0
 10
404.0439051166400191
 20
110.1051094024059012
 30
0.0
 11
404.0242257117773761
 21
110.1060941961214041
 31
0.0
  0
LINE
  5
B12E
  8
0
 10
404.0242257117773761
 20
110.1060941961214041
 30
0.0
 11
404.0143831800627936
 21
110.1071067934024938
 31
0.0
  0
LINE
  5
B12F
  8
0
 10
404.0143831800627936
 20
110.1071067934024938
 30
0.0
 11
404.0242258726627256
 21
110.1130365866278993
 31
0.0
  0
LINE
  5
B130
  8
0
 10
404.0242258726627256
 20
110.1130365866278993
 30
0.0
 11
404.0438996626479025
 21
110.112120409731304
 31
0.0
  0
LINE
  5
B131
  8
0
 10
404.0438996626479025
 20
110.112120409731304
 30
0.0
 11
404.053753258418908
 21
110.1052814367392045
 31
0.0
  0
LINE
  5
B132
  8
0
 10
404.0717508093115953
 20
110.1641963417519037
 30
0.0
 11
404.0520657650396856
 21
110.164196084075698
 31
0.0
  0
LINE
  5
B133
  8
0
 10
404.0520657650396856
 20
110.164196084075698
 30
0.0
 11
404.0422234169835178
 21
110.1749140523958062
 31
0.0
  0
LINE
  5
B134
  8
0
 10
404.0422234169835178
 20
110.1749140523958062
 30
0.0
 11
404.0520657414404013
 21
110.1857171202977952
 31
0.0
  0
LINE
  5
B135
  8
0
 10
404.0520657414404013
 20
110.1857171202977952
 30
0.0
 11
404.0717511425618795
 21
110.1857175087120027
 31
0.0
  0
LINE
  5
B136
  8
0
 10
404.0520657650396856
 20
110.164196084075698
 30
0.0
 11
404.0520657414404013
 21
110.1857171202977952
 31
0.0
  0
LINE
  5
B137
  8
0
 10
404.0537543703244978
 20
110.1578507133625067
 30
0.0
 11
404.0439116849399284
 21
110.1485528902464068
 31
0.0
  0
LINE
  5
B138
  8
0
 10
404.0439116849399284
 20
110.1485528902464068
 30
0.0
 11
404.0242266442720052
 21
110.1495000577148033
 31
0.0
  0
LINE
  5
B139
  8
0
 10
404.0242266442720052
 20
110.1495000577148033
 30
0.0
 11
404.0143842919483177
 21
110.1597652706230974
 31
0.0
  0
LINE
  5
B13A
  8
0
 10
404.0143842919483177
 20
110.1597652706230974
 30
0.0
 11
404.0244954134856812
 21
110.169116561616093
 31
0.0
  0
LINE
  5
B13B
  8
0
 10
404.0244954134856812
 20
110.169116561616093
 30
0.0
 11
404.0439116589399191
 21
110.1681666588032016
 31
0.0
  0
LINE
  5
B13C
  8
0
 10
404.0439116589399191
 20
110.1681666588032016
 30
0.0
 11
404.0537543703244978
 21
110.1578507133625067
 31
0.0
  0
LINE
  5
B13D
  8
0
 10
404.0439116849399284
 20
110.1485528902464068
 30
0.0
 11
404.0439116589399191
 21
110.1681666588032016
 31
0.0
  0
LINE
  5
B13E
  8
0
 10
404.0242266442720052
 20
110.1495000577148033
 30
0.0
 11
404.0244954134856812
 21
110.169116561616093
 31
0.0
  0
LINE
  5
B13F
  8
0
 10
404.0717513518399073
 20
110.2006247059031949
 30
0.0
 11
404.0520663124131033
 21
110.2006247289068028
 31
0.0
  0
LINE
  5
B140
  8
0
 10
404.0520663124131033
 20
110.2006247289068028
 30
0.0
 11
404.0439137800553908
 21
110.2111601880395
 31
0.0
  0
LINE
  5
B141
  8
0
 10
404.0520663124131033
 20
110.2006247289068028
 30
0.0
 11
404.0520662983678903
 21
110.2112447205909973
 31
0.0
  0
LINE
  5
B142
  8
0
 10
404.0537549145632283
 20
110.1930143926694967
 30
0.0
 11
404.043912231739796
 21
110.1817897523099958
 31
0.0
  0
LINE
  5
B143
  8
0
 10
404.043912231739796
 20
110.1817897523099958
 30
0.0
 11
404.0242271910399268
 21
110.1827731960031969
 31
0.0
  0
LINE
  5
B144
  8
0
 10
404.0242271910399268
 20
110.1827731960031969
 30
0.0
 11
404.0143848360153811
 21
110.1950105636555008
 31
0.0
  0
LINE
  5
B145
  8
0
 10
404.0143848360153811
 20
110.1950105636555008
 30
0.0
 11
404.0242271598398816
 21
110.2063654380032034
 31
0.0
  0
LINE
  5
B146
  8
0
 10
404.0242271598398816
 20
110.2063654380032034
 30
0.0
 11
404.0439122005399213
 21
110.2053520418031951
 31
0.0
  0
LINE
  5
B147
  8
0
 10
404.0439122005399213
 20
110.2053520418031951
 30
0.0
 11
404.0537549145632283
 21
110.1930143926694967
 31
0.0
  0
LINE
  5
B148
  8
0
 10
404.043912231739796
 20
110.1817897523099958
 30
0.0
 11
404.0439122005399213
 21
110.2053520418031951
 31
0.0
  0
LINE
  5
B149
  8
0
 10
404.0242271910399268
 20
110.1827731960031969
 30
0.0
 11
404.0242271598398816
 21
110.2063654380032034
 31
0.0
  0
LINE
  5
B14A
  8
0
 10
404.023021626452703
 20
110.2107095446076954
 30
0.0
 11
404.0160736500578196
 21
110.2024674014232062
 31
0.0
  0
LINE
  5
B14B
  8
0
 10
404.0160736500578196
 20
110.2024674014232062
 30
0.0
 11
403.9963886080087718
 21
110.2044905726847048
 31
0.0
  0
LINE
  5
B14C
  8
0
 10
403.9963886080087718
 20
110.2044905726847048
 30
0.0
 11
403.9924822929755805
 21
110.2094443552961991
 31
0.0
  0
LINE
  5
B14D
  8
0
 10
404.0160736500578196
 20
110.2024674014232062
 30
0.0
 11
404.0160736394361152
 21
110.2104850349035985
 31
0.0
  0
LINE
  5
B14E
  8
0
 10
403.9963886080087718
 20
110.2044905726847048
 30
0.0
 11
403.9964609197857044
 21
110.2096500395610974
 31
0.0
  0
LINE
  5
B14F
  8
0
 10
404.0259157952838223
 20
110.1757219714914982
 30
0.0
 11
404.0160731076073262
 21
110.165958839385496
 31
0.0
  0
LINE
  5
B150
  8
0
 10
404.0160731076073262
 20
110.165958839385496
 30
0.0
 11
403.9963880656492847
 21
110.1678933326325023
 31
0.0
  0
LINE
  5
B151
  8
0
 10
403.9963880656492847
 20
110.1678933326325023
 30
0.0
 11
403.9865457113634761
 21
110.1796403460176066
 31
0.0
  0
LINE
  5
B152
  8
0
 10
403.9865457113634761
 20
110.1796403460176066
 30
0.0
 11
403.9963880370398215
 21
110.1895103705032
 31
0.0
  0
LINE
  5
B153
  8
0
 10
403.9963880370398215
 20
110.1895103705032
 30
0.0
 11
404.0160730790399271
 21
110.1875255397032021
 31
0.0
  0
LINE
  5
B154
  8
0
 10
404.0160730790399271
 20
110.1875255397032021
 30
0.0
 11
404.0259157952838223
 21
110.1757219714914982
 31
0.0
  0
LINE
  5
B155
  8
0
 10
404.0160731076073262
 20
110.165958839385496
 30
0.0
 11
404.0160730790399271
 21
110.1875255397032021
 31
0.0
  0
LINE
  5
B156
  8
0
 10
403.9963880656492847
 20
110.1678933326325023
 30
0.0
 11
403.9963880370398215
 21
110.1895103705032
 31
0.0
  0
LINE
  5
B157
  8
0
 10
404.0259152469312767
 20
110.1436463733018059
 30
0.0
 11
404.0160725569397755
 21
110.1356980661551006
 31
0.0
  0
LINE
  5
B158
  8
0
 10
404.0160725569397755
 20
110.1356980661551006
 30
0.0
 11
403.9963875109813216
 21
110.1375723358373051
 31
0.0
  0
LINE
  5
B159
  8
0
 10
403.9963875109813216
 20
110.1375723358373051
 30
0.0
 11
403.9865451632579152
 21
110.1474284126546053
 31
0.0
  0
LINE
  5
B15A
  8
0
 10
403.9865451632579152
 20
110.1474284126546053
 30
0.0
 11
403.9963874914403164
 21
110.1554325714826064
 31
0.0
  0
LINE
  5
B15B
  8
0
 10
403.9963874914403164
 20
110.1554325714826064
 30
0.0
 11
404.0160725333398091
 21
110.1535246687031986
 31
0.0
  0
LINE
  5
B15C
  8
0
 10
404.0160725333398091
 20
110.1535246687031986
 30
0.0
 11
404.0259152469312767
 21
110.1436463733018059
 31
0.0
  0
LINE
  5
B15D
  8
0
 10
404.0160725569397755
 20
110.1356980661551006
 30
0.0
 11
404.0160725333398091
 21
110.1535246687031986
 31
0.0
  0
LINE
  5
B15E
  8
0
 10
403.9963875109813216
 20
110.1375723358373051
 30
0.0
 11
403.9963874914403164
 21
110.1554325714826064
 31
0.0
  0
LINE
  5
B15F
  8
0
 10
404.0259146880878234
 20
110.1173866362225056
 30
0.0
 11
404.0160719986399158
 21
110.1111151126032013
 31
0.0
  0
LINE
  5
B160
  8
0
 10
404.0160719986399158
 20
110.1111151126032013
 30
0.0
 11
403.9963869569166945
 21
110.1129511297580024
 31
0.0
  0
LINE
  5
B161
  8
0
 10
403.9963869569166945
 20
110.1129511297580024
 30
0.0
 11
403.9865446072627151
 21
110.121079570247602
 31
0.0
  0
LINE
  5
B162
  8
0
 10
403.9865446072627151
 20
110.121079570247602
 30
0.0
 11
403.9963869377402261
 21
110.1273750639799971
 31
0.0
  0
LINE
  5
B163
  8
0
 10
403.9963869377402261
 20
110.1273750639799971
 30
0.0
 11
404.0160719796397757
 21
110.1255182277031963
 31
0.0
  0
LINE
  5
B164
  8
0
 10
404.0160719796397757
 20
110.1255182277031963
 30
0.0
 11
404.0259146880878234
 21
110.1173866362225056
 31
0.0
  0
LINE
  5
B165
  8
0
 10
404.0160719986399158
 20
110.1111151126032013
 30
0.0
 11
404.0160719796397757
 21
110.1255182277031963
 31
0.0
  0
LINE
  5
B166
  8
0
 10
403.9963869569166945
 20
110.1129511297580024
 30
0.0
 11
403.9963869377402261
 21
110.1273750639799971
 31
0.0
  0
LINE
  5
B167
  8
0
 10
403.9980761171171935
 20
110.1321824807430971
 30
0.0
 11
403.9882334253397858
 21
110.1255371062017048
 31
0.0
  0
LINE
  5
B168
  8
0
 10
403.9882334253397858
 20
110.1255371062017048
 30
0.0
 11
403.9685483822398737
 21
110.1283325374020023
 31
0.0
  0
LINE
  5
B169
  8
0
 10
403.9685483822398737
 20
110.1283325374020023
 30
0.0
 11
403.9587060308907098
 21
110.1378144474713991
 31
0.0
  0
LINE
  5
B16A
  8
0
 10
403.9587060308907098
 20
110.1378144474713991
 30
0.0
 11
403.9685483608402023
 21
110.1444994896091032
 31
0.0
  0
LINE
  5
B16B
  8
0
 10
403.9685483608402023
 20
110.1444994896091032
 30
0.0
 11
403.988233403939887
 21
110.1416628088032041
 31
0.0
  0
LINE
  5
B16C
  8
0
 10
403.988233403939887
 20
110.1416628088032041
 30
0.0
 11
403.9980761171171935
 21
110.1321824807430971
 31
0.0
  0
LINE
  5
B16D
  8
0
 10
403.9882334253397858
 20
110.1255371062017048
 30
0.0
 11
403.988233403939887
 21
110.1416628088032041
 31
0.0
  0
LINE
  5
B16E
  8
0
 10
403.9685483822398737
 20
110.1283325374020023
 30
0.0
 11
403.9685483608402023
 21
110.1444994896091032
 31
0.0
  0
LINE
  5
B16F
  8
0
 10
403.9980766663342138
 20
110.1613564759153974
 30
0.0
 11
403.9882339798710973
 21
110.1529777453669965
 31
0.0
  0
LINE
  5
B170
  8
0
 10
403.9882339798710973
 20
110.1529777453669965
 30
0.0
 11
403.9685489365908211
 21
110.1558474793801992
 31
0.0
  0
LINE
  5
B171
  8
0
 10
403.9685489365908211
 20
110.1558474793801992
 30
0.0
 11
403.9587065828392838
 21
110.1671585126779007
 31
0.0
  0
LINE
  5
B172
  8
0
 10
403.9587065828392838
 20
110.1671585126779007
 30
0.0
 11
403.9685492722425124
 21
110.175621426630002
 31
0.0
  0
LINE
  5
B173
  8
0
 10
403.9685492722425124
 20
110.175621426630002
 30
0.0
 11
403.9882339536399058
 21
110.1726881462031997
 31
0.0
  0
LINE
  5
B174
  8
0
 10
403.9882339536399058
 20
110.1726881462031997
 30
0.0
 11
403.9980766663342138
 21
110.1613564759153974
 31
0.0
  0
LINE
  5
B175
  8
0
 10
403.9882339798710973
 20
110.1529777453669965
 30
0.0
 11
403.9882339536399058
 21
110.1726881462031997
 31
0.0
  0
LINE
  5
B176
  8
0
 10
403.9685489365908211
 20
110.1558474793801992
 30
0.0
 11
403.9685492722425124
 21
110.175621426630002
 31
0.0
  0
LINE
  5
B177
  8
0
 10
403.9980772132745983
 20
110.196670072639094
 30
0.0
 11
403.9882345264326773
 21
110.1863852294699058
 31
0.0
  0
LINE
  5
B178
  8
0
 10
403.9882345264326773
 20
110.1863852294699058
 30
0.0
 11
403.968549478461
 21
110.1894868175451023
 31
0.0
  0
LINE
  5
B179
  8
0
 10
403.968549478461
 20
110.1894868175451023
 30
0.0
 11
403.9587071265174814
 21
110.2027248446377001
 31
0.0
  0
LINE
  5
B17A
  8
0
 10
403.9587071265174814
 20
110.2027248446377001
 30
0.0
 11
403.9634774652244005
 21
110.2076131254215028
 31
0.0
  0
LINE
  5
B17B
  8
0
 10
403.9887960401915166
 20
110.2092428482818036
 30
0.0
 11
403.9980772132745983
 21
110.196670072639094
 31
0.0
  0
LINE
  5
B17C
  8
0
 10
403.9882345264326773
 20
110.1863852294699058
 30
0.0
 11
403.9880643751611728
 21
110.2092016004589965
 31
0.0
  0
LINE
  5
B17D
  8
0
 10
403.968549478461
 20
110.1894868175451023
 30
0.0
 11
403.9685267381623817
 21
110.2079557890605059
 31
0.0
  0
LINE
  5
B17E
  8
0
 10
403.9702380874866776
 20
110.1820896574341049
 30
0.0
 11
403.9603953986273268
 21
110.173235241066493
 31
0.0
  0
LINE
  5
B17F
  8
0
 10
403.9603953986273268
 20
110.173235241066493
 30
0.0
 11
403.9407103500951166
 21
110.1771649513565023
 31
0.0
  0
LINE
  5
B180
  8
0
 10
403.9407103500951166
 20
110.1771649513565023
 30
0.0
 11
403.9308679982128183
 21
110.1900527749904057
 31
0.0
  0
LINE
  5
B181
  8
0
 10
403.9308679982128183
 20
110.1900527749904057
 30
0.0
 11
403.9407103251402873
 21
110.1990282603221942
 31
0.0
  0
LINE
  5
B182
  8
0
 10
403.9407103251402873
 20
110.1990282603221942
 30
0.0
 11
403.9603953698397731
 21
110.1949932702031987
 31
0.0
  0
LINE
  5
B183
  8
0
 10
403.9603953698397731
 20
110.1949932702031987
 30
0.0
 11
403.9702380874866776
 21
110.1820896574341049
 31
0.0
  0
LINE
  5
B184
  8
0
 10
403.9603953986273268
 20
110.173235241066493
 30
0.0
 11
403.9603953698397731
 21
110.1949932702031987
 31
0.0
  0
LINE
  5
B185
  8
0
 10
403.9407103500951166
 20
110.1771649513565023
 30
0.0
 11
403.9407103251402873
 21
110.1990282603221942
 31
0.0
  0
LINE
  5
B186
  8
0
 10
403.9704486525964739
 20
110.1499455885650036
 30
0.0
 11
403.9603948488556853
 21
110.1426084777408931
 31
0.0
  0
LINE
  5
B187
  8
0
 10
403.9603948488556853
 20
110.1426084777408931
 30
0.0
 11
403.9407098002748739
 21
110.1465494426335994
 31
0.0
  0
LINE
  5
B188
  8
0
 10
403.9407098002748739
 20
110.1465494426335994
 30
0.0
 11
403.9308674505784893
 21
110.1574690271564947
 31
0.0
  0
LINE
  5
B189
  8
0
 10
403.9308674505784893
 20
110.1574690271564947
 30
0.0
 11
403.9407097800403221
 21
110.1645756190877989
 31
0.0
  0
LINE
  5
B18A
  8
0
 10
403.9407097800403221
 20
110.1645756190877989
 30
0.0
 11
403.9603948245398897
 21
110.1607012307031965
 31
0.0
  0
LINE
  5
B18B
  8
0
 10
403.9603948245398897
 20
110.1607012307031965
 30
0.0
 11
403.9704486525964739
 21
110.1499455885650036
 31
0.0
  0
LINE
  5
B18C
  8
0
 10
403.9603948488556853
 20
110.1426084777408931
 30
0.0
 11
403.9603948245398897
 21
110.1607012307031965
 31
0.0
  0
LINE
  5
B18D
  8
0
 10
403.9407098002748739
 20
110.1465494426335994
 30
0.0
 11
403.9407097800403221
 21
110.1645756190877989
 31
0.0
  0
LINE
  5
B18E
  8
0
 10
403.9975909306398876
 20
110.1084327606240976
 30
0.0
 11
403.9882235396407282
 21
110.1094432971525947
 31
0.0
  0
LINE
  5
B18F
  8
0
 10
403.9882235396407282
 20
110.1094432971525947
 30
0.0
 11
403.9677418336465848
 21
110.1123309215729051
 31
0.0
  0
LINE
  5
B190
  8
0
 10
403.9677418336465848
 20
110.1123309215729051
 30
0.0
 11
403.9591900814057226
 21
110.1137505428312977
 31
0.0
  0
LINE
  5
B191
  8
0
 10
403.9591900814057226
 20
110.1137505428312977
 30
0.0
 11
403.9685384872955183
 21
110.1192468573392063
 31
0.0
  0
LINE
  5
B192
  8
0
 10
403.9685384872955183
 20
110.1192468573392063
 30
0.0
 11
403.9882235303950893
 21
110.116410176533293
 31
0.0
  0
LINE
  5
B193
  8
0
 10
403.9882235303950893
 20
110.116410176533293
 30
0.0
 11
403.9975909306398876
 21
110.1084327606240976
 31
0.0
  0
LINE
  5
B194
  8
0
 10
403.9701276925894149
 20
110.1234257039408959
 30
0.0
 11
403.9603942902518838
 21
110.1180176496149983
 31
0.0
  0
LINE
  5
B195
  8
0
 10
403.9603942902518838
 20
110.1180176496149983
 30
0.0
 11
403.940709245884193
 21
110.121741470799293
 31
0.0
  0
LINE
  5
B196
  8
0
 10
403.940709245884193
 20
110.121741470799293
 30
0.0
 11
403.9308668950096717
 21
110.1308777349624961
 31
0.0
  0
LINE
  5
B197
  8
0
 10
403.9308668950096717
 20
110.1308777349624961
 30
0.0
 11
403.9407095885727017
 21
110.1362684591937011
 31
0.0
  0
LINE
  5
B198
  8
0
 10
403.9407095885727017
 20
110.1362684591937011
 30
0.0
 11
403.9603942710398883
 21
110.1325006823032027
 31
0.0
  0
LINE
  5
B199
  8
0
 10
403.9603942710398883
 20
110.1325006823032027
 30
0.0
 11
403.9701276925894149
 21
110.1234257039408959
 31
0.0
  0
LINE
  5
B19A
  8
0
 10
403.9603942902518838
 20
110.1180176496149983
 30
0.0
 11
403.9603942710398883
 21
110.1325006823032027
 31
0.0
  0
LINE
  5
B19B
  8
0
 10
403.940709245884193
 20
110.121741470799293
 30
0.0
 11
403.9407095885727017
 21
110.1362684591937011
 31
0.0
  0
LINE
  5
B19C
  8
0
 10
403.9423984061966735
 20
110.1409498099292961
 30
0.0
 11
403.9325557131239748
 21
110.1352073405720944
 31
0.0
  0
LINE
  5
B19D
  8
0
 10
403.9325557131239748
 20
110.1352073405720944
 30
0.0
 11
403.9128707081882226
 21
110.1399573649427026
 31
0.0
  0
LINE
  5
B19E
  8
0
 10
403.9128707081882226
 20
110.1399573649427026
 30
0.0
 11
403.9030283148110243
 21
110.1505227609485047
 31
0.0
  0
LINE
  5
B19F
  8
0
 10
403.9030283148110243
 20
110.1505227609485047
 30
0.0
 11
403.9128710077357027
 21
110.1563019237407985
 31
0.0
  0
LINE
  5
B1A0
  8
0
 10
403.9128710077357027
 20
110.1563019237407985
 30
0.0
 11
403.9324735028105238
 21
110.1514971960229019
 31
0.0
  0
LINE
  5
B1A1
  8
0
 10
403.9324735028105238
 20
110.1514971960229019
 30
0.0
 11
403.9423984061966735
 21
110.1409498099292961
 31
0.0
  0
LINE
  5
B1A2
  8
0
 10
403.9325557131239748
 20
110.1352073405720944
 30
0.0
 11
403.9324735028105238
 21
110.1514971960229019
 31
0.0
  0
LINE
  5
B1A3
  8
0
 10
403.9128707081882226
 20
110.1399573649427026
 30
0.0
 11
403.9128710077357027
 21
110.1563019237407985
 31
0.0
  0
LINE
  5
B1A4
  8
0
 10
403.9423989580006946
 20
110.1703901456856016
 30
0.0
 11
403.932556267339919
 21
110.1629083771920961
 31
0.0
  0
LINE
  5
B1A5
  8
0
 10
403.932556267339919
 20
110.1629083771920961
 30
0.0
 11
403.9128712180238949
 21
110.1677898980063048
 31
0.0
  0
LINE
  5
B1A6
  8
0
 10
403.9128712180238949
 20
110.1677898980063048
 30
0.0
 11
403.9030288662142993
 21
110.1802643347529056
 31
0.0
  0
LINE
  5
B1A7
  8
0
 10
403.9030288662142993
 20
110.1802643347529056
 30
0.0
 11
403.9128711949402941
 21
110.1878356762264985
 31
0.0
  0
LINE
  5
B1A8
  8
0
 10
403.9128711949402941
 20
110.1878356762264985
 30
0.0
 11
403.9325562409397889
 21
110.182841692903196
 31
0.0
  0
LINE
  5
B1A9
  8
0
 10
403.9325562409397889
 20
110.182841692903196
 30
0.0
 11
403.9423989580006946
 21
110.1703901456856016
 31
0.0
  0
LINE
  5
B1AA
  8
0
 10
403.932556267339919
 20
110.1629083771920961
 30
0.0
 11
403.9325562409397889
 21
110.182841692903196
 31
0.0
  0
LINE
  5
B1AB
  8
0
 10
403.9128712180238949
 20
110.1677898980063048
 30
0.0
 11
403.9128711949402941
 21
110.1878356762264985
 31
0.0
  0
LINE
  5
B1AC
  8
0
 10
403.9145598218980808
 20
110.1614877444552008
 30
0.0
 11
403.9047171322422969
 21
110.1553446397505951
 31
0.0
  0
LINE
  5
B1AD
  8
0
 10
403.9047171322422969
 20
110.1553446397505951
 30
0.0
 11
403.8850320852025106
 21
110.1611965788873988
 31
0.0
  0
LINE
  5
B1AE
  8
0
 10
403.8850320852025106
 20
110.1611965788873988
 30
0.0
 11
403.8751897303278042
 21
110.1733055570697957
 31
0.0
  0
LINE
  5
B1AF
  8
0
 10
403.8751897303278042
 20
110.1733055570697957
 30
0.0
 11
403.8850320609403184
 21
110.1795059566821067
 31
0.0
  0
LINE
  5
B1B0
  8
0
 10
403.8850320609403184
 20
110.1795059566821067
 30
0.0
 11
403.9047171082398222
 21
110.1735392064032055
 31
0.0
  0
LINE
  5
B1B1
  8
0
 10
403.9047171082398222
 20
110.1735392064032055
 30
0.0
 11
403.9145598218980808
 21
110.1614877444552008
 31
0.0
  0
LINE
  5
B1B2
  8
0
 10
403.9047171322422969
 20
110.1553446397505951
 30
0.0
 11
403.9047171082398222
 21
110.1735392064032055
 31
0.0
  0
LINE
  5
B1B3
  8
0
 10
403.8850320852025106
 20
110.1611965788873988
 30
0.0
 11
403.8850320609403184
 21
110.1795059566821067
 31
0.0
  0
LINE
  5
B1B4
  8
0
 10
403.9145592663758748
 20
110.1347969402480942
 30
0.0
 11
403.9047165745467964
 21
110.1303477892210054
 31
0.0
  0
LINE
  5
B1B5
  8
0
 10
403.9047165745467964
 20
110.1303477892210054
 30
0.0
 11
403.8850315279167944
 21
110.1360706834186942
 31
0.0
  0
LINE
  5
B1B6
  8
0
 10
403.8850315279167944
 20
110.1360706834186942
 30
0.0
 11
403.8751891753515224
 21
110.1463135424098994
 31
0.0
  0
LINE
  5
B1B7
  8
0
 10
403.8751891753515224
 20
110.1463135424098994
 30
0.0
 11
403.8850315082401039
 21
110.1507723969795052
 31
0.0
  0
LINE
  5
B1B8
  8
0
 10
403.8850315082401039
 20
110.1507723969795052
 30
0.0
 11
403.9045299669555789
 21
110.145030240621594
 31
0.0
  0
LINE
  5
B1B9
  8
0
 10
403.9045299669555789
 20
110.145030240621594
 30
0.0
 11
403.9145592663758748
 21
110.1347969402480942
 31
0.0
  0
LINE
  5
B1BA
  8
0
 10
403.9047165745467964
 20
110.1303477892210054
 30
0.0
 11
403.9045299669555789
 21
110.145030240621594
 31
0.0
  0
LINE
  5
B1BB
  8
0
 10
403.8850315279167944
 20
110.1360706834186942
 30
0.0
 11
403.8850315082401039
 21
110.1507723969795052
 31
0.0
  0
LINE
  5
B1BC
  8
0
 10
403.8867206878597926
 20
110.1553452354144014
 30
0.0
 11
403.876877993626124
 21
110.1505281719156955
 31
0.0
  0
LINE
  5
B1BD
  8
0
 10
403.876877993626124
 20
110.1505281719156955
 30
0.0
 11
403.8571929451412075
 21
110.1573842549689033
 31
0.0
  0
LINE
  5
B1BE
  8
0
 10
403.8571929451412075
 20
110.1573842549689033
 30
0.0
 11
403.8473505908311836
 21
110.169169670045406
 31
0.0
  0
LINE
  5
B1BF
  8
0
 10
403.8473505908311836
 20
110.169169670045406
 30
0.0
 11
403.8571929231400759
 21
110.1740094436484014
 31
0.0
  0
LINE
  5
B1C0
  8
0
 10
403.8571929231400759
 20
110.1740094436484014
 30
0.0
 11
403.8768779717398729
 21
110.1670408051031984
 31
0.0
  0
LINE
  5
B1C1
  8
0
 10
403.8768779717398729
 20
110.1670408051031984
 30
0.0
 11
403.8867206878597926
 21
110.1553452354144014
 31
0.0
  0
LINE
  5
B1C2
  8
0
 10
403.876877993626124
 20
110.1505281719156955
 30
0.0
 11
403.8768779717398729
 21
110.1670408051031984
 31
0.0
  0
LINE
  5
B1C3
  8
0
 10
403.8571929451412075
 20
110.1573842549689033
 30
0.0
 11
403.8571929231400759
 21
110.1740094436484014
 31
0.0
  0
LINE
  5
B1C4
  8
0
 10
403.8867212361761858
 20
110.1852428726345039
 30
0.0
 11
403.8768785476888752
 21
110.1786619766410951
 31
0.0
  0
LINE
  5
B1C5
  8
0
 10
403.8768785476888752
 20
110.1786619766410951
 30
0.0
 11
403.8571934956332257
 21
110.1857202690980984
 31
0.0
  0
LINE
  5
B1C6
  8
0
 10
403.8571934956332257
 20
110.1857202690980984
 30
0.0
 11
403.8523777254789024
 21
110.1923726826758951
 31
0.0
  0
LINE
  5
B1C7
  8
0
 10
403.8781226790105165
 20
110.1972337021428956
 30
0.0
 11
403.8867212361761858
 21
110.1852428726345039
 31
0.0
  0
LINE
  5
B1C8
  8
0
 10
403.8768785476888752
 20
110.1786619766410951
 30
0.0
 11
403.8768785263425229
 21
110.1970175239523968
 31
0.0
  0
LINE
  5
B1C9
  8
0
 10
403.8571934956332257
 20
110.1857202690980984
 30
0.0
 11
403.8571934870752216
 21
110.1933441902719011
 31
0.0
  0
LINE
  5
B1CA
  8
0
 10
403.8588821021151034
 20
110.1794614202849942
 30
0.0
 11
403.8490394088092899
 21
110.1739018104580055
 31
0.0
  0
LINE
  5
B1CB
  8
0
 10
403.8490394088092899
 20
110.1739018104580055
 30
0.0
 11
403.8293543583288852
 21
110.1820048522783964
 31
0.0
  0
LINE
  5
B1CC
  8
0
 10
403.8293543583288852
 20
110.1820048522783964
 30
0.0
 11
403.826174824725797
 21
110.1862626340504931
 31
0.0
  0
LINE
  5
B1CD
  8
0
 10
403.826174824725797
 20
110.1862626340504931
 30
0.0
 11
403.8264574905213067
 21
110.1869414316089006
 31
0.0
  0
LINE
  5
B1CE
  8
0
 10
403.8495314173027282
 20
110.1917849291229032
 30
0.0
 11
403.8588821021151034
 21
110.1794614202849942
 31
0.0
  0
LINE
  5
B1CF
  8
0
 10
403.8490394088092899
 20
110.1739018104580055
 30
0.0
 11
403.8494604898547777
 21
110.191770153996103
 31
0.0
  0
LINE
  5
B1D0
  8
0
 10
403.8293543583288852
 20
110.1820048522783964
 30
0.0
 11
403.8293543509491883
 21
110.1876001038648951
 31
0.0
  0
LINE
  5
B1D1
  8
0
 10
403.9145603693245903
 20
110.1942244723545059
 30
0.0
 11
403.9047176821399034
 21
110.1862587953032033
 31
0.0
  0
LINE
  5
B1D2
  8
0
 10
403.9047176821399034
 20
110.1862587953032033
 30
0.0
 11
403.8850326347397868
 21
110.192315246503199
 31
0.0
  0
LINE
  5
B1D3
  8
0
 10
403.8850326347397868
 20
110.192315246503199
 30
0.0
 11
403.8812992953909884
 21
110.1977770782297057
 31
0.0
  0
LINE
  5
B1D4
  8
0
 10
403.9090498390349921
 20
110.2020029428980052
 30
0.0
 11
403.9145603693245903
 21
110.1942244723545059
 31
0.0
  0
LINE
  5
B1D5
  8
0
 10
403.9047176821399034
 20
110.1862587953032033
 30
0.0
 11
403.9047176648746813
 21
110.201404526105307
 31
0.0
  0
LINE
  5
B1D6
  8
0
 10
403.8850326347397868
 20
110.192315246503199
 30
0.0
 11
403.8850326267144055
 21
110.1983999512993933
 31
0.0
  0
LINE
  5
B1D7
  8
0
 10
403.9419132198398756
 20
110.1170084664032061
 30
0.0
 11
403.9325554963874083
 21
110.1259998660528936
 31
0.0
  0
LINE
  5
B1D8
  8
0
 10
403.9325554963874083
 20
110.1259998660528936
 30
0.0
 11
403.9128704508398755
 21
110.1307140280031973
 31
0.0
  0
LINE
  5
B1D9
  8
0
 10
403.9128704508398755
 20
110.1307140280031973
 30
0.0
 11
403.9035123651398749
 21
110.126612537903199
 31
0.0
  0
ARC
  5
B1DA
  8
0
 10
404.0071903326085021
 20
110.4595849272576942
 30
0.0
 40
0.3487402084802368
 50
252.7049227688978874
 51
259.211755528645881
  0
LINE
  5
B1DB
  8
0
 10
403.8862355018289918
 20
110.1311679992460029
 30
0.0
 11
403.8768777769200824
 21
110.1412026168684974
 31
0.0
  0
LINE
  5
B1DC
  8
0
 10
403.8768777769200824
 20
110.1412026168684974
 30
0.0
 11
403.8571927285976813
 21
110.1480036541130971
 31
0.0
  0
LINE
  5
B1DD
  8
0
 10
403.8571927285976813
 20
110.1480036541130971
 30
0.0
 11
403.8478346416399063
 21
110.1448776727032026
 31
0.0
  0
ARC
  5
B1DE
  8
0
 10
403.9862482692432195
 20
110.4719395649928941
 30
0.0
 40
0.3551447784980088
 50
247.0617648939133915
 51
253.6436068931035095
  0
LINE
  5
B1DF
  8
0
 10
403.8590264952065922
 20
110.1517967114937022
 30
0.0
 11
403.8490388512076947
 21
110.1484859962087057
 31
0.0
  0
LINE
  5
B1E0
  8
0
 10
403.8490388512076947
 20
110.1484859962087057
 30
0.0
 11
403.8294987491798906
 21
110.1563355505096951
 31
0.0
  0
LINE
  5
B1E1
  8
0
 10
403.8294987491798906
 20
110.1563355505096951
 30
0.0
 11
403.8195114474032152
 21
110.1678965295201067
 31
0.0
  0
LINE
  5
B1E2
  8
0
 10
403.8195114474032152
 20
110.1678965295201067
 30
0.0
 11
403.8298026318628899
 21
110.1711717032818996
 31
0.0
  0
LINE
  5
B1E3
  8
0
 10
403.8298026318628899
 20
110.1711717032818996
 30
0.0
 11
403.8491837790866725
 21
110.1634922811824993
 31
0.0
  0
LINE
  5
B1E4
  8
0
 10
403.8491837790866725
 20
110.1634922811824993
 30
0.0
 11
403.8590264952065922
 21
110.1517967114937022
 31
0.0
  0
LINE
  5
B1E5
  8
0
 10
403.8490388512076947
 20
110.1484859962087057
 30
0.0
 11
403.8491837790866725
 21
110.1634922811824993
 31
0.0
  0
LINE
  5
B1E6
  8
0
 10
403.8294987491798906
 20
110.1563355505096951
 30
0.0
 11
403.8298026318628899
 21
110.1711717032818996
 31
0.0
  0
LINE
  5
B1E7
  8
0
 10
403.8311879064333993
 20
110.1756722329544971
 30
0.0
 11
403.8213452134731938
 21
110.1720596197695983
 31
0.0
  0
LINE
  5
B1E8
  8
0
 10
403.8213452134731938
 20
110.1720596197695983
 30
0.0
 11
403.8044047531063825
 21
110.1798097352048984
 31
0.0
  0
LINE
  5
B1E9
  8
0
 10
403.8044047531063825
 20
110.1798097352048984
 30
0.0
 11
403.8039428087444094
 21
110.1801652484963938
 31
0.0
  0
LINE
  5
B1EA
  8
0
 10
403.8232675184835898
 20
110.1861614454865048
 30
0.0
 11
403.8311879064333993
 21
110.1756722329544971
 31
0.0
  0
LINE
  5
B1EB
  8
0
 10
403.8213452134731938
 20
110.1720596197695983
 30
0.0
 11
403.8213451968929917
 21
110.185663456592394
 31
0.0
  0
LINE
  5
B1EC
  8
0
 10
403.8044047531063825
 20
110.1798097352048984
 30
0.0
 11
403.8043119378862116
 21
110.1803009890934959
 31
0.0
  0
LINE
  5
B1ED
  8
0
 10
403.831042402939886
 20
110.1514092458031939
 30
0.0
 11
403.8181302138073079
 21
110.1566594244779935
 31
0.0
  0
LINE
  5
B1EE
  8
0
 10
403.8135614855581252
 20
110.1526935463615047
 30
0.0
 11
403.8015146538397744
 21
110.1583264168015006
 31
0.0
  0
LINE
  5
B1EF
  8
0
 10
403.8015146538397744
 20
110.1583264168015006
 30
0.0
 11
403.7911942009616268
 21
110.1694238457777999
 31
0.0
  0
LINE
  5
B1F0
  8
0
 10
403.7911942009616268
 20
110.1694238457777999
 30
0.0
 11
403.8014875674518862
 21
110.171627507595403
 31
0.0
  0
LINE
  5
B1F1
  8
0
 10
403.8014875674518862
 20
110.171627507595403
 30
0.0
 11
403.8208437696430906
 21
110.1626626451705988
 31
0.0
  0
LINE
  5
B1F2
  8
0
 10
403.8208437696430906
 20
110.1626626451705988
 30
0.0
 11
403.831042402939886
 21
110.1514092458031939
 31
0.0
  0
LINE
  5
B1F3
  8
0
 10
403.8181302138073079
 20
110.1566594244779935
 30
0.0
 11
403.8208437696430906
 21
110.1626626451705988
 31
0.0
  0
LINE
  5
B1F4
  8
0
 10
403.8015146538397744
 20
110.1583264168015006
 30
0.0
 11
403.8014875674518862
 21
110.171627507595403
 31
0.0
  0
LINE
  5
B1F5
  8
0
 10
403.8135614855581252
 20
110.1526935463615047
 30
0.0
 11
403.8181302138073079
 21
110.1566594244779935
 31
0.0
  0
ARC
  5
B1F6
  8
0
 10
404.0522594720910092
 20
111.1033267179382023
 30
0.0
 40
1.0403966301012031
 50
257.9244921932183274
 51
270.5278538394982206
  0
ARC
  5
B1F7
  8
0
 10
403.8648548003877181
 20
110.262317037288895
 30
0.0
 40
0.1789407248075816
 50
231.4481794782880968
 51
260.2683962849777117
  0
ARC
  5
B1F8
  8
0
 10
403.7683468754513001
 20
110.137253744115398
 30
0.0
 40
0.0211344226546186
 50
132.9191668307753105
 51
224.7401799966627038
  0
ARC
  5
B1F9
  8
0
 10
403.8706188146841782
 20
109.9994181731885021
 30
0.0
 40
0.1926530430604032
 50
99.810496522389144
 51
127.2694425549062061
  0
ARC
  5
B1FA
  8
0
 10
404.0239081076546199
 20
109.3545184682007942
 30
0.0
 40
0.8552323407841708
 50
93.6272381541375864
 51
102.5692678876553003
  0
ARC
  5
B1FB
  8
0
 10
404.0614387519373736
 20
108.9141769323996982
 30
0.0
 40
1.2971016498522261
 50
89.9820865285024638
 51
94.0511740480134364
  0
ARC
  5
B1FC
  8
0
 10
404.1088728423209204
 20
113.1240538906161959
 30
0.0
 40
3.0658850496947139
 50
267.6403220509138237
 51
269.1210879642530927
  0
ARC
  5
B1FD
  8
0
 10
404.0480305357896214
 20
111.2135108297399029
 30
0.0
 40
1.154595313513886
 50
261.3227812359261861
 51
266.7534472730719131
  0
ARC
  5
B1FE
  8
0
 10
403.9487279524290102
 20
110.5865363016469018
 30
0.0
 40
0.5198279048003794
 50
250.8968577516349967
 51
261.7169013494319074
  0
ARC
  5
B1FF
  8
0
 10
403.8130154146414839
 20
110.2059672542885949
 30
0.0
 40
0.1158606066960434
 50
228.039107322319694
 51
252.7220828697361981
  0
ARC
  5
B200
  8
0
 10
403.7515602294835162
 20
110.1373239798387971
 30
0.0
 40
0.0237278392109242
 50
189.5025132494920967
 51
227.5601998373088009
  0
ARC
  5
B201
  8
0
 10
403.7543644976466908
 20
110.1367412365463991
 30
0.0
 40
0.0264178113244191
 50
120.4500972578346989
 51
187.2513243316867886
  0
ARC
  5
B202
  8
0
 10
403.8647145381767132
 20
109.9683610258343975
 30
0.0
 40
0.2277083658775007
 50
101.0750631847176066
 51
122.9158535613009064
  0
ARC
  5
B203
  8
0
 10
404.0151569912039804
 20
109.3457239762021942
 30
0.0
 40
0.8681016878114101
 50
94.3060202703543524
 51
102.925748609697095
  0
ARC
  5
B204
  8
0
 10
404.0607710081803248
 20
108.8594073470629979
 30
0.0
 40
1.356500090627724
 50
89.9546667936294568
 51
94.6849355759996598
  0
ARC
  5
B205
  8
0
 10
403.7960320320049163
 20
110.1930440993024973
 30
0.0
 40
0.0949792144210657
 50
215.2185199842342911
 51
230.4456452733068943
  0
ARC
  5
B206
  8
0
 10
403.7669234860621259
 20
110.1724961847667004
 30
0.0
 40
0.0593488307762723
 50
180.2847349124675134
 51
215.2185199842342911
  0
LINE
  5
B207
  8
0
 10
403.7075753881397873
 20
110.1722012483031961
 30
0.0
 11
403.7075753128407882
 21
110.2290568036023046
 31
0.0
  0
ARC
  5
B208
  8
0
 10
403.736274917961282
 20
110.2268833685304941
 30
0.0
 40
0.0287817851093813
 50
129.411208375832814
 51
175.6692292359693965
  0
ARC
  5
B209
  8
0
 10
403.8642882495740878
 20
110.0283801842552975
 30
0.0
 40
0.2648130700366533
 50
102.5590480495888954
 51
123.5327587544240941
  0
ARC
  5
B20A
  8
0
 10
404.0256259514371777
 20
109.3041657395995969
 30
0.0
 40
1.0067810045798911
 50
94.4893292951581145
 51
102.5590480495888954
  0
ARC
  5
B20B
  8
0
 10
404.0620577298926719
 20
108.8401512794285964
 30
0.0
 40
1.4722234754925421
 50
90.0083066406982937
 51
94.4893292951581145
  0
ARC
  5
B20C
  8
0
 10
404.0022117686418142
 20
109.9915027517696018
 30
0.0
 40
0.0439522006741839
 50
238.3859595311895987
 51
260.3202585222500147
  0
ARC
  5
B20D
  8
0
 10
403.9811654980766775
 20
109.9534176446733937
 30
0.0
 40
0.0020982474267462
 50
100.9725542897895991
 51
161.7964704014777055
  0
ARC
  5
B20E
  8
0
 10
403.9916729649264084
 20
109.9194715819463966
 30
0.0
 40
0.0376216396056522
 50
94.232968116156627
 51
106.8524965105195008
  0
ARC
  5
B20F
  8
0
 10
404.0494165065472885
 20
108.7879258761144001
 30
0.0
 40
1.170630192290504
 50
89.3917183281857035
 51
92.9634586268854974
  0
ARC
  5
B210
  8
0
 10
404.0520433051023019
 20
110.2509854433171057
 30
0.0
 40
0.3081682985290647
 50
259.2990290091203747
 51
266.6674594593536085
  0
ARC
  5
B211
  8
0
 10
404.0627780419089277
 20
110.4353377013922
 30
0.0
 40
0.4928328312138972
 50
266.6674594593536085
 51
269.8914437138244011
  0
ARC
  5
B212
  8
0
 10
403.7658712868642965
 20
110.289233838502696
 30
0.0
 40
0.091409197919339
 50
215.2670423810720024
 51
230.3759613756618023
  0
ARC
  5
B213
  8
0
 10
403.7106502151701761
 20
110.2483113535018049
 30
0.0
 40
0.0227460830725246
 50
141.2353497667928082
 51
211.4152499311001066
  0
ARC
  5
B214
  8
0
 10
403.7748264363231101
 20
110.1871879501835991
 30
0.0
 40
0.1113080376313107
 50
108.7264904579500069
 51
137.3835573168204007
  0
ARC
  5
B215
  8
0
 10
403.9762193668682926
 20
109.5931027661068953
 30
0.0
 40
0.7386008866365136
 50
94.3626708976272539
 51
108.7264904579500069
  0
ARC
  5
B216
  8
0
 10
404.0600416430564792
 20
108.8419513101827931
 30
0.0
 40
1.4941861561933341
 50
89.9308760424007545
 51
95.3765774763486291
  0
ARC
  5
B217
  8
0
 10
403.7630287818348052
 20
110.4075489637091039
 30
0.0
 40
0.2323533591820192
 50
232.8158382615825985
 51
256.1925457453830859
  0
ARC
  5
B218
  8
0
 10
403.6427683968893234
 20
110.2483846913260948
 30
0.0
 40
0.0328670665929189
 50
123.4670112980897017
 51
232.1456464562193958
  0
ARC
  5
B219
  8
0
 10
403.8070496048744076
 20
109.9997057653418011
 30
0.0
 40
0.3309098868220163
 50
98.9367592521910382
 51
123.4511294638970043
  0
ARC
  5
B21A
  8
0
 10
404.016019270195784
 20
109.0521941035457019
 30
0.0
 40
1.300731178485977
 50
93.4631025566803828
 51
101.5472257058003009
  0
ARC
  5
B21B
  8
0
 10
404.0610659252955088
 20
108.4899568316904066
 30
0.0
 40
1.8646952860842521
 50
89.9760834985998343
 51
93.8011598036272432
  0
ARC
  5
B21C
  8
0
 10
403.7651640034604839
 20
110.465492799401602
 30
0.0
 40
0.2905166141652955
 50
233.5724579580744944
 51
258.5626394118793883
  0
ARC
  5
B21D
  8
0
 10
403.6094113251519957
 20
110.2590011064774984
 30
0.0
 40
0.0319992694738154
 50
141.5224930743524965
 51
238.4197891890098902
  0
ARC
  5
B21E
  8
0
 10
403.694783151901504
 20
110.1702981235116994
 30
0.0
 40
0.1548869117049131
 50
104.3198924260473035
 51
135.4732878631722031
  0
ARC
  5
B21F
  8
0
 10
403.9470962425912717
 20
109.3759339540765012
 30
0.0
 40
0.9881425657604612
 50
95.641382732476302
 51
107.1041465080132014
  0
ARC
  5
B220
  8
0
 10
404.060239042741614
 20
108.4497813650121998
 30
0.0
 40
1.9210525144809709
 50
89.952123184229194
 51
96.2842022288621138
  0
ARC
  5
B221
  8
0
 10
403.7046587754745133
 20
110.3345363074023027
 30
0.0
 40
0.138290700773051
 50
217.8515650440876072
 51
231.219743766404406
  0
ARC
  5
B222
  8
0
 10
403.6237315829101817
 20
110.2682940772611033
 30
0.0
 40
0.0338465596854624
 50
126.8298477626292993
 51
213.366638851409391
  0
ARC
  5
B223
  8
0
 10
405.5080212047823238
 20
112.0029187874481948
 30
0.0
 40
2.6095974334783811
 50
210.3502852320370948
 51
222.4596748699206898
  0
ARC
  5
B224
  8
0
 10
404.0602469689558234
 20
110.7095989745921969
 30
0.0
 40
0.8069683691660307
 50
263.4313827151403871
 51
270.1134118650236928
  0
ARC
  5
B225
  8
0
 10
404.0738534017061738
 20
110.8277627658089983
 30
0.0
 40
0.9259129636918418
 50
238.5325726242068072
 51
263.4313827151403871
  0
ARC
  5
B226
  8
0
 10
404.2191014438063803
 20
111.0650887708195995
 30
0.0
 40
1.204158586098061
 50
198.4335704981203889
 51
238.5325726242068072
  0
LINE
  5
B227
  8
0
 10
403.0767271449398095
 20
110.6843278724032018
 30
0.0
 11
403.0764786065399221
 21
110.9195903035031989
 31
0.0
  0
ARC
  5
B228
  8
0
 10
403.0962305670162209
 20
110.9195332843601989
 30
0.0
 40
0.0197520427764602
 50
90.189413006800379
 51
179.8346013715259915
  0
ARC
  5
B230
  8
0
 10
404.3276565470748096
 20
110.1930440993024973
 30
0.0
 40
0.0949792144210657
 50
309.5543547266930773
 51
324.7814800157651121
  0
ARC
  5
B231
  8
0
 10
404.3567650930176001
 20
110.1724961847667004
 30
0.0
 40
0.0593488307762723
 50
324.7814800157651121
 51
359.7152650875324866
  0
LINE
  5
B232
  8
0
 10
404.416113190939825
 20
110.1722012483031961
 30
0.0
 11
404.4161132662389946
 21
110.2290568036023046
 31
0.0
  0
ARC
  5
B233
  8
0
 10
404.3874136611185008
 20
110.2268833685304941
 30
0.0
 40
0.0287817851093813
 50
4.3307707640305217
 51
50.5887916241696516
  0
ARC
  5
B234
  8
0
 10
404.2594003295055813
 20
110.0283801842552975
 30
0.0
 40
0.2648130700366533
 50
56.4672412455758774
 51
77.4409519504110904
  0
ARC
  5
B235
  8
0
 10
404.0980626276426051
 20
109.3041657395995969
 30
0.0
 40
1.0067810045798911
 50
77.4409519504110904
 51
85.5106707048418855
  0
ARC
  5
B236
  8
0
 10
404.0616308491871109
 20
108.8401512794285964
 30
0.0
 40
1.4722234754925421
 50
85.5106707048418855
 51
89.9916933593017347
  0
ARC
  5
B237
  8
0
 10
404.1214768104380255
 20
109.9915027517696018
 30
0.0
 40
0.0439522006741839
 50
279.6797414777498716
 51
301.6140404688102876
  0
ARC
  5
B238
  8
0
 10
404.1425230810029916
 20
109.9534176446733937
 30
0.0
 40
0.0020982474267462
 50
18.2035295985222803
 51
79.0274457102103725
  0
ARC
  5
B239
  8
0
 10
404.1320156141533175
 20
109.9194715819463966
 30
0.0
 40
0.0376216396056522
 50
73.1475034894804708
 51
85.7670318838433872
  0
ARC
  5
B23A
  8
0
 10
404.0742720725323807
 20
108.7879258761144001
 30
0.0
 40
1.170630192290504
 50
87.036541373114531
 51
90.6082816718142965
  0
ARC
  5
B23B
  8
0
 10
404.0716452739774809
 20
110.2509854433171057
 30
0.0
 40
0.3081682985290647
 50
273.3325405406432083
 51
280.7009709908796822
  0
ARC
  5
B23C
  8
0
 10
404.060910537170912
 20
110.4353377013922
 30
0.0
 40
0.4928328312138972
 50
270.1085562861754852
 51
273.3325405406432083
  0
ARC
  5
B23D
  8
0
 10
404.3578172922153726
 20
110.289233838502696
 30
0.0
 40
0.091409197919339
 50
309.6240386243381977
 51
324.732957618928026
  0
ARC
  5
B23E
  8
0
 10
404.413038363909493
 20
110.2483113535018049
 30
0.0
 40
0.0227460830725246
 50
328.5847500688998934
 51
38.7646502332071918
  0
ARC
  5
B23F
  8
0
 10
404.3488621427566727
 20
110.1871879501835991
 30
0.0
 40
0.1113080376313107
 50
42.6164426831796206
 51
71.2735095420499789
  0
ARC
  5
B240
  8
0
 10
404.1474692122114902
 20
109.5931027661068953
 30
0.0
 40
0.7386008866365136
 50
71.2735095420499789
 51
85.6373291023727461
  0
ARC
  5
B241
  8
0
 10
404.0636469360233036
 20
108.8419513101827931
 30
0.0
 40
1.4941861561933341
 50
84.6234225236513851
 51
90.0691239575992455
  0
ARC
  5
B242
  8
0
 10
404.3606597972448071
 20
110.4075489637091039
 30
0.0
 40
0.2323533591820192
 50
283.8074542546168004
 51
307.1841617384174015
  0
ARC
  5
B243
  8
0
 10
404.4809201821904026
 20
110.2483846913260948
 30
0.0
 40
0.0328670665929189
 50
307.8543535437805758
 51
56.5329887019102486
  0
ARC
  5
B244
  8
0
 10
404.3166389742053184
 20
109.9997057653418011
 30
0.0
 40
0.3309098868220163
 50
56.54887053610301
 51
81.063240747808976
  0
ARC
  5
B245
  8
0
 10
404.1076693088838852
 20
109.0521941035457019
 30
0.0
 40
1.300731178485977
 50
78.4527742941996422
 51
86.536897443319603
  0
ARC
  5
B246
  8
0
 10
404.062622653784274
 20
108.4899568316904066
 30
0.0
 40
1.8646952860842521
 50
86.1988401963759969
 51
90.0239165014001514
  0
ARC
  5
B247
  8
0
 10
404.358524575619299
 20
110.465492799401602
 30
0.0
 40
0.2905166141652955
 50
281.4373605881204981
 51
306.4275420419256193
  0
ARC
  5
B248
  8
0
 10
404.5142772539277871
 20
110.2590011064774984
 30
0.0
 40
0.0319992694738154
 50
301.5802108109900814
 51
38.4775069256475106
  0
ARC
  5
B249
  8
0
 10
404.428905427178222
 20
110.1702981235116994
 30
0.0
 40
0.1548869117049131
 50
44.5267121368278325
 51
75.6801075739526681
  0
ARC
  5
B24A
  8
0
 10
404.1765923364883975
 20
109.3759339540765012
 30
0.0
 40
0.9881425657604612
 50
72.8958534919867986
 51
84.3586172675236838
  0
ARC
  5
B24B
  8
0
 10
404.0634495363382257
 20
108.4497813650121998
 30
0.0
 40
1.92105251448097
 50
83.7157977711379004
 51
90.047876815767566
  0
ARC
  5
B24C
  8
0
 10
404.4190298036053264
 20
110.3345363074023027
 30
0.0
 40
0.138290700773051
 50
308.780256233595594
 51
322.1484349559124212
  0
ARC
  5
B24D
  8
0
 10
404.4999569961696011
 20
110.2682940772611033
 30
0.0
 40
0.0338465596854624
 50
326.6333611485904953
 51
53.170152237370651
  0
ARC
  5
B24E
  8
0
 10
402.6156673742974021
 20
112.0029187874481948
 30
0.0
 40
2.6095974334783811
 50
317.5403251300792817
 51
329.6497147679629052
  0
ARC
  5
B24F
  8
0
 10
404.0634416101240163
 20
110.7095989745921969
 30
0.0
 40
0.8069683691660307
 50
269.8865881349763072
 51
276.5686172848594993
  0
ARC
  5
B250
  8
0
 10
404.0498351773734953
 20
110.8277627658089983
 30
0.0
 40
0.9259129636918418
 50
276.5686172848594993
 51
301.4674273757933065
  0
ARC
  5
B251
  8
0
 10
403.9045871352732888
 20
111.0650887708195995
 30
0.0
 40
1.204158586098061
 50
301.4674273757933065
 51
341.5664295018796111
  0
LINE
  5
B252
  8
0
 10
405.0469614341399165
 20
110.6843278724032018
 30
0.0
 11
405.0472099725399175
 21
110.9195903035031989
 31
0.0
  0
ARC
  5
B253
  8
0
 10
405.0274580120635051
 20
110.9195332843601989
 30
0.0
 40
0.0197520427764602
 50
0.1653986284739489
 51
89.810586993199621
  0
LINE
  5
B259
  8
0
 10
403.0767271449398095
 20
110.6843278724032018
 30
0.0
 11
405.0469614341399165
 21
110.6843278724032018
 31
0.0
  0
LINE
  5
B25A
  8
0
 10
403.0961652692399184
 20
110.9392852192031995
 30
0.0
 11
405.0275233098399212
 21
110.9392852192031995
 31
0.0
  0
ARC
  5
B25B
  8
0
 10
408.0624561331597988
 20
108.2675847999601046
 30
0.0
 40
1.671666656680415
 50
266.0201370568984203
 51
269.9789122053759911
  0
ARC
  5
B25C
  8
0
 10
407.9789229478918173
 20
107.221237997913903
 30
0.0
 40
0.6221375988564172
 50
258.6792145708762973
 51
267.0064441109295785
  0
ARC
  5
B25D
  8
0
 10
407.9082982765431211
 20
106.8201775599258951
 30
0.0
 40
0.2152254447929873
 50
189.3338227503240034
 51
256.1551391044981756
  0
ARC
  5
B25E
  8
0
 10
409.2904278359170007
 20
107.0605533768370066
 30
0.0
 40
1.6180939584188789
 50
181.8615342054123971
 51
189.7952382476929074
  0
LINE
  5
B25F
  8
0
 10
407.6731878272441918
 20
107.0079909128551066
 30
0.0
 11
407.5597833287399112
 21
109.6735805880032046
 31
0.0
  0
ARC
  5
B260
  8
0
 10
408.0624820539508164
 20
108.2881173719457024
 30
0.0
 40
1.671674676724471
 50
266.0201417975076197
 51
269.9780238848659906
  0
ARC
  5
B261
  8
0
 10
407.9789484500242907
 20
107.2417625595959976
 30
0.0
 40
0.6221375988564172
 50
258.6792145708762973
 51
267.0064441109295785
  0
ARC
  5
B262
  8
0
 10
407.9098006605801743
 20
106.8204229028204963
 30
0.0
 40
0.1959896554413495
 50
190.0233947001376862
 51
254.3169749716072943
  0
ARC
  5
B263
  8
0
 10
409.5380530359345812
 20
107.0901812666548949
 30
0.0
 40
1.8464265381780349
 50
181.8814242652227051
 51
189.472381706865491
  0
LINE
  5
B264
  8
0
 10
407.6926218830745938
 20
107.0295609652540065
 30
0.0
 11
407.5604538101368917
 21
110.6924811702728988
 31
0.0
  0
ARC
  5
B265
  8
0
 10
410.5794026502624092
 20
110.7458999788192955
 30
0.0
 40
3.0194214128539718
 50
173.73526284350271
 51
181.0137147301159075
  0
ARC
  5
B266
  8
0
 10
407.7870730866155782
 20
111.0572281211354948
 30
0.0
 40
0.2098479291970283
 50
108.2818817202675064
 51
175.0357982754127875
  0
ARC
  5
B267
  8
0
 10
407.9864820889940233
 20
110.5058494477513023
 30
0.0
 40
0.7961171992559811
 50
97.1463345610876701
 51
109.4608595400894018
  0
ARC
  5
B268
  8
0
 10
408.0591259042741967
 20
109.9264505837500963
 30
0.0
 40
1.38005227056472
 50
89.8872822419260444
 51
97.1463345610876701
  0
ARC
  5
B269
  8
0
 10
412.6000342403344803
 20
110.6455252170363934
 30
0.0
 40
5.0755158994894911
 50
175.083114561640599
 51
178.9199793524632867
  0
ARC
  5
B26A
  8
0
 10
407.7904771396059118
 20
111.0535602751337052
 30
0.0
 40
0.2487499047081059
 50
121.8308830012927046
 51
173.7709531624805948
  0
ARC
  5
B26B
  8
0
 10
407.867004776962176
 20
110.9038904943395067
 30
0.0
 40
0.4165050155169345
 50
103.9690810067666007
 51
119.9157318061051001
  0
ARC
  5
B26C
  8
0
 10
408.0712876833839005
 20
109.9335716990438954
 30
0.0
 40
1.4079013952805439
 50
90.3844490673093901
 51
102.5042040501900971
  0
ARC
  5
B28B
  8
0
 10
402.4397917818760106
 20
109.2013224612854998
 30
0.0
 40
0.3149581132829362
 50
179.9994750797474126
 51
270.0001221133383069
  0
ARC
  5
B28C
  8
0
 10
402.4397967674847791
 20
111.7210075471971038
 30
0.0
 40
0.3149631000077202
 50
90.0001809385164506
 51
179.9994835488018055
  0
LINE
  5
B28D
  8
0
 10
402.1248336686061862
 20
109.2013253468014966
 30
0.0
 11
402.1248336674898951
 21
111.7210103862032042
 31
0.0
  0
ARC
  5
B290
  8
0
 10
409.6838913007036922
 20
109.2013224612854998
 30
0.0
 40
0.3149581132829362
 50
269.9998778866616931
 51
0.0005249202525752
  0
ARC
  5
B291
  8
0
 10
409.6856728375281023
 20
111.722794080091802
 30
0.0
 40
0.3131816570253996
 50
359.6736760216186894
 51
90.3266594910622729
  0
LINE
  5
B292
  8
0
 10
409.9988494139735167
 20
109.2013253468014966
 30
0.0
 11
409.9988494150899214
 21
111.7210103862032042
 31
0.0
  0
LINE
  5
B294
  8
0
 10
402.4397924531397734
 20
108.8863643480031982
 30
0.0
 11
407.5932745534935862
 21
108.8863643480031982
 31
0.0
  0
LINE
  5
B295
  8
0
 10
408.5304071941861253
 20
108.8863643480031982
 30
0.0
 11
409.6838913007036922
 21
108.8863643480031982
 31
0.0
  0
LINE
  5
B296
  8
0
 10
402.4397957728398865
 20
112.0359706472032002
 30
0.0
 11
409.6838873097398732
 21
112.0359706472032002
 31
0.0
  0
ARC
  5
B298
  8
0
 10
408.0618408738397989
 20
110.4612043595031992
 30
0.0
 40
0.9639214854400929
 50
301.2821498879727073
 51
238.7178501120274063
  0
ARC
  5
B299
  8
0
 10
408.0618408738397989
 20
110.4612332385324009
 30
0.0
 40
0.9744094514841505
 50
300.871644156565992
 51
239.128355843434008
  0
LINE
  5
B3EE
  8
0
 10
404.0699370381399262
 20
110.0660049232031952
 30
0.0
 11
404.0764182096672243
 21
110.0651545399881002
 31
0.0
  0
LINE
  5
B3EF
  8
0
 10
404.0764182096672243
 20
110.0651545399881002
 30
0.0
 11
404.0797796198377227
 21
110.0648262663470973
 31
0.0
  0
LINE
  5
B3F0
  8
0
 10
404.0797796198377227
 20
110.0648262663470973
 30
0.0
 11
404.0994647777399109
 21
110.0657427858031951
 31
0.0
  0
LINE
  5
B3F1
  8
0
 10
404.0994647777399109
 20
110.0657427858031951
 30
0.0
 11
404.1093071192419757
 21
110.0678302777119058
 31
0.0
  0
LINE
  5
B3F2
  8
0
 10
404.1093071192419757
 20
110.0678302777119058
 30
0.0
 11
404.0994680554117053
 21
110.0672126592637028
 31
0.0
  0
LINE
  5
B3F3
  8
0
 10
404.0994680554117053
 20
110.0672126592637028
 30
0.0
 11
404.0797797391367112
 21
110.066300326651799
 31
0.0
  0
LINE
  5
B3F4
  8
0
 10
404.0797797391367112
 20
110.066300326651799
 30
0.0
 11
404.0699370381399262
 21
110.0660049232031952
 31
0.0
  0
LINE
  5
B3F5
  8
0
 10
404.0977761825056973
 20
110.0650179507617992
 30
0.0
 11
404.1076188824927158
 21
110.0650179380923959
 31
0.0
  0
LINE
  5
B3F6
  8
0
 10
404.1076188824927158
 20
110.0650179380923959
 30
0.0
 11
404.1273039244399001
 21
110.0669893350431039
 31
0.0
  0
LINE
  5
B3F7
  8
0
 10
404.1273039244399001
 20
110.0669893350431039
 30
0.0
 11
404.1371462654936977
 21
110.0687108827242042
 31
0.0
  0
LINE
  5
B3F8
  8
0
 10
404.1371462654936977
 20
110.0687108827242042
 30
0.0
 11
404.1273039266848173
 21
110.068710895558894
 31
0.0
  0
LINE
  5
B3F9
  8
0
 10
404.1273039266848173
 20
110.068710895558894
 30
0.0
 11
404.1076188847399067
 21
110.0667637103032064
 31
0.0
  0
LINE
  5
B3FA
  8
0
 10
404.1076188847399067
 20
110.0667637103032064
 30
0.0
 11
404.0977761825056973
 21
110.0650179507617992
 31
0.0
  0
LINE
  5
B3FB
  8
0
 10
404.1256147419065883
 20
110.0693468992558053
 30
0.0
 11
404.1354574421271195
 21
110.0691070539340046
 31
0.0
  0
LINE
  5
B3FC
  8
0
 10
404.1354574421271195
 20
110.0691070539340046
 30
0.0
 11
404.1551424851995193
 21
110.0718821490705039
 31
0.0
  0
LINE
  5
B3FD
  8
0
 10
404.1551424851995193
 20
110.0718821490705039
 30
0.0
 11
404.1647425142897987
 21
110.0748711173531973
 31
0.0
  0
LINE
  5
B3FE
  8
0
 10
404.1647425142897987
 20
110.0748711173531973
 30
0.0
 11
404.1256147419065883
 21
110.0693468992558053
 31
0.0
  0
LINE
  5
B3FF
  8
0
 10
404.1534538891248758
 20
110.0710177074401059
 30
0.0
 11
404.1632965828362103
 21
110.0721147083670957
 31
0.0
  0
LINE
  5
B400
  8
0
 10
404.1632965828362103
 20
110.0721147083670957
 30
0.0
 11
404.1829816355204912
 21
110.0758824865868064
 31
0.0
  0
LINE
  5
B401
  8
0
 10
404.1829816355204912
 20
110.0758824865868064
 30
0.0
 11
404.192823977821206
 21
110.0785090475539931
 31
0.0
  0
LINE
  5
B402
  8
0
 10
404.192823977821206
 20
110.0785090475539931
 30
0.0
 11
404.1829812756921001
 21
110.0773900684934006
 31
0.0
  0
LINE
  5
B403
  8
0
 10
404.1829812756921001
 20
110.0773900684934006
 30
0.0
 11
404.1632965932398065
 21
110.0736662474031959
 31
0.0
  0
LINE
  5
B404
  8
0
 10
404.1632965932398065
 20
110.0736662474031959
 30
0.0
 11
404.1534538891248758
 21
110.0710177074401059
 31
0.0
  0
LINE
  5
B405
  8
0
 10
404.1812924525398785
 20
110.0779492237032002
 30
0.0
 11
404.1911351541398858
 21
110.0787060653031944
 31
0.0
  0
LINE
  5
B406
  8
0
 10
404.1911351541398858
 20
110.0787060653031944
 30
0.0
 11
404.2108201997398851
 21
110.0834202273031934
 31
0.0
  0
LINE
  5
B407
  8
0
 10
404.2108201997398851
 20
110.0834202273031934
 30
0.0
 11
404.220662543739877
 21
110.0873360216032069
 31
0.0
  0
LINE
  5
B408
  8
0
 10
404.220662543739877
 20
110.0873360216032069
 30
0.0
 11
404.1812924525398785
 21
110.0779492237032002
 31
0.0
  0
LINE
  5
B409
  8
0
 10
404.2091316038536206
 20
110.0824282549840945
 30
0.0
 11
404.2189743069399128
 21
110.0845927311032
 31
0.0
  0
LINE
  5
B40A
  8
0
 10
404.2189743069399128
 20
110.0845927311032
 30
0.0
 11
404.238659354006586
 21
110.090386600969893
 31
0.0
  0
LINE
  5
B40B
  8
0
 10
404.238659354006586
 20
110.090386600969893
 30
0.0
 11
404.2485016967955858
 21
110.0939448547140955
 31
0.0
  0
LINE
  5
B40C
  8
0
 10
404.2485016967955858
 20
110.0939448547140955
 30
0.0
 11
404.2386593557399124
 21
110.0917192813031988
 31
0.0
  0
LINE
  5
B40D
  8
0
 10
404.2386593557399124
 20
110.0917192813031988
 30
0.0
 11
404.2189743088399041
 21
110.0859963869032043
 31
0.0
  0
LINE
  5
B40E
  8
0
 10
404.2189743088399041
 20
110.0859963869032043
 30
0.0
 11
404.2091316038536206
 21
110.0824282549840945
 31
0.0
  0
LINE
  5
B40F
  8
0
 10
404.2369701705399052
 20
110.092062253503201
 30
0.0
 11
404.2760979535398747
 21
110.1055447430532013
 31
0.0
  0
LINE
  5
B410
  8
0
 10
404.2760979535398747
 20
110.1055447430532013
 30
0.0
 11
404.2664979220102168
 21
110.1007098533297039
 31
0.0
  0
LINE
  5
B411
  8
0
 10
404.2664979220102168
 20
110.1007098533297039
 30
0.0
 11
404.2468128735856112
 21
110.0939088160969987
 31
0.0
  0
LINE
  5
B412
  8
0
 10
404.2468128735856112
 20
110.0939088160969987
 30
0.0
 11
404.2369701705399052
 21
110.092062253503201
 31
0.0
  0
LINE
  5
B413
  8
0
 10
404.2648093255969002
 20
110.0996002524001938
 30
0.0
 11
404.2746520306399134
 21
110.1029612860031932
 31
0.0
  0
LINE
  5
B414
  8
0
 10
404.2746520306399134
 20
110.1029612860031932
 30
0.0
 11
404.2945511981399136
 21
110.1110692591531972
 31
0.0
  0
LINE
  5
B415
  8
0
 10
404.2945511981399136
 20
110.1110692591531972
 30
0.0
 11
404.3041794252416139
 21
110.1155278420060029
 31
0.0
  0
LINE
  5
B416
  8
0
 10
404.3041794252416139
 20
110.1155278420060029
 30
0.0
 11
404.2943370821399185
 21
110.1121327279032016
 31
0.0
  0
LINE
  5
B417
  8
0
 10
404.2943370821399185
 20
110.1121327279032016
 30
0.0
 11
404.2746520321398975
 21
110.104134593903197
 31
0.0
  0
LINE
  5
B418
  8
0
 10
404.2746520321398975
 20
110.104134593903197
 30
0.0
 11
404.2648093256079846
 21
110.0996002523770017
 31
0.0
  0
LINE
  5
B419
  8
0
 10
404.292647896418714
 20
110.1121327301836033
 30
0.0
 11
404.3024905999441216
 21
110.115211375088407
 31
0.0
  0
LINE
  5
B41A
  8
0
 10
404.3024905999441216
 20
110.115211375088407
 30
0.0
 11
404.3221756525031196
 21
110.1243404638155994
 31
0.0
  0
LINE
  5
B41B
  8
0
 10
404.3221756525031196
 20
110.1243404638155994
 30
0.0
 11
404.3320179991558234
 21
110.1302994854022046
 31
0.0
  0
LINE
  5
B41C
  8
0
 10
404.3320179991558234
 20
110.1302994854022046
 30
0.0
 11
404.3221752943398997
 21
110.1270671863031936
 31
0.0
  0
LINE
  5
B41D
  8
0
 10
404.3221752943398997
 20
110.1270671863031936
 30
0.0
 11
404.3104687263398773
 21
110.1215889316031991
 31
0.0
  0
LINE
  5
B41E
  8
0
 10
404.3104687263398773
 20
110.1215889316031991
 30
0.0
 11
404.3055600684465958
 21
110.1177776577861067
 31
0.0
  0
LINE
  5
B41F
  8
0
 10
404.3055600684465958
 20
110.1177776577861067
 30
0.0
 11
404.2926478964399166
 21
110.1121327302032
 31
0.0
  0
LINE
  5
B420
  8
0
 10
404.0716262204397822
 20
110.0634398038648953
 30
0.0
 11
404.0814685602451277
 21
110.0642561358158957
 31
0.0
  0
LINE
  5
B421
  8
0
 10
404.0814685602451277
 20
110.0642561358158957
 30
0.0
 11
404.0716513442454811
 21
110.0649281482129993
 31
0.0
  0
LINE
  5
B422
  8
0
 10
404.0738731317147767
 20
110.0636261645779967
 30
0.0
 11
404.1043296948382135
 21
110.0650179423261932
 31
0.0
  0
LINE
  5
B423
  8
0
 10
404.129909747835427
 20
110.0674451259163931
 30
0.0
 11
404.1595354952377193
 21
110.0716955226539966
 31
0.0
  0
ARC
  5
B424
  8
0
 10
404.0622255826897913
 20
110.6551516228757066
 30
0.0
 40
0.5916033071777747
 50
281.9902101458596917
 51
285.1768977898057074
  0
ARC
  5
B425
  8
0
 10
404.0629988227776153
 20
110.6525369505473009
 30
0.0
 40
0.5888757290008724
 50
287.5378389982490148
 51
290.9396789320023231
  0
ARC
  5
B426
  8
0
 10
404.1810491729705745
 20
110.4065762499448056
 30
0.0
 40
0.3162898923954586
 50
291.8109102864365809
 51
306.6235719216608118
  0
ARC
  5
B427
  8
0
 10
404.0618315154084144
 20
110.6731136584837998
 30
0.0
 40
0.6031924506354959
 50
270.0012133835920736
 51
295.138709965154419
  0
LINE
  5
B428
  8
0
 10
404.3180743897917182
 20
110.1270543926240038
 30
0.0
 11
404.3185797402398975
 21
110.1282176478031971
 31
0.0
  0
LINE
  5
B429
  8
0
 10
404.3185797402398975
 20
110.1282176478031971
 30
0.0
 11
404.3221750691353122
 21
110.1299258392202063
 31
0.0
  0
LINE
  5
B42A
  8
0
 10
404.3221750691353122
 20
110.1299258392202063
 30
0.0
 11
404.3320169087389218
 21
110.1376124904437006
 31
0.0
  0
LINE
  5
B42B
  8
0
 10
404.3320169087389218
 20
110.1376124904437006
 30
0.0
 11
404.3221750774399084
 21
110.1361992671031942
 31
0.0
  0
LINE
  5
B42C
  8
0
 10
404.3221750774399084
 20
110.1361992671031942
 30
0.0
 11
404.3201569656123979
 21
110.1352402353000031
 31
0.0
  0
LINE
  5
B42D
  8
0
 10
404.3201569656123979
 20
110.1352402353000031
 30
0.0
 11
404.3201567432399202
 21
110.1403151220032015
 31
0.0
  0
LINE
  5
B42E
  8
0
 10
404.3201567432399202
 20
110.1403151220032015
 30
0.0
 11
404.3221744933758828
 21
110.1412741537748019
 31
0.0
  0
LINE
  5
B42F
  8
0
 10
404.3221744933758828
 20
110.1412741537748019
 30
0.0
 11
404.3320168446641105
 21
110.1507048029886988
 31
0.0
  0
LINE
  5
B430
  8
0
 10
404.3320168446641105
 20
110.1507048029886988
 30
0.0
 11
404.3221745063398771
 21
110.1510352963032062
 31
0.0
  0
LINE
  5
B431
  8
0
 10
404.3221745063398771
 20
110.1510352963032062
 30
0.0
 11
404.318578815667081
 21
110.1493271049160967
 31
0.0
  0
LINE
  5
B432
  8
0
 10
404.318578815667081
 20
110.1493271049160967
 30
0.0
 11
404.3180733356456926
 21
110.1511240578015958
 31
0.0
  0
LINE
  5
B433
  8
0
 10
404.3180743898657852
 20
110.1270543926587067
 30
0.0
 11
404.3015827038399266
 21
110.1369207251763953
 31
0.0
  0
LINE
  5
B434
  8
0
 10
404.3015827038399266
 20
110.1369207251763953
 30
0.0
 11
404.2967608678775946
 21
110.141601606057705
 31
0.0
  0
LINE
  5
B435
  8
0
 10
404.3185797402398975
 20
110.1282176478031971
 30
0.0
 11
404.302490040339876
 21
110.1378812198024946
 31
0.0
  0
LINE
  5
B436
  8
0
 10
404.302490040339876
 20
110.1378812198024946
 30
0.0
 11
404.2980922714374969
 21
110.1421660716958968
 31
0.0
  0
ARC
  5
B437
  8
0
 10
404.0622593910366049
 20
110.6959306395611975
 30
0.0
 40
0.6018762212690315
 50
281.5191197936034087
 51
295.1524039659843766
  0
ARC
  5
B438
  8
0
 10
404.0616804572081833
 20
110.6987716491322971
 30
0.0
 40
0.6047756177160872
 50
270.0155212958143807
 51
281.5191139020304831
  0
LINE
  5
B439
  8
0
 10
404.2674054782530106
 20
110.1300949137282004
 30
0.0
 11
404.2674054840009035
 21
110.1251836639039965
 31
0.0
  0
LINE
  5
B43A
  8
0
 10
404.2674054840009035
 20
110.1251836639039965
 30
0.0
 11
404.3015826882398756
 21
110.125183703903204
 31
0.0
  0
LINE
  5
B43B
  8
0
 10
404.3015826882398756
 20
110.125183703903204
 30
0.0
 11
404.3015827038399266
 21
110.1369207251763953
 31
0.0
  0
LINE
  5
B43C
  8
0
 10
404.2943365086399012
 20
110.1251836954227059
 30
0.0
 11
404.2943357093565169
 21
110.1405968946796037
 31
0.0
  0
LINE
  5
B43D
  8
0
 10
404.2746514692399273
 20
110.1251836723031943
 30
0.0
 11
404.2746515359291948
 21
110.1327747441671931
 31
0.0
  0
LINE
  5
B43E
  8
0
 10
404.3201569655361141
 20
110.1352402352636943
 30
0.0
 11
404.3042872394627238
 21
110.1448612189658007
 31
0.0
  0
LINE
  5
B43F
  8
0
 10
404.3201567432399202
 20
110.1403151220032015
 30
0.0
 11
404.3092025425964948
 21
110.1470462568112936
 31
0.0
  0
LINE
  5
B440
  8
0
 10
404.0716262204397822
 20
110.0634398038648953
 30
0.0
 11
404.0716513442454811
 21
110.0649281482129993
 31
0.0
  0
LINE
  5
B441
  8
0
 10
404.0797796198377227
 20
110.0648262663470973
 30
0.0
 11
404.079711460291378
 21
110.0662971626932034
 31
0.0
  0
LINE
  5
B442
  8
0
 10
404.0994647777399109
 20
110.0657427858031951
 30
0.0
 11
404.0994680554117053
 21
110.0672126592637028
 31
0.0
  0
LINE
  5
B443
  8
0
 10
404.1076188824927158
 20
110.0650179380923959
 30
0.0
 11
404.1076188847399067
 21
110.0667637103032064
 31
0.0
  0
LINE
  5
B444
  8
0
 10
404.1273039244399001
 20
110.0669893350431039
 30
0.0
 11
404.1273039266848173
 21
110.068710895558894
 31
0.0
  0
LINE
  5
B445
  8
0
 10
404.1354574421271195
 20
110.0691070539340046
 30
0.0
 11
404.1352318819027118
 21
110.0707046862080034
 31
0.0
  0
LINE
  5
B446
  8
0
 10
404.1551424851995193
 20
110.0718821490705039
 30
0.0
 11
404.1549163547568924
 21
110.0734838201723989
 31
0.0
  0
LINE
  5
B447
  8
0
 10
404.1632965828362103
 20
110.0721147083670957
 30
0.0
 11
404.1632965932398065
 21
110.0736662474031959
 31
0.0
  0
LINE
  5
B448
  8
0
 10
404.1829816355204912
 20
110.0758824865868064
 30
0.0
 11
404.1829812756921001
 21
110.0773900684934006
 31
0.0
  0
LINE
  5
B449
  8
0
 10
404.1911351541398858
 20
110.0787060653031944
 30
0.0
 11
404.1907764724817866
 21
110.0802104472808054
 31
0.0
  0
LINE
  5
B44A
  8
0
 10
404.2108201997398851
 20
110.0834202273031934
 30
0.0
 11
404.2104662022272805
 21
110.0849049630462986
 31
0.0
  0
LINE
  5
B44B
  8
0
 10
404.2189743069399128
 20
110.0845927311032
 30
0.0
 11
404.2189743088399041
 21
110.0859963869032043
 31
0.0
  0
LINE
  5
B44C
  8
0
 10
404.238659354006586
 20
110.090386600969893
 30
0.0
 11
404.2386593557399124
 21
110.0917192813031988
 31
0.0
  0
LINE
  5
B44D
  8
0
 10
404.2468128735856112
 20
110.0939088160969987
 30
0.0
 11
404.2463370064123183
 21
110.0952898390468988
 31
0.0
  0
LINE
  5
B44E
  8
0
 10
404.2664979220102168
 20
110.1007098533297039
 30
0.0
 11
404.2660276127070915
 21
110.1020747466814953
 31
0.0
  0
LINE
  5
B44F
  8
0
 10
404.2746520306399134
 20
110.1029612860031932
 30
0.0
 11
404.2746520321398975
 21
110.104134593903197
 31
0.0
  0
LINE
  5
B450
  8
0
 10
404.2945511981399136
 20
110.1110692591531972
 30
0.0
 11
404.2943370821399185
 21
110.1121327279032016
 31
0.0
  0
LINE
  5
B451
  8
0
 10
404.3024905999441216
 20
110.115211375088407
 30
0.0
 11
404.3024683150100032
 21
110.1164260087959974
 31
0.0
  0
LINE
  5
B452
  8
0
 10
404.3221756525031196
 20
110.1243404638155994
 30
0.0
 11
404.3221752943398997
 21
110.1270671863031936
 31
0.0
  0
LINE
  5
B453
  8
0
 10
404.3221750691353122
 20
110.1299258392202063
 30
0.0
 11
404.3221750774399084
 21
110.1361992671031942
 31
0.0
  0
LINE
  5
B454
  8
0
 10
404.3221744933758828
 20
110.1412741537748019
 30
0.0
 11
404.3221745063398771
 21
110.1510352963032062
 31
0.0
  0
LINE
  5
B455
  8
0
 10
404.3204864711594837
 20
110.1275803764606991
 30
0.0
 11
404.3303288193251888
 21
110.1348967382071038
 31
0.0
  0
LINE
  5
B456
  8
0
 10
404.3303288193251888
 20
110.1348967382071038
 30
0.0
 11
404.3500138726076898
 21
110.1451544484848029
 31
0.0
  0
LINE
  5
B457
  8
0
 10
404.3500138726076898
 20
110.1451544484848029
 30
0.0
 11
404.359856577175492
 21
110.1481716440249983
 31
0.0
  0
LINE
  5
B458
  8
0
 10
404.359856577175492
 20
110.1481716440249983
 30
0.0
 11
404.3500142285399193
 21
110.140740002415896
 31
0.0
  0
LINE
  5
B459
  8
0
 10
404.3500142285399193
 20
110.140740002415896
 30
0.0
 11
404.3303291754829729
 21
110.1304092932658989
 31
0.0
  0
LINE
  5
B45A
  8
0
 10
404.3303291754829729
 20
110.1304092932658989
 30
0.0
 11
404.3204864711839832
 21
110.1275803764779937
 31
0.0
  0
LINE
  5
B45B
  8
0
 10
404.3500142285399193
 20
110.140740002415896
 30
0.0
 11
404.3500138726076898
 21
110.1451544484848029
 31
0.0
  0
LINE
  5
B45C
  8
0
 10
404.3303291754829729
 20
110.1304092932658989
 30
0.0
 11
404.3303288193251888
 21
110.1348967382071038
 31
0.0
  0
LINE
  5
B45D
  8
0
 10
404.3204858939203064
 20
110.1378268276350951
 30
0.0
 11
404.330328606539922
 21
110.1468768083032046
 31
0.0
  0
LINE
  5
B45E
  8
0
 10
404.330328606539922
 20
110.1468768083032046
 30
0.0
 11
404.3500136594399237
 21
110.1571117350031983
 31
0.0
  0
LINE
  5
B45F
  8
0
 10
404.3500136594399237
 20
110.1571117350031983
 30
0.0
 11
404.3598559999364284
 21
110.1584180951993943
 31
0.0
  0
LINE
  5
B460
  8
0
 10
404.3598559999364284
 20
110.1584180951993943
 30
0.0
 11
404.3500136488398766
 21
110.1490944499327043
 31
0.0
  0
LINE
  5
B461
  8
0
 10
404.3500136488398766
 20
110.1490944499327043
 30
0.0
 11
404.3301300556414049
 21
110.1387604301741021
 31
0.0
  0
LINE
  5
B462
  8
0
 10
404.3301300556414049
 20
110.1387604301741021
 30
0.0
 11
404.3204858939448059
 21
110.1378268276524039
 31
0.0
  0
LINE
  5
B463
  8
0
 10
404.3500136488398766
 20
110.1490944499327043
 30
0.0
 11
404.3500136594399237
 21
110.1571117350031983
 31
0.0
  0
LINE
  5
B464
  8
0
 10
404.3301300556414049
 20
110.1387604301741021
 30
0.0
 11
404.330328606539922
 21
110.1468768083032046
 31
0.0
  0
LINE
  5
B465
  8
0
 10
404.3204853242522745
 20
110.1537647201573975
 30
0.0
 11
404.3303280392398165
 21
110.1646109222031953
 31
0.0
  0
LINE
  5
B466
  8
0
 10
404.3303280392398165
 20
110.1646109222031953
 30
0.0
 11
404.3418478633823838
 21
110.1703966634752021
 31
0.0
  0
LINE
  5
B467
  8
0
 10
404.3515231285820732
 20
110.1650144596226966
 30
0.0
 11
404.3500130769722887
 21
110.1633215072938015
 31
0.0
  0
LINE
  5
B468
  8
0
 10
404.3500130769722887
 20
110.1633215072938015
 30
0.0
 11
404.3302061628626802
 21
110.1530679524024947
 31
0.0
  0
LINE
  5
B469
  8
0
 10
404.3302061628626802
 20
110.1530679524024947
 30
0.0
 11
404.320485324276774
 21
110.1537647201747063
 31
0.0
  0
LINE
  5
B46A
  8
0
 10
404.3500130769722887
 20
110.1633215072938015
 30
0.0
 11
404.3500129958322873
 21
110.1659030219857982
 31
0.0
  0
LINE
  5
B46B
  8
0
 10
404.3302061628626802
 20
110.1530679524024947
 30
0.0
 11
404.3303280392398165
 21
110.1646109222031953
 31
0.0
  0
LINE
  5
B46C
  8
0
 10
404.0716239226035782
 20
110.1094415220020011
 30
0.0
 11
404.0814662665029005
 21
110.1166248232093068
 31
0.0
  0
LINE
  5
B46D
  8
0
 10
404.0814662665029005
 20
110.1166248232093068
 30
0.0
 11
404.0716239373394956
 21
110.1238255485616975
 31
0.0
  0
LINE
  5
B46E
  8
0
 10
404.0716239226035782
 20
110.1094415220020011
 30
0.0
 11
404.0716239373394956
 21
110.1238255485616975
 31
0.0
  0
LINE
  5
B46F
  8
0
 10
404.0716233599399061
 20
110.1339901000032029
 30
0.0
 11
404.0814657105458991
 21
110.1428663271730954
 31
0.0
  0
LINE
  5
B470
  8
0
 10
404.0814657105458991
 20
110.1428663271730954
 30
0.0
 11
404.0716233835394746
 21
110.1517856375856041
 31
0.0
  0
LINE
  5
B471
  8
0
 10
404.0716233599399061
 20
110.1339901000032029
 30
0.0
 11
404.0716233835394746
 21
110.1517856375856041
 31
0.0
  0
LINE
  5
B472
  8
0
 10
404.069934761055606
 20
110.1287777855971939
 30
0.0
 11
404.0797886346057908
 21
110.121225687411993
 31
0.0
  0
LINE
  5
B473
  8
0
 10
404.0797886346057908
 20
110.121225687411993
 30
0.0
 11
404.0994624893398282
 21
110.122148455403206
 31
0.0
  0
LINE
  5
B474
  8
0
 10
404.0994624893398282
 20
110.122148455403206
 30
0.0
 11
404.1093048393840945
 21
110.1306373030865018
 31
0.0
  0
LINE
  5
B475
  8
0
 10
404.1093048393840945
 20
110.1306373030865018
 30
0.0
 11
404.0993189067643812
 21
110.1382151951114992
 31
0.0
  0
LINE
  5
B476
  8
0
 10
404.0993189067643812
 20
110.1382151951114992
 30
0.0
 11
404.0797771082375789
 21
110.1372878569879958
 31
0.0
  0
LINE
  5
B477
  8
0
 10
404.0797771082375789
 20
110.1372878569879958
 30
0.0
 11
404.069934761055606
 21
110.1287777855971939
 31
0.0
  0
LINE
  5
B478
  8
0
 10
404.0797886346057908
 20
110.121225687411993
 30
0.0
 11
404.0797771082375789
 21
110.1372878569879958
 31
0.0
  0
LINE
  5
B479
  8
0
 10
404.0994624893398282
 20
110.122148455403206
 30
0.0
 11
404.0993189067643812
 21
110.1382151951114992
 31
0.0
  0
LINE
  5
B47A
  8
0
 10
404.069935320660818
 20
110.1052814367392045
 30
0.0
 11
404.0797834624398206
 21
110.1051094024059012
 31
0.0
  0
LINE
  5
B47B
  8
0
 10
404.0797834624398206
 20
110.1051094024059012
 30
0.0
 11
404.0994628673024067
 21
110.1060941961214041
 31
0.0
  0
LINE
  5
B47C
  8
0
 10
404.0994628673024067
 20
110.1060941961214041
 30
0.0
 11
404.1093053990168755
 21
110.1071067934024938
 31
0.0
  0
LINE
  5
B47D
  8
0
 10
404.1093053990168755
 20
110.1071067934024938
 30
0.0
 11
404.0994627064170004
 21
110.1130365866278993
 31
0.0
  0
LINE
  5
B47E
  8
0
 10
404.0994627064170004
 20
110.1130365866278993
 30
0.0
 11
404.0797889164318235
 21
110.112120409731304
 31
0.0
  0
LINE
  5
B47F
  8
0
 10
404.0797889164318235
 20
110.112120409731304
 30
0.0
 11
404.069935320660818
 21
110.1052814367392045
 31
0.0
  0
LINE
  5
B480
  8
0
 10
404.0716228140400972
 20
110.164196084075698
 30
0.0
 11
404.0814651620963218
 21
110.1749140523958062
 31
0.0
  0
LINE
  5
B481
  8
0
 10
404.0814651620963218
 20
110.1749140523958062
 30
0.0
 11
404.0716228376393246
 21
110.1857171202977952
 31
0.0
  0
LINE
  5
B482
  8
0
 10
404.0716228140400972
 20
110.164196084075698
 30
0.0
 11
404.0716228376393246
 21
110.1857171202977952
 31
0.0
  0
LINE
  5
B483
  8
0
 10
404.0699342087552282
 20
110.1578507133625067
 30
0.0
 11
404.0797768941397976
 21
110.1485528902464068
 31
0.0
  0
LINE
  5
B484
  8
0
 10
404.0797768941397976
 20
110.1485528902464068
 30
0.0
 11
404.0994619348077777
 21
110.1495000577148033
 31
0.0
  0
LINE
  5
B485
  8
0
 10
404.0994619348077777
 20
110.1495000577148033
 30
0.0
 11
404.109304287131522
 21
110.1597652706230974
 31
0.0
  0
LINE
  5
B486
  8
0
 10
404.109304287131522
 20
110.1597652706230974
 30
0.0
 11
404.0991931655938743
 21
110.169116561616093
 31
0.0
  0
LINE
  5
B487
  8
0
 10
404.0991931655938743
 20
110.169116561616093
 30
0.0
 11
404.0797769201398069
 21
110.1681666588032016
 31
0.0
  0
LINE
  5
B488
  8
0
 10
404.0797769201398069
 20
110.1681666588032016
 30
0.0
 11
404.0699342087552282
 21
110.1578507133625067
 31
0.0
  0
LINE
  5
B489
  8
0
 10
404.0797768941397976
 20
110.1485528902464068
 30
0.0
 11
404.0797769201398069
 21
110.1681666588032016
 31
0.0
  0
LINE
  5
B48A
  8
0
 10
404.0994619348077777
 20
110.1495000577148033
 30
0.0
 11
404.0991931655938743
 21
110.169116561616093
 31
0.0
  0
LINE
  5
B48B
  8
0
 10
404.0716222666666795
 20
110.2006247289068028
 30
0.0
 11
404.0797747990242783
 21
110.2111601880395
 31
0.0
  0
LINE
  5
B48C
  8
0
 10
404.0716222666666795
 20
110.2006247289068028
 30
0.0
 11
404.0716222807118925
 21
110.2112447205909973
 31
0.0
  0
LINE
  5
B48D
  8
0
 10
404.0699336645166113
 20
110.1930143926694967
 30
0.0
 11
404.0797763473398732
 21
110.1817897523099958
 31
0.0
  0
LINE
  5
B48E
  8
0
 10
404.0797763473398732
 20
110.1817897523099958
 30
0.0
 11
404.0994613880399129
 21
110.1827731960031969
 31
0.0
  0
LINE
  5
B48F
  8
0
 10
404.0994613880399129
 20
110.1827731960031969
 30
0.0
 11
404.1093037430644017
 21
110.1950105636555008
 31
0.0
  0
LINE
  5
B490
  8
0
 10
404.1093037430644017
 20
110.1950105636555008
 30
0.0
 11
404.0994614192397876
 21
110.2063654380032034
 31
0.0
  0
LINE
  5
B491
  8
0
 10
404.0994614192397876
 20
110.2063654380032034
 30
0.0
 11
404.0797763785398047
 21
110.2053520418031951
 31
0.0
  0
LINE
  5
B492
  8
0
 10
404.0797763785398047
 20
110.2053520418031951
 30
0.0
 11
404.0699336645166113
 21
110.1930143926694967
 31
0.0
  0
LINE
  5
B493
  8
0
 10
404.0797763473398732
 20
110.1817897523099958
 30
0.0
 11
404.0797763785398047
 21
110.2053520418031951
 31
0.0
  0
LINE
  5
B494
  8
0
 10
404.0994613880399129
 20
110.1827731960031969
 30
0.0
 11
404.0994614192397876
 21
110.2063654380032034
 31
0.0
  0
LINE
  5
B495
  8
0
 10
404.1006669526270798
 20
110.2107095446076954
 30
0.0
 11
404.1076149290219064
 21
110.2024674014232062
 31
0.0
  0
LINE
  5
B496
  8
0
 10
404.1076149290219064
 20
110.2024674014232062
 30
0.0
 11
404.1272999710708973
 21
110.2044905726847048
 31
0.0
  0
LINE
  5
B497
  8
0
 10
404.1272999710708973
 20
110.2044905726847048
 30
0.0
 11
404.1312062861040886
 21
110.2094443552961991
 31
0.0
  0
LINE
  5
B498
  8
0
 10
404.1076149290219064
 20
110.2024674014232062
 30
0.0
 11
404.1076149396436108
 21
110.2104850349035985
 31
0.0
  0
LINE
  5
B499
  8
0
 10
404.1272999710708973
 20
110.2044905726847048
 30
0.0
 11
404.1272276592939079
 21
110.2096500395610974
 31
0.0
  0
LINE
  5
B49A
  8
0
 10
404.0977727837960174
 20
110.1757219714914982
 30
0.0
 11
404.1076154714723998
 21
110.165958839385496
 31
0.0
  0
LINE
  5
B49B
  8
0
 10
404.1076154714723998
 20
110.165958839385496
 30
0.0
 11
404.1273005134303276
 21
110.1678933326325023
 31
0.0
  0
LINE
  5
B49C
  8
0
 10
404.1273005134303276
 20
110.1678933326325023
 30
0.0
 11
404.137142867716193
 21
110.1796403460176066
 31
0.0
  0
LINE
  5
B49D
  8
0
 10
404.137142867716193
 20
110.1796403460176066
 30
0.0
 11
404.1273005420397908
 21
110.1895103705032
 31
0.0
  0
LINE
  5
B49E
  8
0
 10
404.1273005420397908
 20
110.1895103705032
 30
0.0
 11
404.1076155000399126
 21
110.1875255397032021
 31
0.0
  0
LINE
  5
B49F
  8
0
 10
404.1076155000399126
 20
110.1875255397032021
 30
0.0
 11
404.0977727837960174
 21
110.1757219714914982
 31
0.0
  0
LINE
  5
B4A0
  8
0
 10
404.1076154714723998
 20
110.165958839385496
 30
0.0
 11
404.1076155000399126
 21
110.1875255397032021
 31
0.0
  0
LINE
  5
B4A1
  8
0
 10
404.1273005134303276
 20
110.1678933326325023
 30
0.0
 11
404.1273005420397908
 21
110.1895103705032
 31
0.0
  0
LINE
  5
B4A2
  8
0
 10
404.0977733321483925
 20
110.1436463733018059
 30
0.0
 11
404.1076160221398936
 21
110.1356980661551006
 31
0.0
  0
LINE
  5
B4A3
  8
0
 10
404.1076160221398936
 20
110.1356980661551006
 30
0.0
 11
404.1273010680984044
 21
110.1375723358373051
 31
0.0
  0
LINE
  5
B4A4
  8
0
 10
404.1273010680984044
 20
110.1375723358373051
 30
0.0
 11
404.1371434158219245
 21
110.1474284126546053
 31
0.0
  0
LINE
  5
B4A5
  8
0
 10
404.1371434158219245
 20
110.1474284126546053
 30
0.0
 11
404.1273010876395233
 21
110.1554325714826064
 31
0.0
  0
LINE
  5
B4A6
  8
0
 10
404.1273010876395233
 20
110.1554325714826064
 30
0.0
 11
404.1076160457398032
 21
110.1535246687031986
 31
0.0
  0
LINE
  5
B4A7
  8
0
 10
404.1076160457398032
 20
110.1535246687031986
 30
0.0
 11
404.0977733321483925
 21
110.1436463733018059
 31
0.0
  0
LINE
  5
B4A8
  8
0
 10
404.1076160221398936
 20
110.1356980661551006
 30
0.0
 11
404.1076160457398032
 21
110.1535246687031986
 31
0.0
  0
LINE
  5
B4A9
  8
0
 10
404.1273010680984044
 20
110.1375723358373051
 30
0.0
 11
404.1273010876395233
 21
110.1554325714826064
 31
0.0
  0
LINE
  5
B4AA
  8
0
 10
404.0977738909919026
 20
110.1173866362225056
 30
0.0
 11
404.1076165804398101
 21
110.1111151126032013
 31
0.0
  0
LINE
  5
B4AB
  8
0
 10
404.1076165804398101
 20
110.1111151126032013
 30
0.0
 11
404.1273016221629746
 21
110.1129511297580024
 31
0.0
  0
LINE
  5
B4AC
  8
0
 10
404.1273016221629746
 20
110.1129511297580024
 30
0.0
 11
404.1371439718171246
 21
110.121079570247602
 31
0.0
  0
LINE
  5
B4AD
  8
0
 10
404.1371439718171246
 20
110.121079570247602
 30
0.0
 11
404.1273016413396135
 21
110.1273750639799971
 31
0.0
  0
LINE
  5
B4AE
  8
0
 10
404.1273016413396135
 20
110.1273750639799971
 30
0.0
 11
404.1076165994398934
 21
110.1255182277031963
 31
0.0
  0
LINE
  5
B4AF
  8
0
 10
404.1076165994398934
 20
110.1255182277031963
 30
0.0
 11
404.0977738909919026
 21
110.1173866362225056
 31
0.0
  0
LINE
  5
B4B0
  8
0
 10
404.1076165804398101
 20
110.1111151126032013
 30
0.0
 11
404.1076165994398934
 21
110.1255182277031963
 31
0.0
  0
LINE
  5
B4B1
  8
0
 10
404.1273016221629746
 20
110.1129511297580024
 30
0.0
 11
404.1273016413396135
 21
110.1273750639799971
 31
0.0
  0
LINE
  5
B4B2
  8
0
 10
404.1256124619625894
 20
110.1321824807430971
 30
0.0
 11
404.1354551537398834
 21
110.1255371062017048
 31
0.0
  0
LINE
  5
B4B3
  8
0
 10
404.1354551537398834
 20
110.1255371062017048
 30
0.0
 11
404.1551401968399091
 21
110.1283325374020023
 31
0.0
  0
LINE
  5
B4B4
  8
0
 10
404.1551401968399091
 20
110.1283325374020023
 30
0.0
 11
404.164982548189073
 21
110.1378144474713991
 31
0.0
  0
LINE
  5
B4B5
  8
0
 10
404.164982548189073
 20
110.1378144474713991
 30
0.0
 11
404.1551402182395236
 21
110.1444994896091032
 31
0.0
  0
LINE
  5
B4B6
  8
0
 10
404.1551402182395236
 20
110.1444994896091032
 30
0.0
 11
404.1354551751398958
 21
110.1416628088032041
 31
0.0
  0
LINE
  5
B4B7
  8
0
 10
404.1354551751398958
 20
110.1416628088032041
 30
0.0
 11
404.1256124619625894
 21
110.1321824807430971
 31
0.0
  0
LINE
  5
B4B8
  8
0
 10
404.1354551537398834
 20
110.1255371062017048
 30
0.0
 11
404.1354551751398958
 21
110.1416628088032041
 31
0.0
  0
LINE
  5
B4B9
  8
0
 10
404.1551401968399091
 20
110.1283325374020023
 30
0.0
 11
404.1551402182395236
 21
110.1444994896091032
 31
0.0
  0
LINE
  5
B4BA
  8
0
 10
404.1256119127456259
 20
110.1613564759153974
 30
0.0
 11
404.1354545992086855
 21
110.1529777453669965
 31
0.0
  0
LINE
  5
B4BB
  8
0
 10
404.1354545992086855
 20
110.1529777453669965
 30
0.0
 11
404.1551396424890186
 21
110.1558474793801992
 31
0.0
  0
LINE
  5
B4BC
  8
0
 10
404.1551396424890186
 20
110.1558474793801992
 30
0.0
 11
404.164981996240499
 21
110.1671585126779007
 31
0.0
  0
LINE
  5
B4BD
  8
0
 10
404.164981996240499
 20
110.1671585126779007
 30
0.0
 11
404.1551393068373272
 21
110.175621426630002
 31
0.0
  0
LINE
  5
B4BE
  8
0
 10
404.1551393068373272
 20
110.175621426630002
 30
0.0
 11
404.135454625439877
 21
110.1726881462031997
 31
0.0
  0
LINE
  5
B4BF
  8
0
 10
404.135454625439877
 20
110.1726881462031997
 30
0.0
 11
404.1256119127456259
 21
110.1613564759153974
 31
0.0
  0
LINE
  5
B4C0
  8
0
 10
404.1354545992086855
 20
110.1529777453669965
 30
0.0
 11
404.135454625439877
 21
110.1726881462031997
 31
0.0
  0
LINE
  5
B4C1
  8
0
 10
404.1551396424890186
 20
110.1558474793801992
 30
0.0
 11
404.1551393068373272
 21
110.175621426630002
 31
0.0
  0
LINE
  5
B4C2
  8
0
 10
404.1256113658051277
 20
110.196670072639094
 30
0.0
 11
404.1354540526469918
 21
110.1863852294699058
 31
0.0
  0
LINE
  5
B4C3
  8
0
 10
404.1354540526469918
 20
110.1863852294699058
 30
0.0
 11
404.1551391006187828
 21
110.1894868175451023
 31
0.0
  0
LINE
  5
B4C4
  8
0
 10
404.1551391006187828
 20
110.1894868175451023
 30
0.0
 11
404.1649814525623015
 21
110.2027248446377001
 31
0.0
  0
LINE
  5
B4C5
  8
0
 10
404.1649814525623015
 20
110.2027248446377001
 30
0.0
 11
404.1602111138552118
 21
110.2076131254215028
 31
0.0
  0
LINE
  5
B4C6
  8
0
 10
404.1348925388883231
 20
110.2092428482818036
 30
0.0
 11
404.1256113658051277
 21
110.196670072639094
 31
0.0
  0
LINE
  5
B4C7
  8
0
 10
404.1354540526469918
 20
110.1863852294699058
 30
0.0
 11
404.13562420391861
 21
110.2092016004589965
 31
0.0
  0
LINE
  5
B4C8
  8
0
 10
404.1551391006187828
 20
110.1894868175451023
 30
0.0
 11
404.1551618409172875
 21
110.2079557890605059
 31
0.0
  0
LINE
  5
B4C9
  8
0
 10
404.1534504915929915
 20
110.1820896574341049
 30
0.0
 11
404.1632931804523992
 21
110.173235241066493
 31
0.0
  0
LINE
  5
B4CA
  8
0
 10
404.1632931804523992
 20
110.173235241066493
 30
0.0
 11
404.182978228984723
 21
110.1771649513565023
 31
0.0
  0
LINE
  5
B4CB
  8
0
 10
404.182978228984723
 20
110.1771649513565023
 30
0.0
 11
404.1928205808670214
 21
110.1900527749904057
 31
0.0
  0
LINE
  5
B4CC
  8
0
 10
404.1928205808670214
 20
110.1900527749904057
 30
0.0
 11
404.1829782539393818
 21
110.1990282603221942
 31
0.0
  0
LINE
  5
B4CD
  8
0
 10
404.1829782539393818
 20
110.1990282603221942
 30
0.0
 11
404.1632932092397823
 21
110.1949932702031987
 31
0.0
  0
LINE
  5
B4CE
  8
0
 10
404.1632932092397823
 20
110.1949932702031987
 30
0.0
 11
404.1534504915929915
 21
110.1820896574341049
 31
0.0
  0
LINE
  5
B4CF
  8
0
 10
404.1632931804523992
 20
110.173235241066493
 30
0.0
 11
404.1632932092397823
 21
110.1949932702031987
 31
0.0
  0
LINE
  5
B4D0
  8
0
 10
404.182978228984723
 20
110.1771649513565023
 30
0.0
 11
404.1829782539393818
 21
110.1990282603221942
 31
0.0
  0
LINE
  5
B4D1
  8
0
 10
404.1532399264831952
 20
110.1499455885650036
 30
0.0
 11
404.1632937302240975
 21
110.1426084777408931
 31
0.0
  0
LINE
  5
B4D2
  8
0
 10
404.1632937302240975
 20
110.1426084777408931
 30
0.0
 11
404.1829787788047952
 21
110.1465494426335994
 31
0.0
  0
LINE
  5
B4D3
  8
0
 10
404.1829787788047952
 20
110.1465494426335994
 30
0.0
 11
404.1928211285012935
 21
110.1574690271564947
 31
0.0
  0
LINE
  5
B4D4
  8
0
 10
404.1928211285012935
 20
110.1574690271564947
 30
0.0
 11
404.1829787990395175
 21
110.1645756190877989
 31
0.0
  0
LINE
  5
B4D5
  8
0
 10
404.1829787990395175
 20
110.1645756190877989
 30
0.0
 11
404.1632937545398931
 21
110.1607012307031965
 31
0.0
  0
LINE
  5
B4D6
  8
0
 10
404.1632937545398931
 20
110.1607012307031965
 30
0.0
 11
404.1532399264831952
 21
110.1499455885650036
 31
0.0
  0
LINE
  5
B4D7
  8
0
 10
404.1632937302240975
 20
110.1426084777408931
 30
0.0
 11
404.1632937545398931
 21
110.1607012307031965
 31
0.0
  0
LINE
  5
B4D8
  8
0
 10
404.1829787788047952
 20
110.1465494426335994
 30
0.0
 11
404.1829787990395175
 21
110.1645756190877989
 31
0.0
  0
LINE
  5
B4D9
  8
0
 10
404.1260976484398952
 20
110.1084327606240976
 30
0.0
 11
404.1354650394389978
 21
110.1094432971525947
 31
0.0
  0
LINE
  5
B4DA
  8
0
 10
404.1354650394389978
 20
110.1094432971525947
 30
0.0
 11
404.1559467454330843
 21
110.1123309215729051
 31
0.0
  0
LINE
  5
B4DB
  8
0
 10
404.1559467454330843
 20
110.1123309215729051
 30
0.0
 11
404.1644984976738897
 21
110.1137505428312977
 31
0.0
  0
LINE
  5
B4DC
  8
0
 10
404.1644984976738897
 20
110.1137505428312977
 30
0.0
 11
404.1551500917842077
 21
110.1192468573392063
 31
0.0
  0
LINE
  5
B4DD
  8
0
 10
404.1551500917842077
 20
110.1192468573392063
 30
0.0
 11
404.1354650486845799
 21
110.116410176533293
 31
0.0
  0
LINE
  5
B4DE
  8
0
 10
404.1354650486845799
 20
110.116410176533293
 30
0.0
 11
404.1260976484398952
 21
110.1084327606240976
 31
0.0
  0
LINE
  5
B4DF
  8
0
 10
404.1535608864903111
 20
110.1234257039408959
 30
0.0
 11
404.163294288827899
 21
110.1180176496149983
 31
0.0
  0
LINE
  5
B4E0
  8
0
 10
404.163294288827899
 20
110.1180176496149983
 30
0.0
 11
404.1829793331954761
 21
110.121741470799293
 31
0.0
  0
LINE
  5
B4E1
  8
0
 10
404.1829793331954761
 20
110.121741470799293
 30
0.0
 11
404.1928216840701111
 21
110.1308777349624961
 31
0.0
  0
LINE
  5
B4E2
  8
0
 10
404.1928216840701111
 20
110.1308777349624961
 30
0.0
 11
404.1829789905070811
 21
110.1362684591937011
 31
0.0
  0
LINE
  5
B4E3
  8
0
 10
404.1829789905070811
 20
110.1362684591937011
 30
0.0
 11
404.1632943080398945
 21
110.1325006823032027
 31
0.0
  0
LINE
  5
B4E4
  8
0
 10
404.1632943080398945
 20
110.1325006823032027
 30
0.0
 11
404.1535608864903111
 21
110.1234257039408959
 31
0.0
  0
LINE
  5
B4E5
  8
0
 10
404.163294288827899
 20
110.1180176496149983
 30
0.0
 11
404.1632943080398945
 21
110.1325006823032027
 31
0.0
  0
LINE
  5
B4E6
  8
0
 10
404.1829793331954761
 20
110.121741470799293
 30
0.0
 11
404.1829789905070811
 21
110.1362684591937011
 31
0.0
  0
LINE
  5
B4E7
  8
0
 10
404.1812901728829956
 20
110.1409498099292961
 30
0.0
 11
404.1911328659556943
 21
110.1352073405720944
 31
0.0
  0
LINE
  5
B4E8
  8
0
 10
404.1911328659556943
 20
110.1352073405720944
 30
0.0
 11
404.2108178708915034
 21
110.1399573649427026
 31
0.0
  0
LINE
  5
B4E9
  8
0
 10
404.2108178708915034
 20
110.1399573649427026
 30
0.0
 11
404.2206602642687017
 21
110.1505227609485047
 31
0.0
  0
LINE
  5
B4EA
  8
0
 10
404.2206602642687017
 20
110.1505227609485047
 30
0.0
 11
404.2108175713440232
 21
110.1563019237407985
 31
0.0
  0
LINE
  5
B4EB
  8
0
 10
404.2108175713440232
 20
110.1563019237407985
 30
0.0
 11
404.1912150762692022
 21
110.1514971960229019
 31
0.0
  0
LINE
  5
B4EC
  8
0
 10
404.1912150762692022
 20
110.1514971960229019
 30
0.0
 11
404.1812901728829956
 21
110.1409498099292961
 31
0.0
  0
LINE
  5
B4ED
  8
0
 10
404.1911328659556943
 20
110.1352073405720944
 30
0.0
 11
404.1912150762692022
 21
110.1514971960229019
 31
0.0
  0
LINE
  5
B4EE
  8
0
 10
404.2108178708915034
 20
110.1399573649427026
 30
0.0
 11
404.2108175713440232
 21
110.1563019237407985
 31
0.0
  0
LINE
  5
B4EF
  8
0
 10
404.1812896210790882
 20
110.1703901456856016
 30
0.0
 11
404.1911323117399206
 21
110.1629083771920961
 31
0.0
  0
LINE
  5
B4F0
  8
0
 10
404.1911323117399206
 20
110.1629083771920961
 30
0.0
 11
404.2108173610557742
 21
110.1677898980063048
 31
0.0
  0
LINE
  5
B4F1
  8
0
 10
404.2108173610557742
 20
110.1677898980063048
 30
0.0
 11
404.2206597128654835
 21
110.1802643347529056
 31
0.0
  0
LINE
  5
B4F2
  8
0
 10
404.2206597128654835
 20
110.1802643347529056
 30
0.0
 11
404.2108173841394887
 21
110.1878356762264985
 31
0.0
  0
LINE
  5
B4F3
  8
0
 10
404.2108173841394887
 20
110.1878356762264985
 30
0.0
 11
404.1911323381398802
 21
110.182841692903196
 31
0.0
  0
LINE
  5
B4F4
  8
0
 10
404.1911323381398802
 20
110.182841692903196
 30
0.0
 11
404.1812896210790882
 21
110.1703901456856016
 31
0.0
  0
LINE
  5
B4F5
  8
0
 10
404.1911323117399206
 20
110.1629083771920961
 30
0.0
 11
404.1911323381398802
 21
110.182841692903196
 31
0.0
  0
LINE
  5
B4F6
  8
0
 10
404.2108173610557742
 20
110.1677898980063048
 30
0.0
 11
404.2108173841394887
 21
110.1878356762264985
 31
0.0
  0
LINE
  5
B4F7
  8
0
 10
404.2091287571815883
 20
110.1614877444552008
 30
0.0
 11
404.2189714468373722
 21
110.1553446397505951
 31
0.0
  0
LINE
  5
B4F8
  8
0
 10
404.2189714468373722
 20
110.1553446397505951
 30
0.0
 11
404.2386564938771016
 21
110.1611965788873988
 31
0.0
  0
LINE
  5
B4F9
  8
0
 10
404.2386564938771016
 20
110.1611965788873988
 30
0.0
 11
404.2484988487519786
 21
110.1733055570697957
 31
0.0
  0
LINE
  5
B4FA
  8
0
 10
404.2484988487519786
 20
110.1733055570697957
 30
0.0
 11
404.2386565181395213
 21
110.1795059566821067
 31
0.0
  0
LINE
  5
B4FB
  8
0
 10
404.2386565181395213
 20
110.1795059566821067
 30
0.0
 11
404.2189714708397901
 21
110.1735392064032055
 31
0.0
  0
LINE
  5
B4FC
  8
0
 10
404.2189714708397901
 20
110.1735392064032055
 30
0.0
 11
404.2091287571815883
 21
110.1614877444552008
 31
0.0
  0
LINE
  5
B4FD
  8
0
 10
404.2189714468373722
 20
110.1553446397505951
 30
0.0
 11
404.2189714708397901
 21
110.1735392064032055
 31
0.0
  0
LINE
  5
B4FE
  8
0
 10
404.2386564938771016
 20
110.1611965788873988
 30
0.0
 11
404.2386565181395213
 21
110.1795059566821067
 31
0.0
  0
LINE
  5
B4FF
  8
0
 10
404.209129312703908
 20
110.1347969402480942
 30
0.0
 11
404.2189720045328727
 21
110.1303477892210054
 31
0.0
  0
LINE
  5
B500
  8
0
 10
404.2189720045328727
 20
110.1303477892210054
 30
0.0
 11
404.2386570511628747
 21
110.1360706834186942
 31
0.0
  0
LINE
  5
B501
  8
0
 10
404.2386570511628747
 20
110.1360706834186942
 30
0.0
 11
404.2484994037282036
 21
110.1463135424098994
 31
0.0
  0
LINE
  5
B502
  8
0
 10
404.2484994037282036
 20
110.1463135424098994
 30
0.0
 11
404.2386570708396221
 21
110.1507723969795052
 31
0.0
  0
LINE
  5
B503
  8
0
 10
404.2386570708396221
 20
110.1507723969795052
 30
0.0
 11
404.219158612124204
 21
110.145030240621594
 31
0.0
  0
LINE
  5
B504
  8
0
 10
404.219158612124204
 20
110.145030240621594
 30
0.0
 11
404.209129312703908
 21
110.1347969402480942
 31
0.0
  0
LINE
  5
B505
  8
0
 10
404.2189720045328727
 20
110.1303477892210054
 30
0.0
 11
404.219158612124204
 21
110.145030240621594
 31
0.0
  0
LINE
  5
B506
  8
0
 10
404.2386570511628747
 20
110.1360706834186942
 30
0.0
 11
404.2386570708396221
 21
110.1507723969795052
 31
0.0
  0
LINE
  5
B507
  8
0
 10
404.2369678912199902
 20
110.1553452354144014
 30
0.0
 11
404.2468105854537157
 21
110.1505281719156955
 31
0.0
  0
LINE
  5
B508
  8
0
 10
404.2468105854537157
 20
110.1505281719156955
 30
0.0
 11
404.2664956339384048
 21
110.1573842549689033
 31
0.0
  0
LINE
  5
B509
  8
0
 10
404.2664956339384048
 20
110.1573842549689033
 30
0.0
 11
404.2763379882485992
 21
110.169169670045406
 31
0.0
  0
LINE
  5
B50A
  8
0
 10
404.2763379882485992
 20
110.169169670045406
 30
0.0
 11
404.2664956559395932
 21
110.1740094436484014
 31
0.0
  0
LINE
  5
B50B
  8
0
 10
404.2664956559395932
 20
110.1740094436484014
 30
0.0
 11
404.2468106073399099
 21
110.1670408051031984
 31
0.0
  0
LINE
  5
B50C
  8
0
 10
404.2468106073399099
 20
110.1670408051031984
 30
0.0
 11
404.2369678912199902
 21
110.1553452354144014
 31
0.0
  0
LINE
  5
B50D
  8
0
 10
404.2468105854537157
 20
110.1505281719156955
 30
0.0
 11
404.2468106073399099
 21
110.1670408051031984
 31
0.0
  0
LINE
  5
B50E
  8
0
 10
404.2664956339384048
 20
110.1573842549689033
 30
0.0
 11
404.2664956559395932
 21
110.1740094436484014
 31
0.0
  0
LINE
  5
B50F
  8
0
 10
404.2369673429034833
 20
110.1852428726345039
 30
0.0
 11
404.2468100313909076
 21
110.1786619766410951
 31
0.0
  0
LINE
  5
B510
  8
0
 10
404.2468100313909076
 20
110.1786619766410951
 30
0.0
 11
404.266495083446614
 21
110.1857202690980984
 31
0.0
  0
LINE
  5
B511
  8
0
 10
404.266495083446614
 20
110.1857202690980984
 30
0.0
 11
404.2713108536008235
 21
110.1923726826758951
 31
0.0
  0
LINE
  5
B512
  8
0
 10
404.2455659000692094
 20
110.1972337021428956
 30
0.0
 11
404.2369673429034833
 21
110.1852428726345039
 31
0.0
  0
LINE
  5
B513
  8
0
 10
404.2468100313909076
 20
110.1786619766410951
 30
0.0
 11
404.2468100527373167
 21
110.1970175239523968
 31
0.0
  0
LINE
  5
B514
  8
0
 10
404.266495083446614
 20
110.1857202690980984
 30
0.0
 11
404.2664950920046181
 21
110.1933441902719011
 31
0.0
  0
LINE
  5
B515
  8
0
 10
404.2648064769646794
 20
110.1794614202849942
 30
0.0
 11
404.274649170270493
 21
110.1739018104580055
 31
0.0
  0
LINE
  5
B516
  8
0
 10
404.274649170270493
 20
110.1739018104580055
 30
0.0
 11
404.294334220750784
 21
110.1820048522783964
 31
0.0
  0
LINE
  5
B517
  8
0
 10
404.294334220750784
 20
110.1820048522783964
 30
0.0
 11
404.2975137543539859
 21
110.1862626340504931
 31
0.0
  0
LINE
  5
B518
  8
0
 10
404.2975137543539859
 20
110.1862626340504931
 30
0.0
 11
404.2972310885584761
 21
110.1869414316089006
 31
0.0
  0
LINE
  5
B519
  8
0
 10
404.2741571617771115
 20
110.1917849291229032
 30
0.0
 11
404.2648064769646794
 21
110.1794614202849942
 31
0.0
  0
LINE
  5
B51A
  8
0
 10
404.274649170270493
 20
110.1739018104580055
 30
0.0
 11
404.2742280892250051
 21
110.191770153996103
 31
0.0
  0
LINE
  5
B51B
  8
0
 10
404.294334220750784
 20
110.1820048522783964
 30
0.0
 11
404.2943342281304808
 21
110.1876001038648951
 31
0.0
  0
LINE
  5
B51C
  8
0
 10
404.2091282097551925
 20
110.1942244723545059
 30
0.0
 11
404.2189708969398794
 21
110.1862587953032033
 31
0.0
  0
LINE
  5
B51D
  8
0
 10
404.2189708969398794
 20
110.1862587953032033
 30
0.0
 11
404.2386559443398824
 21
110.192315246503199
 31
0.0
  0
LINE
  5
B51E
  8
0
 10
404.2386559443398824
 20
110.192315246503199
 30
0.0
 11
404.2423892836887944
 21
110.1977770782297057
 31
0.0
  0
LINE
  5
B51F
  8
0
 10
404.2146387400447907
 20
110.2020029428980052
 30
0.0
 11
404.2091282097551925
 21
110.1942244723545059
 31
0.0
  0
LINE
  5
B520
  8
0
 10
404.2189708969398794
 20
110.1862587953032033
 30
0.0
 11
404.2189709142049878
 21
110.201404526105307
 31
0.0
  0
LINE
  5
B521
  8
0
 10
404.2386559443398824
 20
110.192315246503199
 30
0.0
 11
404.2386559523653204
 21
110.1983999512993933
 31
0.0
  0
LINE
  5
B522
  8
0
 10
404.1817753592399072
 20
110.1170084664032061
 30
0.0
 11
404.1911330826923177
 21
110.1259998660528936
 31
0.0
  0
LINE
  5
B523
  8
0
 10
404.1911330826923177
 20
110.1259998660528936
 30
0.0
 11
404.2108181282399073
 21
110.1307140280031973
 31
0.0
  0
LINE
  5
B524
  8
0
 10
404.2108181282399073
 20
110.1307140280031973
 30
0.0
 11
404.2201762139399079
 21
110.126612537903199
 31
0.0
  0
ARC
  5
B525
  8
0
 10
404.1164982464712239
 20
110.4595849272576942
 30
0.0
 40
0.3487402084802368
 50
280.788244471354119
 51
287.2950772311020273
  0
LINE
  5
B526
  8
0
 10
404.237453077250791
 20
110.1311679992460029
 30
0.0
 11
404.2468108021597004
 21
110.1412026168684974
 31
0.0
  0
LINE
  5
B527
  8
0
 10
404.2468108021597004
 20
110.1412026168684974
 30
0.0
 11
404.2664958504819879
 21
110.1480036541130971
 31
0.0
  0
LINE
  5
B528
  8
0
 10
404.2664958504819879
 20
110.1480036541130971
 30
0.0
 11
404.2758539374398765
 21
110.1448776727032026
 31
0.0
  0
ARC
  5
B529
  8
0
 10
404.1374403098365065
 20
110.4719395649928941
 30
0.0
 40
0.3551447784980088
 50
286.3563931068965189
 51
292.9382351060866085
  0
LINE
  5
B52A
  8
0
 10
404.2646620838730769
 20
110.1517967114937022
 30
0.0
 11
404.2746497278719744
 21
110.1484859962087057
 31
0.0
  0
LINE
  5
B52B
  8
0
 10
404.2746497278719744
 20
110.1484859962087057
 30
0.0
 11
404.2941898298997785
 21
110.1563355505096951
 31
0.0
  0
LINE
  5
B52C
  8
0
 10
404.2941898298997785
 20
110.1563355505096951
 30
0.0
 11
404.304177131676397
 21
110.1678965295201067
 31
0.0
  0
LINE
  5
B52D
  8
0
 10
404.304177131676397
 20
110.1678965295201067
 30
0.0
 11
404.2938859472167792
 21
110.1711717032818996
 31
0.0
  0
LINE
  5
B52E
  8
0
 10
404.2938859472167792
 20
110.1711717032818996
 30
0.0
 11
404.2745047999931103
 21
110.1634922811824993
 31
0.0
  0
LINE
  5
B52F
  8
0
 10
404.2745047999931103
 20
110.1634922811824993
 30
0.0
 11
404.2646620838730769
 21
110.1517967114937022
 31
0.0
  0
LINE
  5
B530
  8
0
 10
404.2746497278719744
 20
110.1484859962087057
 30
0.0
 11
404.2745047999931103
 21
110.1634922811824993
 31
0.0
  0
LINE
  5
B531
  8
0
 10
404.2941898298997785
 20
110.1563355505096951
 30
0.0
 11
404.2938859472167792
 21
110.1711717032818996
 31
0.0
  0
LINE
  5
B532
  8
0
 10
404.2925006726463835
 20
110.1756722329544971
 30
0.0
 11
404.3023433656064753
 21
110.1720596197695983
 31
0.0
  0
LINE
  5
B533
  8
0
 10
404.3023433656064753
 20
110.1720596197695983
 30
0.0
 11
404.3192838259732866
 21
110.1798097352048984
 31
0.0
  0
LINE
  5
B534
  8
0
 10
404.3192838259732866
 20
110.1798097352048984
 30
0.0
 11
404.3197457703353166
 21
110.1801652484963938
 31
0.0
  0
LINE
  5
B535
  8
0
 10
404.3004210605960793
 20
110.1861614454865048
 30
0.0
 11
404.2925006726463835
 21
110.1756722329544971
 31
0.0
  0
LINE
  5
B536
  8
0
 10
404.3023433656064753
 20
110.1720596197695983
 30
0.0
 11
404.3023433821867911
 21
110.185663456592394
 31
0.0
  0
LINE
  5
B537
  8
0
 10
404.3192838259732866
 20
110.1798097352048984
 30
0.0
 11
404.3193766411936281
 21
110.1803009890934959
 31
0.0
  0
LINE
  5
B538
  8
0
 10
404.2926461761398969
 20
110.1514092458031939
 30
0.0
 11
404.3055583652724749
 21
110.1566594244779935
 31
0.0
  0
LINE
  5
B539
  8
0
 10
404.3101270935216007
 20
110.1526935463615047
 30
0.0
 11
404.3221739252397811
 21
110.1583264168015006
 31
0.0
  0
LINE
  5
B53A
  8
0
 10
404.3221739252397811
 20
110.1583264168015006
 30
0.0
 11
404.3324943781182128
 21
110.1694238457777999
 31
0.0
  0
LINE
  5
B53B
  8
0
 10
404.3324943781182128
 20
110.1694238457777999
 30
0.0
 11
404.3222010116277829
 21
110.171627507595403
 31
0.0
  0
LINE
  5
B53C
  8
0
 10
404.3222010116277829
 20
110.171627507595403
 30
0.0
 11
404.3028448094365785
 21
110.1626626451705988
 31
0.0
  0
LINE
  5
B53D
  8
0
 10
404.3028448094365785
 20
110.1626626451705988
 30
0.0
 11
404.2926461761398969
 21
110.1514092458031939
 31
0.0
  0
LINE
  5
B53E
  8
0
 10
404.3055583652724749
 20
110.1566594244779935
 30
0.0
 11
404.3028448094365785
 21
110.1626626451705988
 31
0.0
  0
LINE
  5
B53F
  8
0
 10
404.3221739252397811
 20
110.1583264168015006
 30
0.0
 11
404.3222010116277829
 21
110.171627507595403
 31
0.0
  0
LINE
  5
B540
  8
0
 10
404.3101270935216007
 20
110.1526935463615047
 30
0.0
 11
404.3055583652724749
 21
110.1566594244779935
 31
0.0
  0
ARC
  5
B541
  8
0
 10
404.0714291069887167
 20
111.1033267179382023
 30
0.0
 40
1.0403966301012031
 50
269.4721461605018931
 51
282.0755078067816726
  0
ARC
  5
B542
  8
0
 10
404.2588337786921215
 20
110.262317037288895
 30
0.0
 40
0.1789407248075816
 50
279.731603715022402
 51
308.5518205217118748
  0
ARC
  5
B543
  8
0
 10
404.3553417036283122
 20
110.137253744115398
 30
0.0
 40
0.0211344226546186
 50
315.2598200033366993
 51
47.0808331692246824
  0
ARC
  5
B544
  8
0
 10
404.2530697643954909
 20
109.9994181731885021
 30
0.0
 40
0.1926530430604032
 50
52.7305574450938011
 51
80.1895034776108844
  0
ARC
  5
B545
  8
0
 10
404.099780471425106
 20
109.3545184682007942
 30
0.0
 40
0.8552323407841708
 50
77.4307321123447139
 51
86.3727618458624278
  0
ARC
  5
B546
  8
0
 10
404.0622498271424092
 20
108.9141769323996982
 30
0.0
 40
1.2971016498522261
 50
85.9488259519866062
 51
90.0179134714975504
  0
ARC
  5
B547
  8
0
 10
404.0148157367588055
 20
113.1240538906161959
 30
0.0
 40
3.0658850496947139
 50
270.878912035747021
 51
272.3596779490861195
  0
ARC
  5
B548
  8
0
 10
404.0756580432901046
 20
111.2135108297399029
 30
0.0
 40
1.154595313513886
 50
273.2465527269280869
 51
278.6772187640737002
  0
ARC
  5
B549
  8
0
 10
404.1749606266507158
 20
110.5865363016469018
 30
0.0
 40
0.5198279048003794
 50
278.2830986505680926
 51
289.1031422483649749
  0
ARC
  5
B54A
  8
0
 10
404.310673164438299
 20
110.2059672542885949
 30
0.0
 40
0.1158606066960434
 50
287.2779171302639156
 51
311.960892677680306
  0
ARC
  5
B54B
  8
0
 10
404.3721283495963235
 20
110.1373239798387971
 30
0.0
 40
0.0237278392109242
 50
312.4398001626911991
 51
350.4974867505079033
  0
ARC
  5
B54C
  8
0
 10
404.369324081433092
 20
110.1367412365463991
 30
0.0
 40
0.0264178113244191
 50
352.7486756683131262
 51
59.5499027421653295
  0
ARC
  5
B54D
  8
0
 10
404.2589740409031265
 20
109.9683610258343975
 30
0.0
 40
0.2277083658775007
 50
57.084146438699122
 51
78.9249368152823649
  0
ARC
  5
B54E
  8
0
 10
404.1085315878756887
 20
109.3457239762021942
 30
0.0
 40
0.8681016878114101
 50
77.0742513903028339
 51
85.6939797296456618
  0
ARC
  5
B54F
  8
0
 10
404.0629175708994012
 20
108.8594073470629979
 30
0.0
 40
1.3565000906277631
 50
85.3150644239971001
 51
90.0453332063705574
  0
ARC
  5
B550
  8
0
 10
417.74283980317648
 20
110.6601242362456929
 30
0.0
 40
10.2307334796413603
 50
185.000026953886703
 51
185.5335970380428989
  0
ARC
  5
B551
  8
0
 10
410.4757290448972071
 20
110.024330983444699
 30
0.0
 40
2.9358632386153478
 50
182.2845982671153138
 51
185.000026953886703
  0
ARC
  5
B552
  8
0
 10
428.6371902900182249
 20
110.7488807959514929
 30
0.0
 40
21.1117716612729396
 50
180.0208651896709
 51
182.2845982671161096
  0
ARC
  5
B553
  8
0
 10
408.0612256145199126
 20
108.2675847999601046
 30
0.0
 40
1.671666656680415
 50
270.0210877946240089
 51
273.9798629431015797
  0
ARC
  5
B554
  8
0
 10
408.1447587997880078
 20
107.221237997913903
 30
0.0
 40
0.6221375988564172
 50
272.9935558890704215
 51
281.3207854291237027
  0
ARC
  5
B555
  8
0
 10
408.215383471136704
 20
106.8201775599258951
 30
0.0
 40
0.2152254447929873
 50
283.8448608955017107
 51
350.6661772496759113
  0
ARC
  5
B556
  8
0
 10
406.8332539117627107
 20
107.0605533768370066
 30
0.0
 40
1.6180939584188789
 50
350.2047617523070926
 51
358.1384657945876029
  0
LINE
  5
B557
  8
0
 10
408.4504939204355196
 20
107.0079909128551066
 30
0.0
 11
408.5638984189399139
 21
109.6735805880032046
 31
0.0
  0
ARC
  5
B558
  8
0
 10
408.0611996937290087
 20
108.2881173719457024
 30
0.0
 40
1.671674676724471
 50
270.0219761151340094
 51
273.9798582024891971
  0
ARC
  5
B559
  8
0
 10
408.1447332976554776
 20
107.2417625595959976
 30
0.0
 40
0.6221375988564172
 50
272.9935558890704215
 51
281.3207854291237027
  0
ARC
  5
B55A
  8
0
 10
408.213881087099594
 20
106.8204229028204963
 30
0.0
 40
0.1959896554413495
 50
285.683025028392592
 51
349.9766052998622854
  0
ARC
  5
B55B
  8
0
 10
406.5856287117450734
 20
107.0901812666548949
 30
0.0
 40
1.8464265381780349
 50
350.5276182931344806
 51
358.1185757347765275
  0
LINE
  5
B55C
  8
0
 10
408.4310598646051744
 20
107.0295609652540065
 30
0.0
 11
408.5632279375428197
 21
110.6924811702728988
 31
0.0
  0
ARC
  5
B55D
  8
0
 10
405.5442790974174159
 20
110.7458999788192955
 30
0.0
 40
3.0194214128539718
 50
358.9862852698839788
 51
6.2647371564973158
  0
ARC
  5
B55E
  8
0
 10
408.3366086610640764
 20
111.0572281211354948
 30
0.0
 40
0.2098479291970283
 50
4.9642017245871459
 51
71.7181182797324368
  0
ARC
  5
B55F
  8
0
 10
408.1371996586856881
 20
110.5058494477513023
 30
0.0
 40
0.7961171992559811
 50
70.5391404599106124
 51
82.8536654389123441
  0
ARC
  5
B560
  8
0
 10
408.0645558434055147
 20
109.9264505837500963
 30
0.0
 40
1.38005227056472
 50
82.8536654389123441
 51
90.1127177580739698
  0
ARC
  5
B561
  8
0
 10
403.5236475073451743
 20
110.6455252170363934
 30
0.0
 40
5.0755158994894911
 50
1.0800206475367391
 51
4.9168854383594223
  0
ARC
  5
B562
  8
0
 10
408.3332046080737996
 20
111.0535602751337052
 30
0.0
 40
0.2487499047081059
 50
6.2290468375193493
 51
58.1691169987073096
  0
ARC
  5
B563
  8
0
 10
408.2566769707174785
 20
110.9038904943395067
 30
0.0
 40
0.4165050155169345
 50
60.084268193894907
 51
76.0309189932334135
  0
ARC
  5
B564
  8
0
 10
408.0408568362962001
 20
109.8314284221451942
 30
0.0
 40
1.5101587747653991
 50
77.907511829767742
 51
89.2038350527325434
  0
ARC
  5
B565
  8
0
 10
398.3808419445031745
 20
110.6601242362456929
 30
0.0
 40
10.2307334796413603
 50
354.4664029619569874
 51
354.9999730461133254
  0
ARC
  5
B566
  8
0
 10
405.6479527027825043
 20
110.024330983444699
 30
0.0
 40
2.9358632386153478
 50
354.9999730461133254
 51
357.7154017328838904
  0
ARC
  5
B567
  8
0
 10
387.4864914576616002
 20
110.7488807959514929
 30
0.0
 40
21.1117716612729396
 50
357.7154017328838904
 51
359.9791348103291284
  0
ENDSEC
  0
EOF
