  0
SECTION
  2
HEADER
  9
$ACADVER
  1
AC1009
  9
$INSBASE
 10
3637.2519133613450322
 20
154.3996938672879935
 30
0.0
  9
$EXTMIN
 10
3630.1880392806560849
 20
150.5344446261879909
 30
0.0
  9
$EXTMAX
 10
3637.2519133613450322
 20
155.9744970168879945
 30
0.0
  9
$LIMMIN
 10
0.0
 20
0.0
  9
$LIMMAX
 10
11.6929133858000007
 20
8.2677165353999982
  9
$ORTHOMODE
 70
     0
  9
$REGENMODE
 70
     1
  9
$FILLMODE
 70
     1
  9
$QTEXTMODE
 70
     0
  9
$MIRRTEXT
 70
     0
  9
$DRAGMODE
 70
     2
  9
$LTSCALE
 40
0.6431102362
  9
$OSMODE
 70
  3839
  9
$ATTMODE
 70
     1
  9
$TEXTSIZE
 40
0.2
  9
$TRACEWID
 40
0.05
  9
$TEXTSTYLE
  7
STANDARD
  9
$CLAYER
  8
0
  9
$CELTYPE
  6
BYLAYER
  9
$CECOLOR
 62
   256
  9
$DIMSCALE
 40
1.0
  9
$DIMASZ
 40
0.1875
  9
$DIMEXO
 40
0.0625
  9
$DIMDLI
 40
0.4443307087
  9
$DIMRND
 40
0.0
  9
$DIMDLE
 40
0.0
  9
$DIMEXE
 40
0.125
  9
$DIMTP
 40
0.01
  9
$DIMTM
 40
0.01
  9
$DIMTXT
 40
2.0
  9
$DIMCEN
 40
0.1052362205
  9
$DIMTSZ
 40
0.0
  9
$DIMTOL
 70
     1
  9
$DIMLIM
 70
     0
  9
$DIMTIH
 70
     1
  9
$DIMTOH
 70
     1
  9
$DIMSE1
 70
     0
  9
$DIMSE2
 70
     0
  9
$DIMTAD
 70
     0
  9
$DIMZIN
 70
     0
  9
$DIMBLK
  1

  9
$DIMASO
 70
     1
  9
$DIMSHO
 70
     1
  9
$DIMPOST
  1
\X
  9
$DIMAPOST
  1

  9
$DIMALT
 70
     1
  9
$DIMALTD
 70
     2
  9
$DIMALTF
 40
25.3999999999999986
  9
$DIMLFAC
 40
1.0
  9
$DIMTOFL
 70
     0
  9
$DIMTVP
 40
0.0
  9
$DIMTIX
 70
     0
  9
$DIMSOXD
 70
     0
  9
$DIMSAH
 70
     0
  9
$DIMBLK1
  1

  9
$DIMBLK2
  1

  9
$DIMSTYLE
  2
STANDARD
  9
$DIMCLRD
 70
     0
  9
$DIMCLRE
 70
     0
  9
$DIMCLRT
 70
     0
  9
$DIMTFAC
 40
1.0
  9
$DIMGAP
 40
0.09
  9
$LUNITS
 70
     2
  9
$LUPREC
 70
     4
  9
$SKETCHINC
 40
0.1
  9
$FILLETRAD
 40
0.0
  9
$AUNITS
 70
     0
  9
$AUPREC
 70
     0
  9
$MENU
  1
.
  9
$ELEVATION
 40
0.0
  9
$PELEVATION
 40
0.0
  9
$THICKNESS
 40
0.0
  9
$LIMCHECK
 70
     0
  9
$BLIPMODE
 70
     0
  9
$CHAMFERA
 40
0.0
  9
$CHAMFERB
 40
0.0
  9
$SKPOLY
 70
     0
  9
$TDCREATE
 40
2458060.468368056230247
  9
$TDUPDATE
 40
2459029.6489351848140359
  9
$TDINDWG
 40
0.7093357639
  9
$TDUSRTIMER
 40
0.7093357639
  9
$USRTIMER
 70
     1
  9
$ANGBASE
 50
0.0
  9
$ANGDIR
 70
     0
  9
$PDMODE
 70
     0
  9
$PDSIZE
 40
0.3125
  9
$PLINEWID
 40
0.0
  9
$COORDS
 70
     1
  9
$SPLFRAME
 70
     0
  9
$SPLINETYPE
 70
     6
  9
$SPLINESEGS
 70
     8
  9
$ATTDIA
 70
     1
  9
$ATTREQ
 70
     1
  9
$HANDLING
 70
     1
  9
$HANDSEED
  5
EFBE
  9
$SURFTAB1
 70
     6
  9
$SURFTAB2
 70
     6
  9
$SURFTYPE
 70
     6
  9
$SURFU
 70
     6
  9
$SURFV
 70
     6
  9
$UCSNAME
  2

  9
$UCSORG
 10
0.0
 20
0.0
 30
0.0
  9
$UCSXDIR
 10
1.0
 20
0.0
 30
0.0
  9
$UCSYDIR
 10
0.0
 20
1.0
 30
0.0
  9
$PUCSNAME
  2

  9
$PUCSORG
 10
0.0
 20
0.0
 30
0.0
  9
$PUCSXDIR
 10
1.0
 20
0.0
 30
0.0
  9
$PUCSYDIR
 10
0.0
 20
1.0
 30
0.0
  9
$USERI1
 70
     0
  9
$USERI2
 70
     0
  9
$USERI3
 70
     0
  9
$USERI4
 70
     0
  9
$USERI5
 70
     0
  9
$USERR1
 40
0.0
  9
$USERR2
 40
0.0
  9
$USERR3
 40
0.0
  9
$USERR4
 40
0.0
  9
$USERR5
 40
0.0
  9
$WORLDVIEW
 70
     1
  9
$SHADEDGE
 70
     3
  9
$SHADEDIF
 70
    70
  9
$TILEMODE
 70
     1
  9
$MAXACTVP
 70
    64
  9
$PLIMCHECK
 70
     0
  9
$PEXTMIN
 10
1.0000000000000000E+20
 20
1.0000000000000000E+20
 30
1.0000000000000000E+20
  9
$PEXTMAX
 10
-1.0000000000000000E+20
 20
-1.0000000000000000E+20
 30
-1.0000000000000000E+20
  9
$PLIMMIN
 10
0.0
 20
0.0
  9
$PLIMMAX
 10
12.0
 20
9.0
  9
$UNITMODE
 70
     0
  9
$VISRETAIN
 70
     1
  9
$PLINEGEN
 70
     0
  9
$PSLTSCALE
 70
     1
  0
ENDSEC
  0
SECTION
  2
TABLES
  0
TABLE
  2
VPORT
 70
     1
  0
VPORT
  2
*ACTIVE
 70
     0
 10
0.0
 20
0.0
 11
1.0
 21
1.0
 12
0.0
 22
0.0
 13
0.0
 23
0.0
 14
1.0
 24
1.0
 15
0.0
 25
0.0
 16
0.0
 26
0.0
 36
37.0149279890193128
 17
3633.7199707031259095
 27
153.2544708251953125
 37
0.0
 40
8.9159346084841395
 41
3.314341846758349
 42
50.0
 43
0.0
 44
0.0
 50
0.0
 51
0.0
 71
     0
 72
   100
 73
     1
 74
     1
 75
     0
 76
     0
 77
     0
 78
     0
  0
ENDTAB
  0
TABLE
  2
LTYPE
 70
     2
  0
LTYPE
  2
CONTINUOUS
 70
     0
  3
Solid line
 72
    65
 73
     0
 40
0.0
  0
LTYPE
  2
PHANTOM2
 70
     0
  3
___ _ _ ___ _ _ ___ _ _ ___ _ _
 72
    65
 73
     6
 40
1.25
 49
0.625
 49
-0.125
 49
0.125
 49
-0.125
 49
0.125
 49
-0.125
  0
ENDTAB
  0
TABLE
  2
LAYER
 70
     2
  0
LAYER
  2
0
 70
     0
 62
   255
  6
CONTINUOUS
  0
LAYER
  2
DEFPOINTS
 70
     0
 62
     7
  6
CONTINUOUS
  0
ENDTAB
  0
TABLE
  2
STYLE
 70
     1
  0
STYLE
  2
STANDARD
 70
     0
 40
0.0
 41
0.8
 50
0.0
 71
     0
 42
0.2
  3
txt
  4

  0
ENDTAB
  0
TABLE
  2
VIEW
 70
     0
  0
ENDTAB
  0
TABLE
  2
UCS
 70
     0
  0
ENDTAB
  0
TABLE
  2
APPID
 70
    10
  0
APPID
  2
ACAD
 70
     0
  0
APPID
  2
ACAD_MLEADERVER
 70
     0
  0
APPID
  2
ACAD_EXEMPT_FROM_CAD_STANDARDS
 70
     0
  0
APPID
  2
ACAD_NAV_VCDISPLAY
 70
     0
  0
APPID
  2
ACAECLAYERSTANDARD
 70
     0
  0
APPID
  2
ACCMTRANSPARENCY
 70
     0
  0
APPID
  2
ACAD_DSTYLE_DIMJAG
 70
     0
  0
APPID
  2
ACAD_DSTYLE_DIMTALN
 70
     0
  0
APPID
  2
ACDBATTR
 70
     0
  0
APPID
  2
ACAD_PSEXT
 70
     0
  0
ENDTAB
  0
TABLE
  2
DIMSTYLE
 70
     1
  0
DIMSTYLE
  2
STANDARD
 70
     0
  3

  4

  5

  6

  7

 40
1.0
 41
0.1875
 42
0.0625
 43
0.38
 44
0.125
 45
0.0
 46
0.0
 47
0.01
 48
0.01
140
0.15625
141
0.09
142
0.0
143
25.3999999999999986
144
1.0
145
0.0
146
1.0
147
0.09
 71
     1
 72
     0
 73
     1
 74
     1
 75
     0
 76
     0
 77
     0
 78
     4
170
     0
171
     2
172
     0
173
     0
174
     0
175
     0
176
     0
177
     0
178
     0
  0
ENDTAB
  0
ENDSEC
  0
SECTION
  2
BLOCKS
  0
BLOCK
  8
0
  2
$MODEL_SPACE
 70
     0
 10
0.0
 20
0.0
 30
0.0
  3
$MODEL_SPACE
  1

  0
ENDBLK
  5
21
  8
0
  0
BLOCK
 67
     1
  8
0
  2
$PAPER_SPACE
 70
     0
 10
0.0
 20
0.0
 30
0.0
  3
$PAPER_SPACE
  1

  0
ENDBLK
  5
1D
 67
     1
  8
0
  0
BLOCK
  8
0
  2
_FILLED
 70
     0
 10
0.0
 20
0.0
 30
0.0
  3
_FILLED
  1

  0
SOLID
  5
B630
  8
0
  6
BYBLOCK
 62
     0
 10
0.0
 20
0.0
 30
0.0
 11
-1.0
 21
0.1666666667
 31
0.0
 12
-1.0
 22
-0.1666666667
 32
0.0
 13
-1.0
 23
-0.1666666667
 33
0.0
  0
ENDBLK
  5
B631
  8
0
  6
BYBLOCK
 62
     0
  0
ENDSEC
  0
SECTION
  2
ENTITIES
  0
ATTDEF
  5
AA11
  8
DEFPOINTS
 10
3637.2408279498640695
 20
154.398273200365594
 30
0.0
 40
0.001
  1
K-5684IN-4ND
  3

  2
MODELNUMBER
 70
     0
1001
ACDBATTR
1070
     0
1070
     1
  0
ATTDEF
  5
AA12
  8
DEFPOINTS
 10
3637.2408279498640695
 20
154.3966065336990141
 30
0.0
 40
0.001
  1
ALEO
  3

  2
TRADENAME
 70
     0
1001
ACDBATTR
1070
     0
1070
     1
  0
ATTDEF
  5
AA13
  8
DEFPOINTS
 10
3637.2408279498640695
 20
154.3949398670322921
 30
0.0
 40
0.001
  1
BATHROOM SINK FAUCET
  3

  2
PRODUCT
 70
     0
1001
ACDBATTR
1070
     0
1070
     1
  0
ARC
  5
ED15
  8
0
 10
3634.8169984759788349
 20
155.2448483522317986
 30
0.0
 40
0.0196923303082242
 50
91.0206615327489317
 51
179.4793383733994006
  0
LINE
  5
ED16
  8
0
 10
3634.8166476972442069
 20
155.2645375580879943
 30
0.0
 11
3635.7007155511441852
 21
155.279967770306996
 31
0.0
  0
ARC
  5
ED17
  8
0
 10
3635.5565311365307934
 20
158.3080736002033859
 30
0.0
 40
3.0853659808386049
 50
272.6785050128019066
 51
274.1817206446016826
  0
ARC
  5
ED18
  8
0
 10
3635.7306803354540534
 20
156.184331510422993
 30
0.0
 40
0.9547643216115593
 50
273.0521155816329042
 51
285.5520034713824202
  0
ARC
  5
ED19
  8
0
 10
3635.9107822789869715
 20
155.5670113316749053
 30
0.0
 40
0.311860660518776
 50
284.0827127792396141
 51
314.2348711869548197
  0
ARC
  5
ED1A
  8
0
 10
3636.1721811523839278
 20
155.3037951064019921
 30
0.0
 40
0.0591961111484638
 50
91.0471073053384004
 51
137.7880715255408859
  0
LINE
  5
ED1B
  8
0
 10
3636.1710993758438235
 20
155.3629813322880011
 30
0.0
 11
3636.2322016463008367
 21
155.3636522146281038
 31
0.0
  0
ARC
  5
ED1C
  8
0
 10
3636.2412469070000043
 20
155.3536369334968867
 30
0.0
 40
0.0100835346660655
 50
96.6702034844713154
 51
153.7707090432639916
  0
LINE
  5
ED1D
  8
0
 10
3636.240075661838091
 20
155.3636522146281038
 30
0.0
 11
3636.5353513336449396
 21
155.3636522146281038
 31
0.0
  0
ARC
  5
ED1E
  8
0
 10
3636.5354506224130091
 20
155.3558531790741029
 30
0.0
 40
0.0077996675461823
 50
3.5627626573863651
 51
90.7293876308043536
  0
LINE
  5
ED1F
  8
0
 10
3636.5432352157440619
 20
155.3741690597013019
 30
0.0
 11
3636.9413340285768754
 21
155.3741690597013019
 31
0.0
  0
ARC
  5
ED20
  8
0
 10
3634.780124200544833
 20
152.1985744489581975
 30
0.0
 40
1.8363260326440549
 50
55.8950857878000207
 51
59.9122801344438898
  0
ARC
  5
ED21
  8
0
 10
3634.565316196636104
 20
151.8711699325064899
 30
0.0
 40
2.2278733116725311
 50
50.2389655537824282
 51
56.0420711841813031
  0
ARC
  5
ED22
  8
0
 10
3634.5149372144801418
 20
151.8166802455934885
 30
0.0
 40
2.3019855601243129
 50
45.3205632008586008
 51
50.1424838495332779
  0
ARC
  5
ED23
  8
0
 10
3636.1752320426608094
 20
153.4954688841166046
 30
0.0
 40
0.0591387872619954
 50
225.1920158112936008
 51
268.9673844671594907
  0
LINE
  5
ED24
  8
0
 10
3636.174166269143825
 20
153.4363397010880021
 30
0.0
 11
3636.2321883201630044
 21
153.4353269224297946
 31
0.0
  0
ARC
  5
ED25
  8
0
 10
3636.2388627975260533
 20
153.4428685584599066
 30
0.0
 40
0.0067799190417098
 50
190.7402490836647075
 51
271.337900049261691
  0
LINE
  5
ED26
  8
0
 10
3636.2390210994080917
 20
153.4360904877368057
 30
0.0
 11
3636.536758287145858
 21
153.4360904877368057
 31
0.0
  0
ARC
  5
ED27
  8
0
 10
3636.5369970949727758
 20
153.4423605059917008
 30
0.0
 40
0.0062745643748302
 50
267.8188149416353099
 51
6.1782705393717876
  0
LINE
  5
ED28
  8
0
 10
3636.5432352157440619
 20
153.4252773782878876
 30
0.0
 11
3636.9413221932441047
 21
153.4252773782878876
 31
0.0
  0
LINE
  5
ED29
  8
0
 10
3635.7007155511441852
 20
155.279967770306996
 30
0.0
 11
3635.7007155511441852
 21
153.3998165436879901
 31
0.0
  0
LINE
  5
ED2A
  8
0
 10
3636.2322016463008367
 20
155.3636522146281038
 30
0.0
 11
3636.2321883201630044
 21
153.4353269224297946
 31
0.0
  0
LINE
  5
ED2B
  8
0
 10
3636.5432352157440619
 20
155.3741690597013019
 30
0.0
 11
3636.5432352157440619
 21
153.4252773782878876
 31
0.0
  0
LINE
  5
ED2C
  8
0
 10
3636.1283366804691468
 20
155.3435674819614007
 30
0.0
 11
3636.1335543162440445
 21
153.4535113904879893
 31
0.0
  0
LINE
  5
ED2D
  8
0
 10
3634.7973069587451391
 20
155.245027299088008
 30
0.0
 11
3634.7563771357758924
 21
150.554967843279087
 31
0.0
  0
ARC
  5
ED2E
  8
0
 10
3634.7760702128798584
 20
150.5548046221749132
 30
0.0
 40
0.0196937535016623
 50
179.5251292469544921
 51
268.9757292937208035
  0
LINE
  5
ED2F
  8
0
 10
3634.7757181684451098
 20
150.5351140154878919
 30
0.0
 11
3634.8149227721601164
 21
150.5344446261879909
 31
0.0
  0
ARC
  5
ED30
  8
0
 10
3634.8149048857130765
 20
150.5736977392218137
 30
0.0
 40
0.0392531171089871
 50
270.0261079386120855
 51
334.4164399037916837
  0
ARC
  5
ED31
  8
0
 10
3633.9751003248247798
 20
150.8250641502854137
 30
0.0
 40
0.915415246943121
 50
342.9557867721567845
 51
359.134380607352
  0
ARC
  5
ED32
  8
0
 10
3629.5066657769039011
 20
151.1905111664918877
 30
0.0
 40
5.3970885108701481
 50
355.9702589986782186
 51
0.2666463194122653
  0
LINE
  5
ED33
  8
0
 10
3634.9036958417891583
 20
151.2156283497189122
 30
0.0
 11
3634.9200986429668774
 21
152.414152063604007
 31
0.0
  0
ARC
  5
ED34
  8
0
 10
3640.2446261542309003
 20
152.3058489282701089
 30
0.0
 40
5.3256288630850861
 50
175.3356141463567042
 51
178.8347403630536974
  0
ARC
  5
ED35
  8
0
 10
3636.3955814977121008
 20
152.6198894490069051
 30
0.0
 40
1.463794296904692
 50
164.3012701452591102
 51
175.3356141463549989
  0
ARC
  5
ED36
  8
0
 10
3635.5023392629591399
 20
152.8709471516762051
 30
0.0
 40
0.5359410434128842
 50
128.2360391731097877
 51
164.3012701452591102
  0
ARC
  5
ED37
  8
0
 10
3635.4626392063819367
 20
152.9024596552675916
 30
0.0
 40
0.4867586728495245
 50
91.1587576060987885
 51
126.8610749283381978
  0
LINE
  5
ED38
  8
0
 10
3635.4527956041088146
 20
153.3891187855512896
 30
0.0
 11
3635.7007155511441852
 21
153.3998165436879901
 31
0.0
  0
ARC
  5
ED39
  8
0
 10
3631.7488797066489497
 20
150.7940679973619922
 30
0.0
 40
3.1104964009514151
 50
355.6242650213276875
 51
1.4408773576825471
  0
ARC
  5
ED3A
  8
0
 10
3648.2478785002340373
 20
151.1504151360834953
 30
0.0
 40
13.3923743529873693
 50
179.7207091064103111
 51
181.190002682845801
  0
ARC
  5
ED3B
  8
0
 10
3664.2669393770820534
 20
151.5351156728727915
 30
0.0
 40
29.4130105834642706
 50
177.4867458818756063
 51
180.6222322411491916
  0
ARC
  5
ED3C
  8
0
 10
3636.4527066258951891
 20
152.7807012824544017
 30
0.0
 40
1.571107154404572
 50
153.1309727372918132
 51
178.3882690166161922
  0
ARC
  5
ED3D
  8
0
 10
3635.2939992209840057
 20
153.323348002737788
 30
0.0
 40
0.2949140265025494
 50
109.089688896021201
 51
145.410834471541591
  0
ARC
  5
ED3E
  8
0
 10
3634.7456400862870396
 20
155.425596925651007
 30
0.0
 40
1.8787139337749299
 50
283.9184857408213247
 51
295.696290454081975
  0
ARC
  5
ED3F
  8
0
 10
3635.391344948060123
 20
154.1302043048810049
 30
0.0
 40
0.4319218957888795
 50
293.0204029090277231
 51
315.7480006162394943
  0
LINE
  5
ED40
  8
0
 10
3634.7941022927579979
 20
154.8778115888879938
 30
0.0
 11
3630.2077063889109922
 21
154.8778115888879938
 31
0.0
  0
ARC
  5
ED41
  8
0
 10
3630.2077080862618459
 20
154.8581427833557029
 30
0.0
 40
0.0196688056055527
 50
90.0049444300012738
 51
189.7656497378505946
  0
ARC
  5
ED42
  8
0
 10
3631.1565216292788136
 20
155.0529054576832948
 30
0.0
 40
0.9882556642409365
 50
191.5634539587555025
 51
228.7971517248394946
  0
LINE
  5
ED43
  8
0
 10
3630.5055310755437858
 20
154.3093595230878918
 30
0.0
 11
3631.4531460442440221
 21
154.0813213452879893
 31
0.0
  0
ARC
  5
ED44
  8
0
 10
3631.7877470745552273
 20
153.0194775920890891
 30
0.0
 40
1.1133148716260659
 50
92.6604867722830363
 51
107.4903322170194002
  0
ARC
  5
ED45
  8
0
 10
3632.2329803546122093
 20
143.1937728117025017
 30
0.0
 40
10.9491012686457694
 50
88.4057029729386272
 51
92.6011875225026841
  0
ARC
  5
ED46
  8
0
 10
3631.5875234240570535
 20
109.7995606116907936
 30
0.0
 40
44.3492528474245802
 50
85.8632786695083041
 51
88.7724710979432956
  0
LINE
  5
ED47
  8
0
 10
3631.4291342981359776
 20
154.0870996360592073
 30
0.0
 11
3631.4179202801437896
 21
154.0802545701878898
 31
0.0
  0
LINE
  5
ED48
  8
0
 10
3631.4179202801437896
 20
154.0802545701878898
 30
0.0
 11
3630.5377989402441017
 21
154.293178331087887
 31
0.0
  0
LINE
  5
ED49
  8
0
 10
3631.3413879179470314
 20
154.0987696971891978
 30
0.0
 11
3631.3176260455438751
 21
154.0842653883879905
 31
0.0
  0
LINE
  5
ED4A
  8
0
 10
3631.3176260455438751
 20
154.0842653883879905
 30
0.0
 11
3631.3038712832299097
 21
154.0274100154911991
 31
0.0
  0
ARC
  5
ED4B
  8
0
 10
3631.2623119031368333
 20
154.0374720640363932
 30
0.0
 40
0.0427601086850326
 50
289.0589208606094189
 51
346.3898723438193201
  0
LINE
  5
ED4C
  8
0
 10
3631.2762748026439112
 20
153.997055924536312
 30
0.0
 11
3630.6257637932440048
 21
154.1544305112880124
 31
0.0
  0
ARC
  5
ED4D
  8
0
 10
3630.6596949938029866
 20
154.1848297211753902
 30
0.0
 40
0.0455569789733297
 50
168.3281762843951981
 51
221.8573932261406014
  0
LINE
  5
ED4E
  8
0
 10
3630.6150800230579989
 20
154.1940461585847117
 30
0.0
 11
3630.6288269972651506
 21
154.2508693395309081
 31
0.0
  0
LINE
  5
ED4F
  8
0
 10
3630.6288269972651506
 20
154.2508693395309081
 30
0.0
 11
3630.6143304765441826
 21
154.2746634038880131
 31
0.0
  0
LINE
  5
ED50
  8
0
 10
3630.5377989402441017
 20
154.293178331087887
 30
0.0
 11
3630.5317763396551527
 21
154.3030437488532982
 31
0.0
  0
ARC
  5
ED51
  8
0
 10
3631.0781207803561301
 20
154.5951884474480096
 30
0.0
 40
0.5939255145793717
 50
230.6100676645255874
 51
251.3207344671918122
  0
LINE
  5
ED52
  8
0
 10
3630.887904143743981
 20
154.0325472224878922
 30
0.0
 11
3630.9012688084399088
 21
154.0877790829678133
 31
0.0
  0
LINE
  5
ED53
  8
0
 10
3630.8537081812451106
 20
154.0745966389879129
 30
0.0
 11
3630.8523234699450768
 21
154.0688737907879897
 31
0.0
  0
LINE
  5
ED54
  8
0
 10
3630.8523234699450768
 20
154.0688737907879897
 30
0.0
 11
3630.8357536290209282
 21
154.0733541107753126
 31
0.0
  0
LINE
  5
ED55
  8
0
 10
3630.8357536290209282
 20
154.0733541107753126
 30
0.0
 11
3630.8207839903170679
 21
154.0835047052526079
 31
0.0
  0
LINE
  5
ED56
  8
0
 10
3630.8207839903170679
 20
154.0835047052526079
 30
0.0
 11
3630.8221827347610997
 21
154.0892855612908932
 31
0.0
  0
LINE
  5
ED57
  8
0
 10
3630.8221827347610997
 20
154.0892855612908932
 30
0.0
 11
3630.8386463590450148
 21
154.0848395700880076
 31
0.0
  0
LINE
  5
ED58
  8
0
 10
3630.8386463590450148
 20
154.0848395700880076
 30
0.0
 11
3630.8537081812451106
 21
154.0745966389879129
 31
0.0
  0
LINE
  5
ED59
  8
0
 10
3630.8357536290209282
 20
154.0733541107753126
 30
0.0
 11
3630.8386463590450148
 21
154.0848395700880076
 31
0.0
  0
LINE
  5
ED5A
  8
0
 10
3630.8502410214841802
 20
154.0602675566555035
 30
0.0
 11
3630.8493399368289829
 21
154.0565437816372878
 31
0.0
  0
LINE
  5
ED5B
  8
0
 10
3630.8493399368289829
 20
154.0565437816372878
 30
0.0
 11
3630.8330991393731892
 21
154.0619125497318009
 31
0.0
  0
LINE
  5
ED5C
  8
0
 10
3630.8330991393731892
 20
154.0619125497318009
 30
0.0
 11
3630.8178004572009741
 21
154.071174696101906
 31
0.0
  0
LINE
  5
ED5D
  8
0
 10
3630.8178004572009741
 20
154.071174696101906
 30
0.0
 11
3630.8186763273561155
 21
154.0747945705498978
 31
0.0
  0
LINE
  5
ED5E
  8
0
 10
3630.8186763273561155
 20
154.0747945705498978
 30
0.0
 11
3630.8349118799001189
 21
154.0694037977418134
 31
0.0
  0
LINE
  5
ED5F
  8
0
 10
3630.8349118799001189
 20
154.0694037977418134
 30
0.0
 11
3630.8502410214841802
 21
154.0602675566555035
 31
0.0
  0
LINE
  5
ED60
  8
0
 10
3630.8330991393731892
 20
154.0619125497318009
 30
0.0
 11
3630.8349118799001189
 21
154.0694037977418134
 31
0.0
  0
LINE
  5
ED61
  8
0
 10
3630.8481137292360472
 20
154.0514774089645869
 30
0.0
 11
3630.8476694789292196
 21
154.0496413749372948
 31
0.0
  0
LINE
  5
ED62
  8
0
 10
3630.8476694789292196
 20
154.0496413749372948
 30
0.0
 11
3630.8315615273718322
 21
154.0559556066538107
 31
0.0
  0
LINE
  5
ED63
  8
0
 10
3630.8315615273718322
 20
154.0559556066538107
 30
0.0
 11
3630.8161299993021203
 21
154.0642722894019983
 31
0.0
  0
LINE
  5
ED64
  8
0
 10
3630.8161299993021203
 20
154.0642722894019983
 30
0.0
 11
3630.8165242249879157
 21
154.0659015805491094
 31
0.0
  0
LINE
  5
ED65
  8
0
 10
3630.8165242249879157
 20
154.0659015805491094
 30
0.0
 11
3630.8324859817012111
 21
154.0596261125415083
 31
0.0
  0
LINE
  5
ED66
  8
0
 10
3630.8324859817012111
 20
154.0596261125415083
 30
0.0
 11
3630.8481137292360472
 21
154.0514774089645869
 31
0.0
  0
LINE
  5
ED67
  8
0
 10
3630.8315615273718322
 20
154.0559556066538107
 30
0.0
 11
3630.8324859817012111
 21
154.0596261125415083
 31
0.0
  0
LINE
  5
ED68
  8
0
 10
3630.8586261484438182
 20
154.0949226400879866
 30
0.0
 11
3630.8567121225291885
 21
154.0870118673373099
 31
0.0
  0
LINE
  5
ED69
  8
0
 10
3630.8567121225291885
 20
154.0870118673373099
 30
0.0
 11
3630.8400151013061077
 21
154.0904948340210865
 31
0.0
  0
LINE
  5
ED6A
  8
0
 10
3630.8400151013061077
 20
154.0904948340210865
 30
0.0
 11
3630.8251726429020891
 21
154.1016427818020134
 31
0.0
  0
LINE
  5
ED6B
  8
0
 10
3630.8251726429020891
 20
154.1016427818020134
 30
0.0
 11
3630.8262117344529543
 21
154.1059372322241074
 31
0.0
  0
LINE
  5
ED6C
  8
0
 10
3630.8523745870120365
 20
154.099607795749904
 30
0.0
 11
3630.8586261484438182
 21
154.0949226400879866
 31
0.0
  0
LINE
  5
ED6D
  8
0
 10
3630.8400151013061077
 20
154.0904948340210865
 30
0.0
 11
3630.8424551912130482
 21
154.1020075411688026
 31
0.0
  0
LINE
  5
ED6E
  8
0
 10
3630.8302228150359952
 20
154.0959101451666129
 30
0.0
 11
3630.8285639565438032
 21
154.0890541081880087
 31
0.0
  0
LINE
  5
ED6F
  8
0
 10
3630.8285639565438032
 20
154.0890541081880087
 30
0.0
 11
3630.8121896932689197
 21
154.0938711946002968
 31
0.0
  0
LINE
  5
ED70
  8
0
 10
3630.8121896932689197
 20
154.0938711946002968
 30
0.0
 11
3630.7974797690189916
 21
154.1055666945408973
 31
0.0
  0
LINE
  5
ED71
  8
0
 10
3630.7974797690189916
 20
154.1055666945408973
 30
0.0
 11
3630.7991531875481996
 21
154.1124832021363034
 31
0.0
  0
LINE
  5
ED72
  8
0
 10
3630.7991531875481996
 20
154.1124832021363034
 30
0.0
 11
3630.8155341764440891
 21
154.1076956325879905
 31
0.0
  0
LINE
  5
ED73
  8
0
 10
3630.8155341764440891
 20
154.1076956325879905
 30
0.0
 11
3630.8302228150359952
 21
154.0959101451666129
 31
0.0
  0
LINE
  5
ED74
  8
0
 10
3630.8121896932689197
 20
154.0938711946002968
 30
0.0
 11
3630.8155341764440891
 21
154.1076956325879905
 31
0.0
  0
LINE
  5
ED75
  8
0
 10
3630.8260062060671771
 20
154.0784834630117928
 30
0.0
 11
3630.8248620572708205
 21
154.0737547253845037
 31
0.0
  0
LINE
  5
ED76
  8
0
 10
3630.8248620572708205
 20
154.0737547253845037
 30
0.0
 11
3630.8086523984788982
 21
154.0795123389220862
 31
0.0
  0
LINE
  5
ED77
  8
0
 10
3630.8086523984788982
 20
154.0795123389220862
 30
0.0
 11
3630.7937142306877831
 21
154.0900045433986918
 31
0.0
  0
LINE
  5
ED78
  8
0
 10
3630.7937142306877831
 20
154.0900045433986918
 30
0.0
 11
3630.7949168139571157
 21
154.0949748879498884
 31
0.0
  0
LINE
  5
ED79
  8
0
 10
3630.7949168139571157
 20
154.0949748879498884
 30
0.0
 11
3630.8110228500481753
 21
154.0890487585022868
 31
0.0
  0
LINE
  5
ED7A
  8
0
 10
3630.8110228500481753
 20
154.0890487585022868
 30
0.0
 11
3630.8260062060671771
 21
154.0784834630117928
 31
0.0
  0
LINE
  5
ED7B
  8
0
 10
3630.8086523984788982
 20
154.0795123389220862
 30
0.0
 11
3630.8110228500481753
 21
154.0890487585022868
 31
0.0
  0
LINE
  5
ED7C
  8
0
 10
3630.8231931871991947
 20
154.0668587841533963
 30
0.0
 11
3630.8225168645440135
 21
154.0640633032880089
 31
0.0
  0
LINE
  5
ED7D
  8
0
 10
3630.8225168645440135
 20
154.0640633032880089
 30
0.0
 11
3630.8065849159820573
 21
154.0707087009834027
 31
0.0
  0
LINE
  5
ED7E
  8
0
 10
3630.8065849159820573
 20
154.0707087009834027
 30
0.0
 11
3630.791339012249864
 21
154.0801890059121888
 31
0.0
  0
LINE
  5
ED7F
  8
0
 10
3630.791339012249864
 20
154.0801890059121888
 30
0.0
 11
3630.7920255375438501
 21
154.0830258989880122
 31
0.0
  0
LINE
  5
ED80
  8
0
 10
3630.7920255375438501
 20
154.0830258989880122
 30
0.0
 11
3630.8079138021589642
 21
154.0763540667988991
 31
0.0
  0
LINE
  5
ED81
  8
0
 10
3630.8079138021589642
 20
154.0763540667988991
 30
0.0
 11
3630.8231931871991947
 21
154.0668587841533963
 31
0.0
  0
LINE
  5
ED82
  8
0
 10
3630.8065849159820573
 20
154.0707087009834027
 30
0.0
 11
3630.8079138021589642
 21
154.0763540667988991
 31
0.0
  0
LINE
  5
ED83
  8
0
 10
3630.802471673870059
 20
154.0995934894523032
 30
0.0
 11
3630.8010869625700252
 21
154.0938706412522947
 31
0.0
  0
LINE
  5
ED84
  8
0
 10
3630.8010869625700252
 20
154.0938706412522947
 30
0.0
 11
3630.7849550787941553
 21
154.1000758267308868
 31
0.0
  0
LINE
  5
ED85
  8
0
 10
3630.7849550787941553
 20
154.1000758267308868
 30
0.0
 11
3630.7704097274008745
 21
154.1120651166691005
 31
0.0
  0
LINE
  5
ED86
  8
0
 10
3630.7704097274008745
 20
154.1120651166691005
 30
0.0
 11
3630.7718533856577778
 21
154.1180321532187065
 31
0.0
  0
LINE
  5
ED87
  8
0
 10
3630.7718533856577778
 20
154.1180321532187065
 30
0.0
 11
3630.7878994916509328
 21
154.1118603502872872
 31
0.0
  0
LINE
  5
ED88
  8
0
 10
3630.7878994916509328
 20
154.1118603502872872
 30
0.0
 11
3630.802471673870059
 21
154.0995934894523032
 31
0.0
  0
LINE
  5
ED89
  8
0
 10
3630.7849550787941553
 20
154.1000758267308868
 30
0.0
 11
3630.7878994916509328
 21
154.1118603502872872
 31
0.0
  0
LINE
  5
ED8A
  8
0
 10
3630.7989005151757738
 20
154.0851165232975006
 30
0.0
 11
3630.7979975007788198
 21
154.0812891213413991
 31
0.0
  0
LINE
  5
ED8B
  8
0
 10
3630.7979975007788198
 20
154.0812891213413991
 30
0.0
 11
3630.7822033297529742
 21
154.0883176761763025
 31
0.0
  0
LINE
  5
ED8C
  8
0
 10
3630.7822033297529742
 20
154.0883176761763025
 30
0.0
 11
3630.7673377359678852
 21
154.0992010418746929
 31
0.0
  0
LINE
  5
ED8D
  8
0
 10
3630.7673377359678852
 20
154.0992010418746929
 30
0.0
 11
3630.7683194619507958
 21
154.1030446546068902
 31
0.0
  0
LINE
  5
ED8E
  8
0
 10
3630.7683194619507958
 20
154.1030446546068902
 30
0.0
 11
3630.7840607143439229
 21
154.0959951852879897
 31
0.0
  0
LINE
  5
ED8F
  8
0
 10
3630.7840607143439229
 20
154.0959951852879897
 30
0.0
 11
3630.7989005151757738
 21
154.0851165232975006
 31
0.0
  0
LINE
  5
ED90
  8
0
 10
3630.7822033297529742
 20
154.0883176761763025
 30
0.0
 11
3630.7840607143439229
 21
154.0959951852879897
 31
0.0
  0
LINE
  5
ED91
  8
0
 10
3630.7967864701531653
 20
154.0760985515823052
 30
0.0
 11
3630.7962515082817845
 21
154.0742637271185913
 31
0.0
  0
LINE
  5
ED92
  8
0
 10
3630.7962515082817845
 20
154.0742637271185913
 30
0.0
 11
3630.7808122957430896
 21
154.0821212996775955
 31
0.0
  0
LINE
  5
ED93
  8
0
 10
3630.7808122957430896
 20
154.0821212996775955
 30
0.0
 11
3630.7655665842539747
 21
154.0920508587504116
 31
0.0
  0
LINE
  5
ED94
  8
0
 10
3630.7655665842539747
 20
154.0920508587504116
 30
0.0
 11
3630.7660283200320919
 21
154.0939590949384979
 31
0.0
  0
LINE
  5
ED95
  8
0
 10
3630.7660283200320919
 20
154.0939590949384979
 30
0.0
 11
3630.7816310756438725
 21
154.0859547011878874
 31
0.0
  0
LINE
  5
ED96
  8
0
 10
3630.7816310756438725
 20
154.0859547011878874
 30
0.0
 11
3630.7967864701531653
 21
154.0760985515823052
 31
0.0
  0
LINE
  5
ED97
  8
0
 10
3630.7808122957430896
 20
154.0821212996775955
 30
0.0
 11
3630.7816310756438725
 21
154.0859547011878874
 31
0.0
  0
LINE
  5
ED98
  8
0
 10
3630.7754557380071674
 20
154.1063159353138872
 30
0.0
 11
3630.7742746029739465
 21
154.1014344437741102
 31
0.0
  0
LINE
  5
ED99
  8
0
 10
3630.7742746029739465
 20
154.1014344437741102
 30
0.0
 11
3630.7585449996581701
 21
154.1089162352377002
 31
0.0
  0
LINE
  5
ED9A
  8
0
 10
3630.7585449996581701
 20
154.1089162352377002
 30
0.0
 11
3630.7440179091709069
 21
154.1213677595941078
 31
0.0
  0
LINE
  5
ED9B
  8
0
 10
3630.7440179091709069
 20
154.1213677595941078
 30
0.0
 11
3630.7450360748289313
 21
154.1255756175904139
 31
0.0
  0
LINE
  5
ED9C
  8
0
 10
3630.748891058305162
 20
154.1246430024268932
 30
0.0
 11
3630.760934211699805
 21
154.1187903324596959
 31
0.0
  0
LINE
  5
ED9D
  8
0
 10
3630.760934211699805
 20
154.1187903324596959
 30
0.0
 11
3630.7754557380071674
 21
154.1063159353138872
 31
0.0
  0
LINE
  5
ED9E
  8
0
 10
3630.7585449996581701
 20
154.1089162352377002
 30
0.0
 11
3630.760934211699805
 21
154.1187903324596959
 31
0.0
  0
LINE
  5
ED9F
  8
0
 10
3630.7725660310438798
 20
154.0943736304880076
 30
0.0
 11
3630.771871656330859
 21
154.091503898913686
 31
0.0
  0
LINE
  5
EDA0
  8
0
 10
3630.771871656330859
 20
154.091503898913686
 30
0.0
 11
3630.7563589668611712
 21
154.0998826980722924
 31
0.0
  0
LINE
  5
EDA1
  8
0
 10
3630.7563589668611712
 20
154.0998826980722924
 30
0.0
 11
3630.7415610748830659
 21
154.1112142430374092
 31
0.0
  0
LINE
  5
EDA2
  8
0
 10
3630.7415610748830659
 20
154.1112142430374092
 30
0.0
 11
3630.7422707819450807
 21
154.1141475775914103
 31
0.0
  0
LINE
  5
EDA3
  8
0
 10
3630.7422707819450807
 20
154.1141475775914103
 30
0.0
 11
3630.7577626273441638
 21
154.1056847359880067
 31
0.0
  0
LINE
  5
EDA4
  8
0
 10
3630.7577626273441638
 20
154.1056847359880067
 30
0.0
 11
3630.7725660310438798
 21
154.0943736304880076
 31
0.0
  0
LINE
  5
EDA5
  8
0
 10
3630.7563589668611712
 20
154.0998826980722924
 30
0.0
 11
3630.7577626273441638
 21
154.1056847359880067
 31
0.0
  0
LINE
  5
EDA6
  8
0
 10
3630.7710298696438258
 20
154.0880263391879907
 30
0.0
 11
3630.7707743485229912
 21
154.0869702977252018
 31
0.0
  0
LINE
  5
EDA7
  8
0
 10
3630.7404435019061566
 20
154.1065970307334965
 30
0.0
 11
3630.7407008404870794
 21
154.1076606562855886
 31
0.0
  0
LINE
  5
EDA8
  8
0
 10
3630.7407008404870794
 20
154.1076606562855886
 30
0.0
 11
3630.7559734554438364
 21
154.0982916242880094
 31
0.0
  0
LINE
  5
EDA9
  8
0
 10
3630.7559734554438364
 20
154.0982916242880094
 30
0.0
 11
3630.7710298696438258
 21
154.0880263391879907
 31
0.0
  0
LINE
  5
EDAA
  8
0
 10
3630.7555251202029467
 20
154.0965106387183994
 30
0.0
 11
3630.7559734554438364
 21
154.0982916242880094
 31
0.0
  0
LINE
  5
EDAB
  8
0
 10
3630.7490816082440688
 20
154.1156910362880126
 30
0.0
 11
3630.7481307140319586
 21
154.1117613730048106
 31
0.0
  0
LINE
  5
EDAC
  8
0
 10
3630.7481307140319586
 20
154.1117613730048106
 30
0.0
 11
3630.7327331888241133
 21
154.1206158123289924
 31
0.0
  0
LINE
  5
EDAD
  8
0
 10
3630.7327331888241133
 20
154.1206158123289924
 30
0.0
 11
3630.7201010860658243
 21
154.1316080036615119
 31
0.0
  0
LINE
  5
EDAE
  8
0
 10
3630.7353507097432157
 20
154.127918745232904
 30
0.0
 11
3630.7490816082440688
 21
154.1156910362880126
 31
0.0
  0
LINE
  5
EDAF
  8
0
 10
3630.7327331888241133
 20
154.1206158123289924
 30
0.0
 11
3630.7344657857961465
 21
154.1281328300655957
 31
0.0
  0
LINE
  5
EDB0
  8
0
 10
3630.7468380093341693
 20
154.1064195487479935
 30
0.0
 11
3630.7463698087440207
 21
154.1044851016879136
 31
0.0
  0
LINE
  5
EDB1
  8
0
 10
3630.7463698087440207
 20
154.1044851016879136
 30
0.0
 11
3630.7311921247769533
 21
154.1142482571308108
 31
0.0
  0
LINE
  5
EDB2
  8
0
 10
3630.7311921247769533
 20
154.1142482571308108
 30
0.0
 11
3630.7165082723449814
 21
154.1260518020878862
 31
0.0
  0
LINE
  5
EDB3
  8
0
 10
3630.7165082723449814
 20
154.1260518020878862
 30
0.0
 11
3630.7169886508318086
 21
154.1280365866379043
 31
0.0
  0
LINE
  5
EDB4
  8
0
 10
3630.7169886508318086
 20
154.1280365866379043
 30
0.0
 11
3630.7321404747081033
 21
154.118166539055693
 31
0.0
  0
LINE
  5
EDB5
  8
0
 10
3630.7321404747081033
 20
154.118166539055693
 30
0.0
 11
3630.7468380093341693
 21
154.1064195487479935
 31
0.0
  0
LINE
  5
EDB6
  8
0
 10
3630.7311921247769533
 20
154.1142482571308108
 30
0.0
 11
3630.7321404747081033
 21
154.118166539055693
 31
0.0
  0
LINE
  5
EDB7
  8
0
 10
3630.8216967027437931
 20
154.0606747367878882
 30
0.0
 11
3630.8213967792789845
 21
154.0596137055682959
 31
0.0
  0
LINE
  5
EDB8
  8
0
 10
3630.7902197500598049
 20
154.0757074433456069
 30
0.0
 11
3630.7905068149439103
 21
154.0767506907880033
 31
0.0
  0
LINE
  5
EDB9
  8
0
 10
3630.7905068149439103
 20
154.0767506907880033
 30
0.0
 11
3630.8062109346219586
 21
154.0691635614082884
 31
0.0
  0
LINE
  5
EDBA
  8
0
 10
3630.8062109346219586
 20
154.0691635614082884
 30
0.0
 11
3630.8216967027437931
 21
154.0606747367878882
 31
0.0
  0
LINE
  5
EDBB
  8
0
 10
3630.8057156374447914
 20
154.0674167591355115
 30
0.0
 11
3630.8062109346219586
 21
154.0691635614082884
 31
0.0
  0
LINE
  5
EDBC
  8
0
 10
3630.7190068242680354
 20
154.1318727324606073
 30
0.0
 11
3630.7233914240441663
 21
154.1278933561879967
 31
0.0
  0
LINE
  5
EDBD
  8
0
 10
3630.7233914240441663
 20
154.1278933561879967
 30
0.0
 11
3630.7226698107488119
 21
154.1249114266082927
 31
0.0
  0
LINE
  5
EDBE
  8
0
 10
3630.7226698107488119
 20
154.1249114266082927
 30
0.0
 11
3630.708828710436137
 21
154.1343350681246136
 31
0.0
  0
LINE
  5
EDBF
  8
0
 10
3630.85816818564399
 20
154.0435777374879933
 30
0.0
 11
3630.8573741734790019
 21
154.043865579237405
 31
0.0
  0
LINE
  5
EDC0
  8
0
 10
3630.8573741734790019
 20
154.043865579237405
 30
0.0
 11
3630.8414751954442181
 21
154.0506463987879897
 31
0.0
  0
LINE
  5
EDC1
  8
0
 10
3630.8414751954442181
 20
154.0506463987879897
 30
0.0
 11
3630.8416971213309807
 21
154.0515628680363136
 31
0.0
  0
LINE
  5
EDC2
  8
0
 10
3630.8416971213309807
 20
154.0515628680363136
 30
0.0
 11
3630.8578021872440331
 21
154.0456330516879859
 31
0.0
  0
LINE
  5
EDC3
  8
0
 10
3630.8578021872440331
 20
154.0456330516879859
 30
0.0
 11
3630.858580640845048
 21
154.0452811280879928
 31
0.0
  0
LINE
  5
EDC4
  8
0
 10
3630.858580640845048
 20
154.0452811280879928
 30
0.0
 11
3630.85816818564399
 21
154.0435777374879933
 31
0.0
  0
LINE
  5
EDC5
  8
0
 10
3630.8589694552438232
 20
154.0468875374880042
 30
0.0
 11
3630.8581692601442228
 21
154.0471496349879885
 31
0.0
  0
LINE
  5
EDC6
  8
0
 10
3630.8581692601442228
 20
154.0471496349879885
 30
0.0
 11
3630.8425113844441512
 21
154.054927051887887
 31
0.0
  0
LINE
  5
EDC7
  8
0
 10
3630.8425113844441512
 20
154.054927051887887
 30
0.0
 11
3630.8431829480441593
 21
154.0577021007879921
 31
0.0
  0
LINE
  5
EDC8
  8
0
 10
3630.8431829480441593
 20
154.0577021007879921
 30
0.0
 11
3630.8594951774439323
 21
154.0526285954879882
 31
0.0
  0
LINE
  5
EDC9
  8
0
 10
3630.8594951774439323
 20
154.0526285954879882
 30
0.0
 11
3630.8602736310440378
 21
154.052276671887995
 31
0.0
  0
LINE
  5
EDCA
  8
0
 10
3630.8602736310440378
 20
154.052276671887995
 30
0.0
 11
3630.8589694552438232
 21
154.0468875374880042
 31
0.0
  0
LINE
  5
EDCB
  8
0
 10
3630.861063048529104
 20
154.0555389753091049
 30
0.0
 11
3630.8602520215890763
 21
154.0557562999694028
 31
0.0
  0
LINE
  5
EDCC
  8
0
 10
3630.8602520215890763
 20
154.0557562999694028
 30
0.0
 11
3630.8448341881439774
 21
154.0645259327878875
 31
0.0
  0
LINE
  5
EDCD
  8
0
 10
3630.8448341881439774
 20
154.0645259327878875
 30
0.0
 11
3630.8459748613440752
 21
154.0692400485878863
 31
0.0
  0
LINE
  5
EDCE
  8
0
 10
3630.8459748613440752
 20
154.0692400485878863
 30
0.0
 11
3630.8625215862639379
 21
154.0651386884302099
 31
0.0
  0
LINE
  5
EDCF
  8
0
 10
3630.8625215862639379
 20
154.0651386884302099
 30
0.0
 11
3630.8632768146439957
 21
154.0646879063880021
 31
0.0
  0
LINE
  5
EDD0
  8
0
 10
3630.8632768146439957
 20
154.0646879063880021
 30
0.0
 11
3630.861063048529104
 21
154.0555389753091049
 31
0.0
  0
LINE
  5
EDD1
  8
0
 10
3630.8644880889451088
 20
154.0696939574879138
 30
0.0
 11
3630.8636657995448331
 21
154.0698647283880121
 31
0.0
  0
LINE
  5
EDD2
  8
0
 10
3630.8636657995448331
 20
154.0698647283880121
 30
0.0
 11
3630.8485126790437789
 21
154.079728553188005
 31
0.0
  0
LINE
  5
EDD3
  8
0
 10
3630.8485126790437789
 20
154.079728553188005
 30
0.0
 11
3630.8501582205130944
 21
154.0865295443192053
 31
0.0
  0
LINE
  5
EDD4
  8
0
 10
3630.8501582205130944
 20
154.0865295443192053
 30
0.0
 11
3630.8669039438441359
 21
154.0832478881879126
 31
0.0
  0
LINE
  5
EDD5
  8
0
 10
3630.8669039438441359
 20
154.0832478881879126
 30
0.0
 11
3630.8676823974451509
 21
154.0828959645878911
 31
0.0
  0
LINE
  5
EDD6
  8
0
 10
3630.8676823974451509
 20
154.0828959645878911
 30
0.0
 11
3630.8644880889451088
 21
154.0696939574879138
 31
0.0
  0
LINE
  5
EDD7
  8
0
 10
3630.8706557736641116
 20
154.0951851277964124
 30
0.0
 11
3630.8693562681442017
 21
154.0898141600879967
 31
0.0
  0
LINE
  5
EDD8
  8
0
 10
3630.8693562681442017
 20
154.0898141600879967
 30
0.0
 11
3630.8685219173439691
 21
154.0899350746879861
 31
0.0
  0
LINE
  5
EDD9
  8
0
 10
3630.8685219173439691
 20
154.0899350746879861
 30
0.0
 11
3630.8569415092001691
 21
154.0985029451298942
 31
0.0
  0
ARC
  5
EDDA
  8
0
 10
3631.0848345830440849
 20
154.59356420763811
 30
0.0
 40
0.5939255145793716
 50
261.4792655376635935
 51
282.1900464008583072
  0
LINE
  5
EDDB
  8
0
 10
3630.996834236561881
 20
154.0061942595752953
 30
0.0
 11
3631.0101938538850845
 21
154.0614273411430872
 31
0.0
  0
LINE
  5
EDDC
  8
0
 10
3631.0464693866238122
 20
154.0279627955295041
 30
0.0
 11
3631.0450850694778637
 21
154.0222398519736089
 31
0.0
  0
LINE
  5
EDDD
  8
0
 10
3631.0450850694778637
 20
154.0222398519736089
 30
0.0
 11
3631.0618705022770882
 21
154.0186506819916872
 31
0.0
  0
LINE
  5
EDDE
  8
0
 10
3631.0618705022770882
 20
154.0186506819916872
 30
0.0
 11
3631.0798245597361529
 21
154.0208361960993955
 31
0.0
  0
LINE
  5
EDDF
  8
0
 10
3631.0798245597361529
 20
154.0208361960993955
 30
0.0
 11
3631.0812229108360043
 21
154.0266171472977135
 31
0.0
  0
LINE
  5
EDE0
  8
0
 10
3631.0812229108360043
 20
154.0266171472977135
 30
0.0
 11
3631.0645476404720284
 21
154.0301882984564941
 31
0.0
  0
LINE
  5
EDE1
  8
0
 10
3631.0645476404720284
 20
154.0301882984564941
 30
0.0
 11
3631.0464693866238122
 21
154.0279627955295041
 31
0.0
  0
LINE
  5
EDE2
  8
0
 10
3631.0618705022770882
 20
154.0186506819916872
 30
0.0
 11
3631.0645476404720284
 21
154.0301882984564941
 31
0.0
  0
LINE
  5
EDE3
  8
0
 10
3631.0430033414540958
 20
154.013633443549196
 30
0.0
 11
3631.0421026510580305
 21
154.0099095731495993
 31
0.0
  0
LINE
  5
EDE4
  8
0
 10
3631.0421026510580305
 20
154.0099095731495993
 30
0.0
 11
3631.0590015349980604
 21
154.0072610085479994
 31
0.0
  0
LINE
  5
EDE5
  8
0
 10
3631.0590015349980604
 20
154.0072610085479994
 30
0.0
 11
3631.0768421413167744
 21
154.0085059172754995
 31
0.0
  0
LINE
  5
EDE6
  8
0
 10
3631.0768421413167744
 20
154.0085059172754995
 30
0.0
 11
3631.0777177651671082
 21
154.0121258513109979
 31
0.0
  0
LINE
  5
EDE7
  8
0
 10
3631.0777177651671082
 20
154.0121258513109979
 30
0.0
 11
3631.0608134878279998
 21
154.0147524471217935
 31
0.0
  0
LINE
  5
EDE8
  8
0
 10
3631.0608134878279998
 20
154.0147524471217935
 30
0.0
 11
3631.0430033414540958
 21
154.013633443549196
 31
0.0
  0
LINE
  5
EDE9
  8
0
 10
3631.0590015349980604
 20
154.0072610085479994
 30
0.0
 11
3631.0608134878279998
 21
154.0147524471217935
 31
0.0
  0
LINE
  5
EDEA
  8
0
 10
3631.0408774317229472
 20
154.0048429613920007
 30
0.0
 11
3631.0404333078718082
 21
154.0030068967720922
 31
0.0
  0
LINE
  5
EDEB
  8
0
 10
3631.0404333078718082
 20
154.0030068967720922
 30
0.0
 11
3631.0576462059548248
 21
154.0012599665809887
 31
0.0
  0
LINE
  5
EDEC
  8
0
 10
3631.0576462059548248
 20
154.0012599665809887
 30
0.0
 11
3631.0751727981300974
 21
154.0016032408979072
 31
0.0
  0
LINE
  5
EDED
  8
0
 10
3631.0751727981300974
 20
154.0016032408979072
 30
0.0
 11
3631.0755669129562193
 21
154.0032325588651929
 31
0.0
  0
LINE
  5
EDEE
  8
0
 10
3631.0755669129562193
 20
154.0032325588651929
 30
0.0
 11
3631.0585017617709127
 21
154.0049471407733108
 31
0.0
  0
LINE
  5
EDEF
  8
0
 10
3631.0585017617709127
 20
154.0049471407733108
 30
0.0
 11
3631.0408774317229472
 21
154.0048429613920007
 31
0.0
  0
LINE
  5
EDF0
  8
0
 10
3631.0576462059548248
 20
154.0012599665809887
 30
0.0
 11
3631.0585017617709127
 21
154.0049471407733108
 31
0.0
  0
LINE
  5
EDF1
  8
0
 10
3631.0513862390389477
 20
154.0482890663242017
 30
0.0
 11
3631.0494726072020057
 21
154.0403781982361124
 31
0.0
  0
LINE
  5
EDF2
  8
0
 10
3631.0494726072020057
 20
154.0403781982361124
 30
0.0
 11
3631.0659152681150772
 21
154.0358438320444918
 31
0.0
  0
LINE
  5
EDF3
  8
0
 10
3631.0659152681150772
 20
154.0358438320444918
 30
0.0
 11
3631.0842120974612044
 21
154.038974542361899
 31
0.0
  0
LINE
  5
EDF4
  8
0
 10
3631.0842120974612044
 20
154.038974542361899
 30
0.0
 11
3631.085250950407044
 21
154.0432692850654064
 31
0.0
  0
LINE
  5
EDF5
  8
0
 10
3631.059088509447065
 20
154.0495986219636109
 30
0.0
 11
3631.0513862390389477
 21
154.0482890663242017
 31
0.0
  0
LINE
  5
EDF6
  8
0
 10
3631.0659152681150772
 20
154.0358438320444918
 30
0.0
 11
3631.0690074991812253
 21
154.0471989747817929
 31
0.0
  0
LINE
  5
EDF7
  8
0
 10
3631.0771000153540626
 20
154.0361842646896946
 30
0.0
 11
3631.0754415509668434
 21
154.0293281323669135
 31
0.0
  0
LINE
  5
EDF8
  8
0
 10
3631.0754415509668434
 20
154.0293281323669135
 30
0.0
 11
3631.0922069690391254
 21
154.0261278860947982
 31
0.0
  0
LINE
  5
EDF9
  8
0
 10
3631.0922069690391254
 20
154.0261278860947982
 30
0.0
 11
3631.1106362052951226
 21
154.0298061793554893
 31
0.0
  0
LINE
  5
EDFA
  8
0
 10
3631.1106362052951226
 20
154.0298061793554893
 30
0.0
 11
3631.1123093607398005
 21
154.0367227505975904
 31
0.0
  0
LINE
  5
EDFB
  8
0
 10
3631.1123093607398005
 20
154.0367227505975904
 30
0.0
 11
3631.0955514528891399
 21
154.0399523239192945
 31
0.0
  0
LINE
  5
EDFC
  8
0
 10
3631.0955514528891399
 20
154.0399523239192945
 30
0.0
 11
3631.0771000153540626
 21
154.0361842646896946
 31
0.0
  0
LINE
  5
EDFD
  8
0
 10
3631.0922069690391254
 20
154.0261278860947982
 30
0.0
 11
3631.0955514528891399
 21
154.0399523239192945
 31
0.0
  0
LINE
  5
EDFE
  8
0
 10
3631.0728846361239448
 20
154.0187572850296931
 30
0.0
 11
3631.0717407646297943
 21
154.0140284803158863
 31
0.0
  0
LINE
  5
EDFF
  8
0
 10
3631.0717407646297943
 20
154.0140284803158863
 30
0.0
 11
3631.088789693777926
 21
154.0117399946367129
 31
0.0
  0
LINE
  5
EE00
  8
0
 10
3631.088789693777926
 20
154.0117399946367129
 30
0.0
 11
3631.1068719097152098
 21
154.0142437275601992
 31
0.0
  0
LINE
  5
EE01
  8
0
 10
3631.1068719097152098
 20
154.0142437275601992
 30
0.0
 11
3631.1080742466560878
 21
154.0192141317043024
 31
0.0
  0
LINE
  5
EE02
  8
0
 10
3631.1080742466560878
 20
154.0192141317043024
 30
0.0
 11
3631.0910404529608968
 21
154.0213053708527013
 31
0.0
  0
LINE
  5
EE03
  8
0
 10
3631.0910404529608968
 20
154.0213053708527013
 30
0.0
 11
3631.0728846361239448
 21
154.0187572850296931
 31
0.0
  0
LINE
  5
EE04
  8
0
 10
3631.088789693777926
 20
154.0117399946367129
 30
0.0
 11
3631.0910404529608968
 21
154.0213053708527013
 31
0.0
  0
LINE
  5
EE05
  8
0
 10
3631.0700729645550382
 20
154.0071322802251075
 30
0.0
 11
3631.0693966884900874
 21
154.004336788088608
 31
0.0
  0
LINE
  5
EE06
  8
0
 10
3631.0693966884900874
 20
154.004336788088608
 30
0.0
 11
3631.0866044219101241
 21
154.0029648529460928
 31
0.0
  0
LINE
  5
EE07
  8
0
 10
3631.0866044219101241
 20
154.0029648529460928
 30
0.0
 11
3631.1044978060472204
 21
154.0044279203825113
 31
0.0
  0
LINE
  5
EE08
  8
0
 10
3631.1044978060472204
 20
154.0044279203825113
 30
0.0
 11
3631.105183937153015
 21
154.0072649088224068
 31
0.0
  0
LINE
  5
EE09
  8
0
 10
3631.105183937153015
 20
154.0072649088224068
 30
0.0
 11
3631.0880029737982113
 21
154.008593364852203
 31
0.0
  0
LINE
  5
EE0A
  8
0
 10
3631.0880029737982113
 20
154.008593364852203
 30
0.0
 11
3631.0700729645550382
 21
154.0071322802251075
 31
0.0
  0
LINE
  5
EE0B
  8
0
 10
3631.0866044219101241
 20
154.0029648529460928
 30
0.0
 11
3631.0880029737982113
 21
154.008593364852203
 31
0.0
  0
LINE
  5
EE0C
  8
0
 10
3631.1034659837227991
 20
154.0267753023074988
 30
0.0
 11
3631.1020816665768507
 21
154.0210523587516036
 31
0.0
  0
LINE
  5
EE0D
  8
0
 10
3631.1020816665768507
 20
154.0210523587516036
 30
0.0
 11
3631.1192660055580745
 21
154.0191975016838057
 31
0.0
  0
LINE
  5
EE0E
  8
0
 10
3631.1192660055580745
 20
154.0191975016838057
 30
0.0
 11
3631.1376831588199821
 21
154.0232123224901102
 31
0.0
  0
LINE
  5
EE0F
  8
0
 10
3631.1376831588199821
 20
154.0232123224901102
 30
0.0
 11
3631.139126665565982
 21
154.0291793956943991
 31
0.0
  0
LINE
  5
EE10
  8
0
 10
3631.139126665565982
 20
154.0291793956943991
 30
0.0
 11
3631.1220338778421137
 21
154.0310247348994892
 31
0.0
  0
LINE
  5
EE11
  8
0
 10
3631.1220338778421137
 20
154.0310247348994892
 30
0.0
 11
3631.1034659837227991
 21
154.0267753023074988
 31
0.0
  0
LINE
  5
EE12
  8
0
 10
3631.1192660055580745
 20
154.0191975016838057
 30
0.0
 11
3631.1220338778421137
 21
154.0310247348994892
 31
0.0
  0
LINE
  5
EE13
  8
0
 10
3631.1000248395189374
 20
154.0122668823373999
 30
0.0
 11
3631.0990784978089323
 21
154.0084499623613965
 31
0.0
  0
LINE
  5
EE14
  8
0
 10
3631.0990784978089323
 20
154.0084499623613965
 30
0.0
 11
3631.1163388299678445
 21
154.0074817912777121
 31
0.0
  0
LINE
  5
EE15
  8
0
 10
3631.1163388299678445
 20
154.0074817912777121
 30
0.0
 11
3631.1345352963789992
 21
154.0103666028244902
 31
0.0
  0
LINE
  5
EE16
  8
0
 10
3631.1345352963789992
 20
154.0103666028244902
 30
0.0
 11
3631.1354190406268572
 21
154.0142339198328898
 31
0.0
  0
LINE
  5
EE17
  8
0
 10
3631.1354190406268572
 20
154.0142339198328898
 30
0.0
 11
3631.1181962151999869
 21
154.015159300234501
 31
0.0
  0
LINE
  5
EE18
  8
0
 10
3631.1181962151999869
 20
154.015159300234501
 30
0.0
 11
3631.1000248395189374
 21
154.0122668823373999
 31
0.0
  0
LINE
  5
EE19
  8
0
 10
3631.1163388299678445
 20
154.0074817912777121
 30
0.0
 11
3631.1181962151999869
 21
154.015159300234501
 31
0.0
  0
LINE
  5
EE1A
  8
0
 10
3631.0977830095998797
 20
154.0032798250418011
 30
0.0
 11
3631.0974201189878841
 21
154.0014033721595865
 31
0.0
  0
LINE
  5
EE1B
  8
0
 10
3631.0974201189878841
 20
154.0014033721595865
 30
0.0
 11
3631.1147436875398853
 21
154.0013347938023003
 31
0.0
  0
LINE
  5
EE1C
  8
0
 10
3631.1147436875398853
 20
154.0013347938023003
 30
0.0
 11
3631.1328422538290397
 21
154.0031975231044896
 31
0.0
  0
LINE
  5
EE1D
  8
0
 10
3631.1328422538290397
 20
154.0031975231044896
 30
0.0
 11
3631.1333038292727906
 21
154.005105798081587
 31
0.0
  0
LINE
  5
EE1E
  8
0
 10
3631.1333038292727906
 20
154.005105798081587
 30
0.0
 11
3631.115767691173005
 21
154.0051185464666901
 31
0.0
  0
LINE
  5
EE1F
  8
0
 10
3631.115767691173005
 20
154.0051185464666901
 30
0.0
 11
3631.0977830095998797
 21
154.0032798250418011
 31
0.0
  0
LINE
  5
EE20
  8
0
 10
3631.1147436875398853
 20
154.0013347938023003
 30
0.0
 11
3631.115767691173005
 21
154.0051185464666901
 31
0.0
  0
LINE
  5
EE21
  8
0
 10
3631.1305672154880995
 20
154.0204054274468888
 30
0.0
 11
3631.1293864166618732
 21
154.0155238545700911
 31
0.0
  0
LINE
  5
EE22
  8
0
 10
3631.1293864166618732
 20
154.0155238545700911
 30
0.0
 11
3631.1467964947651126
 21
154.0149883133321111
 31
0.0
  0
LINE
  5
EE23
  8
0
 10
3631.1467964947651126
 20
154.0149883133321111
 30
0.0
 11
3631.1654086928729157
 21
154.0194226000205049
 31
0.0
  0
LINE
  5
EE24
  8
0
 10
3631.1654086928729157
 20
154.0194226000205049
 30
0.0
 11
3631.166426610023791
 21
154.0236308997006915
 31
0.0
  0
LINE
  5
EE25
  8
0
 10
3631.1625732470429284
 20
154.0245631228266916
 30
0.0
 11
3631.1491849198278032
 21
154.0248626009442035
 31
0.0
  0
LINE
  5
EE26
  8
0
 10
3631.1491849198278032
 20
154.0248626009442035
 30
0.0
 11
3631.1305672154880995
 21
154.0204054274468888
 31
0.0
  0
LINE
  5
EE27
  8
0
 10
3631.1467964947651126
 20
154.0149883133321111
 30
0.0
 11
3631.1491849198278032
 21
154.0248626009442035
 31
0.0
  0
LINE
  5
EE28
  8
0
 10
3631.1276785653949446
 20
154.0084628669374069
 30
0.0
 11
3631.1269844052822009
 21
154.0055930834458877
 31
0.0
  0
LINE
  5
EE29
  8
0
 10
3631.1269844052822009
 20
154.0055930834458877
 30
0.0
 11
3631.1446115770168035
 21
154.0059545064079032
 31
0.0
  0
LINE
  5
EE2A
  8
0
 10
3631.1446115770168035
 20
154.0059545064079032
 30
0.0
 11
3631.1629526901460849
 21
154.0092688822880973
 31
0.0
  0
LINE
  5
EE2B
  8
0
 10
3631.1629526901460849
 20
154.0092688822880973
 30
0.0
 11
3631.1636622862079093
 21
154.0122022436958105
 31
0.0
  0
LINE
  5
EE2C
  8
0
 10
3631.1636622862079093
 20
154.0122022436958105
 30
0.0
 11
3631.1460152379040665
 21
154.0117565442259888
 31
0.0
  0
LINE
  5
EE2D
  8
0
 10
3631.1460152379040665
 20
154.0117565442259888
 30
0.0
 11
3631.1276785653949446
 21
154.0084628669374069
 31
0.0
  0
LINE
  5
EE2E
  8
0
 10
3631.1446115770168035
 20
154.0059545064079032
 30
0.0
 11
3631.1460152379040665
 21
154.0117565442259888
 31
0.0
  0
LINE
  5
EE2F
  8
0
 10
3631.1261435188021096
 20
154.0021153059373944
 30
0.0
 11
3631.1258880691079867
 21
154.0010592471944051
 31
0.0
  0
LINE
  5
EE30
  8
0
 10
3631.1618361596770228
 20
154.0046514177749089
 30
0.0
 11
3631.1620934595639483
 21
154.0057150526880889
 31
0.0
  0
LINE
  5
EE31
  8
0
 10
3631.1620934595639483
 20
154.0057150526880889
 30
0.0
 11
3631.1442271806540703
 21
154.0043631628635978
 31
0.0
  0
LINE
  5
EE32
  8
0
 10
3631.1442271806540703
 20
154.0043631628635978
 30
0.0
 11
3631.1261435188021096
 21
154.0021153059373944
 31
0.0
  0
LINE
  5
EE33
  8
0
 10
3631.1438118525447862
 20
154.0025741920283053
 30
0.0
 11
3631.1442271806540703
 21
154.0043631628635978
 31
0.0
  0
LINE
  5
EE34
  8
0
 10
3631.1583101375517799
 20
154.0166882357144971
 30
0.0
 11
3631.1573596374928456
 21
154.0127584770758062
 31
0.0
  0
LINE
  5
EE35
  8
0
 10
3631.1573596374928456
 20
154.0127584770758062
 30
0.0
 11
3631.1751017943811348
 21
154.0135955835341974
 31
0.0
  0
LINE
  5
EE36
  8
0
 10
3631.1751017943811348
 20
154.0135955835341974
 30
0.0
 11
3631.1913623755472145
 21
154.0175983257124983
 31
0.0
  0
LINE
  5
EE37
  8
0
 10
3631.1761126816709293
 20
154.0212876011235892
 30
0.0
 11
3631.1583101375517799
 21
154.0166882357144971
 31
0.0
  0
LINE
  5
EE38
  8
0
 10
3631.1751017943811348
 20
154.0135955835341974
 30
0.0
 11
3631.1769969031720393
 21
154.0210736862300962
 31
0.0
  0
LINE
  5
EE39
  8
0
 10
3631.1560676534231789
 20
154.007416478480792
 30
0.0
 11
3631.1555998469530095
 21
154.0054819360730107
 31
0.0
  0
LINE
  5
EE3A
  8
0
 10
3631.1555998469530095
 20
154.0054819360730107
 30
0.0
 11
3631.1735618456959855
 21
154.0072277585013865
 31
0.0
  0
LINE
  5
EE3B
  8
0
 10
3631.1735618456959855
 20
154.0072277585013865
 30
0.0
 11
3631.1920172804047979
 21
154.0110140661425078
 31
0.0
  0
LINE
  5
EE3C
  8
0
 10
3631.1920172804047979
 20
154.0110140661425078
 30
0.0
 11
3631.1924972648148469
 21
154.0129989460297111
 31
0.0
  0
LINE
  5
EE3D
  8
0
 10
3631.1924972648148469
 20
154.0129989460297111
 30
0.0
 11
3631.1745094062839598
 21
154.011146231388409
 31
0.0
  0
LINE
  5
EE3E
  8
0
 10
3631.1745094062839598
 20
154.011146231388409
 30
0.0
 11
3631.1560676534231789
 21
154.007416478480792
 31
0.0
  0
LINE
  5
EE3F
  8
0
 10
3631.1735618456959855
 20
154.0072277585013865
 30
0.0
 11
3631.1745094062839598
 21
154.011146231388409
 31
0.0
  0
LINE
  5
EE40
  8
0
 10
3631.068577247101075
 20
154.0009480473028134
 30
0.0
 11
3631.06835900877104
 21
153.9998672543692919
 31
0.0
  0
LINE
  5
EE41
  8
0
 10
3631.10344478320485
 20
153.9999303328312124
 30
0.0
 11
3631.1036663292411504
 21
154.0009894309511083
 31
0.0
  0
LINE
  5
EE42
  8
0
 10
3631.1036663292411504
 20
154.0009894309511083
 30
0.0
 11
3631.0862307669590336
 21
154.0014196344037885
 31
0.0
  0
LINE
  5
EE43
  8
0
 10
3631.0862307669590336
 20
154.0014196344037885
 30
0.0
 11
3631.068577247101075
 21
154.0009480473028134
 31
0.0
  0
LINE
  5
EE44
  8
0
 10
3631.0858728326797973
 20
153.9996396005489032
 30
0.0
 11
3631.0862307669590336
 21
154.0014196344037885
 31
0.0
  0
LINE
  5
EE45
  8
0
 10
3631.192456602610946
 20
154.0173336053163098
 30
0.0
 11
3631.1867370631430276
 21
154.0157982488846073
 31
0.0
  0
LINE
  5
EE46
  8
0
 10
3631.1867370631430276
 20
154.0157982488846073
 30
0.0
 11
3631.1860158439949373
 21
154.0128162239510061
 31
0.0
  0
LINE
  5
EE47
  8
0
 10
3631.1860158439949373
 20
154.0128162239510061
 30
0.0
 11
3631.2026350953428846
 21
154.0148711779870041
 31
0.0
  0
LINE
  5
EE48
  8
0
 10
3631.0283239101131585
 20
154.0024127354182042
 30
0.0
 11
3631.0291616893991886
 21
154.0023058052684917
 31
0.0
  0
LINE
  5
EE49
  8
0
 10
3631.0291616893991886
 20
154.0023058052684917
 30
0.0
 11
3631.046401999344198
 21
154.0010693873003902
 31
0.0
  0
LINE
  5
EE4A
  8
0
 10
3631.046401999344198
 20
154.0010693873003902
 30
0.0
 11
3631.0466235310182128
 21
154.0019859519186127
 31
0.0
  0
LINE
  5
EE4B
  8
0
 10
3631.0466235310182128
 20
154.0019859519186127
 30
0.0
 11
3631.0295889149419963
 21
154.0040734684100983
 31
0.0
  0
LINE
  5
EE4C
  8
0
 10
3631.0295889149419963
 20
154.0040734684100983
 30
0.0
 11
3631.0287356820158493
 21
154.0041162913248911
 31
0.0
  0
LINE
  5
EE4D
  8
0
 10
3631.0287356820158493
 20
154.0041162913248911
 30
0.0
 11
3631.0283239101131585
 21
154.0024127354182042
 31
0.0
  0
LINE
  5
EE4E
  8
0
 10
3631.0291241505287871
 20
154.0057227844037868
 30
0.0
 11
3631.0299556613767891
 21
154.0055901306903081
 31
0.0
  0
LINE
  5
EE4F
  8
0
 10
3631.0299556613767891
 20
154.0055901306903081
 30
0.0
 11
3631.0474370735391858
 21
154.0053503100999137
 31
0.0
  0
LINE
  5
EE50
  8
0
 10
3631.0474370735391858
 20
154.0053503100999137
 30
0.0
 11
3631.0481082429760136
 21
154.0081254543578098
 31
0.0
  0
LINE
  5
EE51
  8
0
 10
3631.0481082429760136
 20
154.0081254543578098
 30
0.0
 11
3631.0312807903078465
 21
154.0110692819170026
 31
0.0
  0
LINE
  5
EE52
  8
0
 10
3631.0312807903078465
 20
154.0110692819170026
 30
0.0
 11
3631.0304275573807899
 21
154.0111121048317955
 31
0.0
  0
LINE
  5
EE53
  8
0
 10
3631.0304275573807899
 20
154.0111121048317955
 30
0.0
 11
3631.0291241505287871
 21
154.0057227844037868
 31
0.0
  0
LINE
  5
EE54
  8
0
 10
3631.0312166286757929
 20
154.0143744920050892
 30
0.0
 11
3631.0320373079680394
 21
154.0141970653830867
 31
0.0
  0
LINE
  5
EE55
  8
0
 10
3631.0320373079680394
 20
154.0141970653830867
 30
0.0
 11
3631.0497587624568041
 21
154.0149494606941118
 31
0.0
  0
LINE
  5
EE56
  8
0
 10
3631.0497587624568041
 20
154.0149494606941118
 30
0.0
 11
3631.0508990415951303
 21
154.0196636718274874
 31
0.0
  0
LINE
  5
EE57
  8
0
 10
3631.0508990415951303
 20
154.0196636718274874
 30
0.0
 11
3631.0343073903009099
 21
154.0235793286094861
 31
0.0
  0
LINE
  5
EE58
  8
0
 10
3631.0343073903009099
 20
154.0235793286094861
 30
0.0
 11
3631.0334296262772114
 21
154.0235236090072988
 31
0.0
  0
LINE
  5
EE59
  8
0
 10
3631.0334296262772114
 20
154.0235236090072988
 30
0.0
 11
3631.0312166286757929
 21
154.0143744920050892
 31
0.0
  0
LINE
  5
EE5A
  8
0
 10
3631.034640554662019
 20
154.0285297437928875
 30
0.0
 11
3631.0354499713421319
 21
154.0283057634472925
 31
0.0
  0
LINE
  5
EE5B
  8
0
 10
3631.0354499713421319
 20
154.0283057634472925
 30
0.0
 11
3631.0534361386908131
 21
154.0301523507602042
 31
0.0
  0
LINE
  5
EE5C
  8
0
 10
3631.0534361386908131
 20
154.0301523507602042
 30
0.0
 11
3631.0550812861129089
 21
154.0369534372210865
 31
0.0
  0
LINE
  5
EE5D
  8
0
 10
3631.0550812861129089
 20
154.0369534372210865
 30
0.0
 11
3631.0386873273841957
 21
154.0416891139470863
 31
0.0
  0
LINE
  5
EE5E
  8
0
 10
3631.0386873273841957
 20
154.0416891139470863
 30
0.0
 11
3631.0378340944580486
 21
154.0417319368619076
 31
0.0
  0
LINE
  5
EE5F
  8
0
 10
3631.0378340944580486
 20
154.0417319368619076
 30
0.0
 11
3631.034640554662019
 21
154.0285297437928875
 31
0.0
  0
LINE
  5
EE60
  8
0
 10
3631.0408069111999794
 20
154.0540213894921067
 30
0.0
 11
3631.0395076192721717
 21
154.0486502160404996
 31
0.0
  0
LINE
  5
EE61
  8
0
 10
3631.0395076192721717
 20
154.0486502160404996
 30
0.0
 11
3631.0403049743481461
 21
154.0483763794445053
 31
0.0
  0
LINE
  5
EE62
  8
0
 10
3631.0403049743481461
 20
154.0483763794445053
 30
0.0
 11
3631.0545215758538689
 21
154.0507034753429139
 31
0.0
  0
LINE
  5
EE63
  8
0
 10
3631.3176260455438751
 20
154.0842653883879905
 30
0.0
 11
3630.6288269972651506
 21
154.2508693395309081
 31
0.0
  0
LINE
  5
EE64
  8
0
 10
3637.2519133613450322
 20
152.8248907176879925
 30
0.0
 11
3637.2519133613450322
 21
155.9744970168879945
 31
0.0
  0
LINE
  5
EE65
  8
0
 10
3637.2519133613450322
 20
155.9744970168879945
 30
0.0
 11
3637.0046510774891431
 21
155.9528548798386964
 31
0.0
  0
ARC
  5
EE66
  8
0
 10
3637.0080823365710785
 20
155.9136372337316061
 30
0.0
 40
0.0393674650576558
 50
95.0002314538714359
 51
176.4693196446523871
  0
ARC
  5
EE67
  8
0
 10
3661.5484915480042218
 20
154.3990629729086947
 30
0.0
 40
24.6264701706596583
 50
176.4683252626535079
 51
183.5287537529374902
  0
ARC
  5
EE68
  8
0
 10
3637.0080058535149874
 20
152.8857398467413873
 30
0.0
 40
0.0393681656376035
 50
183.5277593709396058
 51
265.1113506026485993
  0
LINE
  5
EE69
  8
0
 10
3637.0046509165440511
 20
152.846514894687914
 30
0.0
 11
3637.2519133613450322
 21
152.8248907176879925
 31
0.0
  0
ENDSEC
  0
EOF
